ISO-10303-21;
HEADER;
/* Generated by software containing ST-Developer
 * from STEP Tools, Inc. (www.steptools.com) 
 */
/* OPTION: using custom schema-name function */

FILE_DESCRIPTION(
/* description */ (''),
/* implementation_level */ '2;1');

FILE_NAME(
/* name */ '2080.50-QTCC.M14.M36.stp',
/* time_stamp */ '2024-06-23T17:27:42+02:00',
/* author */ (''),
/* organization */ (''),
/* preprocessor_version */ 'ST-DEVELOPER v16.7',
/* originating_system */ 'SIEMENS PLM Software NX 12.0',
/* authorisation */ '');

FILE_SCHEMA (('AUTOMOTIVE_DESIGN { 1 0 10303 214 3 1 1 1 }'));
ENDSEC;

DATA;
#10=CONSTRUCTIVE_GEOMETRY_REPRESENTATION_RELATIONSHIP(
'supplemental geometry','',#32,#11);
#11=CONSTRUCTIVE_GEOMETRY_REPRESENTATION('supplemental geometry',(#258,
#259,#260),#428);
#12=PROPERTY_DEFINITION_REPRESENTATION(#16,#14);
#13=PROPERTY_DEFINITION_REPRESENTATION(#17,#15);
#14=REPRESENTATION('',(#18),#428);
#15=REPRESENTATION('',(#19),#428);
#16=PROPERTY_DEFINITION('pmi validation property','',#23);
#17=PROPERTY_DEFINITION('pmi validation property','',#23);
#18=VALUE_REPRESENTATION_ITEM('number of annotations',COUNT_MEASURE(0.));
#19=VALUE_REPRESENTATION_ITEM('number of views',COUNT_MEASURE(0.));
#20=SHAPE_REPRESENTATION_RELATIONSHIP('None',
'relationship between pf660F5CA0AEj8aw-None and pf660F5CA0AEj8aw-None',
#32,#21);
#21=ADVANCED_BREP_SHAPE_REPRESENTATION('pf660F5CA0AEj8aw-None',(#38),#428);
#22=SHAPE_DEFINITION_REPRESENTATION(#23,#32);
#23=PRODUCT_DEFINITION_SHAPE('','',#24);
#24=PRODUCT_DEFINITION(' ','',#26,#25);
#25=PRODUCT_DEFINITION_CONTEXT('part definition',#31,'design');
#26=PRODUCT_DEFINITION_FORMATION_WITH_SPECIFIED_SOURCE(' ',' ',#28,
 .NOT_KNOWN.);
#27=PRODUCT_RELATED_PRODUCT_CATEGORY('part','',(#28));
#28=PRODUCT('pf660F5CA0AEj8aw','pf660F5CA0AEj8aw',' ',(#29));
#29=PRODUCT_CONTEXT(' ',#31,'mechanical');
#30=APPLICATION_PROTOCOL_DEFINITION('international standard',
'automotive_design',2010,#31);
#31=APPLICATION_CONTEXT(
'core data for automotive mechanical design processes');
#32=SHAPE_REPRESENTATION('pf660F5CA0AEj8aw-None',(#257),#428);
#33=SURFACE_STYLE_USAGE(.BOTH.,#34);
#34=SURFACE_SIDE_STYLE('',(#35));
#35=SURFACE_STYLE_FILL_AREA(#36);
#36=FILL_AREA_STYLE('',(#37));
#37=FILL_AREA_STYLE_COLOUR('',#253);
#38=MANIFOLD_SOLID_BREP('',#39);
#39=CLOSED_SHELL('',(#73,#74,#75,#76,#77,#78,#79,#80,#81,#82,#83,#84));
#40=CONICAL_SURFACE('',#277,27.64991320209,8.2971);
#41=LINE('',#387,#51);
#42=LINE('',#391,#52);
#43=LINE('',#395,#53);
#44=LINE('',#397,#54);
#45=LINE('',#408,#55);
#46=LINE('',#409,#56);
#47=LINE('',#418,#57);
#48=LINE('',#420,#58);
#49=LINE('',#422,#59);
#50=LINE('',#424,#60);
#51=VECTOR('',#321,1.);
#52=VECTOR('',#324,1.);
#53=VECTOR('',#331,1.);
#54=VECTOR('',#332,1.);
#55=VECTOR('',#343,1.);
#56=VECTOR('',#344,1.);
#57=VECTOR('',#357,1.);
#58=VECTOR('',#358,1.);
#59=VECTOR('',#359,1.);
#60=VECTOR('',#360,1.);
#61=FACE_OUTER_BOUND('',#108,.T.);
#62=FACE_OUTER_BOUND('',#109,.T.);
#63=FACE_OUTER_BOUND('',#110,.T.);
#64=FACE_OUTER_BOUND('',#113,.T.);
#65=FACE_OUTER_BOUND('',#114,.T.);
#66=FACE_OUTER_BOUND('',#115,.T.);
#67=CYLINDRICAL_SURFACE('',#266,48.75);
#68=CYLINDRICAL_SURFACE('',#274,19.65);
#69=CYLINDRICAL_SURFACE('',#276,19.65);
#70=CYLINDRICAL_SURFACE('',#282,39.05);
#71=CYLINDRICAL_SURFACE('',#284,39.05);
#72=CYLINDRICAL_SURFACE('',#288,36.);
#73=ADVANCED_FACE('',(#90,#91),#85,.F.);
#74=ADVANCED_FACE('',(#92,#93),#67,.T.);
#75=ADVANCED_FACE('',(#94,#95),#86,.T.);
#76=ADVANCED_FACE('',(#61),#87,.F.);
#77=ADVANCED_FACE('',(#62),#68,.T.);
#78=ADVANCED_FACE('',(#63),#69,.T.);
#79=ADVANCED_FACE('',(#96,#97),#40,.T.);
#80=ADVANCED_FACE('',(#64),#88,.T.);
#81=ADVANCED_FACE('',(#65),#70,.T.);
#82=ADVANCED_FACE('',(#66),#71,.T.);
#83=ADVANCED_FACE('',(#98,#99),#89,.F.);
#84=ADVANCED_FACE('',(#100,#101),#72,.T.);
#85=PLANE('',#264);
#86=PLANE('',#269);
#87=PLANE('',#272);
#88=PLANE('',#280);
#89=PLANE('',#287);
#90=FACE_BOUND('',#102,.T.);
#91=FACE_BOUND('',#103,.T.);
#92=FACE_BOUND('',#104,.T.);
#93=FACE_BOUND('',#105,.T.);
#94=FACE_BOUND('',#106,.T.);
#95=FACE_BOUND('',#107,.T.);
#96=FACE_BOUND('',#111,.T.);
#97=FACE_BOUND('',#112,.T.);
#98=FACE_BOUND('',#116,.T.);
#99=FACE_BOUND('',#117,.T.);
#100=FACE_BOUND('',#118,.T.);
#101=FACE_BOUND('',#119,.T.);
#102=EDGE_LOOP('',(#120));
#103=EDGE_LOOP('',(#121,#122));
#104=EDGE_LOOP('',(#123));
#105=EDGE_LOOP('',(#124));
#106=EDGE_LOOP('',(#125,#126));
#107=EDGE_LOOP('',(#127));
#108=EDGE_LOOP('',(#128,#129));
#109=EDGE_LOOP('',(#130,#131,#132,#133));
#110=EDGE_LOOP('',(#134,#135,#136,#137));
#111=EDGE_LOOP('',(#138,#139));
#112=EDGE_LOOP('',(#140,#141,#142,#143,#144,#145));
#113=EDGE_LOOP('',(#146,#147));
#114=EDGE_LOOP('',(#148,#149,#150,#151));
#115=EDGE_LOOP('',(#152,#153,#154,#155));
#116=EDGE_LOOP('',(#156,#157));
#117=EDGE_LOOP('',(#158,#159));
#118=EDGE_LOOP('',(#160,#161,#162,#163,#164,#165));
#119=EDGE_LOOP('',(#166,#167,#168,#169,#170,#171));
#120=ORIENTED_EDGE('',*,*,#194,.T.);
#121=ORIENTED_EDGE('',*,*,#195,.T.);
#122=ORIENTED_EDGE('',*,*,#196,.T.);
#123=ORIENTED_EDGE('',*,*,#197,.T.);
#124=ORIENTED_EDGE('',*,*,#194,.F.);
#125=ORIENTED_EDGE('',*,*,#198,.F.);
#126=ORIENTED_EDGE('',*,*,#199,.F.);
#127=ORIENTED_EDGE('',*,*,#197,.F.);
#128=ORIENTED_EDGE('',*,*,#200,.T.);
#129=ORIENTED_EDGE('',*,*,#201,.T.);
#130=ORIENTED_EDGE('',*,*,#202,.F.);
#131=ORIENTED_EDGE('',*,*,#203,.T.);
#132=ORIENTED_EDGE('',*,*,#204,.T.);
#133=ORIENTED_EDGE('',*,*,#200,.F.);
#134=ORIENTED_EDGE('',*,*,#204,.F.);
#135=ORIENTED_EDGE('',*,*,#205,.T.);
#136=ORIENTED_EDGE('',*,*,#202,.T.);
#137=ORIENTED_EDGE('',*,*,#201,.F.);
#138=ORIENTED_EDGE('',*,*,#205,.F.);
#139=ORIENTED_EDGE('',*,*,#203,.F.);
#140=ORIENTED_EDGE('',*,*,#206,.F.);
#141=ORIENTED_EDGE('',*,*,#196,.F.);
#142=ORIENTED_EDGE('',*,*,#207,.T.);
#143=ORIENTED_EDGE('',*,*,#207,.F.);
#144=ORIENTED_EDGE('',*,*,#195,.F.);
#145=ORIENTED_EDGE('',*,*,#206,.T.);
#146=ORIENTED_EDGE('',*,*,#208,.T.);
#147=ORIENTED_EDGE('',*,*,#209,.T.);
#148=ORIENTED_EDGE('',*,*,#210,.F.);
#149=ORIENTED_EDGE('',*,*,#211,.F.);
#150=ORIENTED_EDGE('',*,*,#209,.F.);
#151=ORIENTED_EDGE('',*,*,#212,.T.);
#152=ORIENTED_EDGE('',*,*,#213,.F.);
#153=ORIENTED_EDGE('',*,*,#212,.F.);
#154=ORIENTED_EDGE('',*,*,#208,.F.);
#155=ORIENTED_EDGE('',*,*,#211,.T.);
#156=ORIENTED_EDGE('',*,*,#214,.T.);
#157=ORIENTED_EDGE('',*,*,#215,.T.);
#158=ORIENTED_EDGE('',*,*,#213,.T.);
#159=ORIENTED_EDGE('',*,*,#210,.T.);
#160=ORIENTED_EDGE('',*,*,#216,.F.);
#161=ORIENTED_EDGE('',*,*,#216,.T.);
#162=ORIENTED_EDGE('',*,*,#214,.F.);
#163=ORIENTED_EDGE('',*,*,#217,.F.);
#164=ORIENTED_EDGE('',*,*,#217,.T.);
#165=ORIENTED_EDGE('',*,*,#215,.F.);
#166=ORIENTED_EDGE('',*,*,#218,.F.);
#167=ORIENTED_EDGE('',*,*,#198,.T.);
#168=ORIENTED_EDGE('',*,*,#219,.T.);
#169=ORIENTED_EDGE('',*,*,#219,.F.);
#170=ORIENTED_EDGE('',*,*,#199,.T.);
#171=ORIENTED_EDGE('',*,*,#218,.T.);
#172=VERTEX_POINT('',#368);
#173=VERTEX_POINT('',#370);
#174=VERTEX_POINT('',#371);
#175=VERTEX_POINT('',#375);
#176=VERTEX_POINT('',#378);
#177=VERTEX_POINT('',#379);
#178=VERTEX_POINT('',#383);
#179=VERTEX_POINT('',#384);
#180=VERTEX_POINT('',#388);
#181=VERTEX_POINT('',#390);
#182=VERTEX_POINT('',#396);
#183=VERTEX_POINT('',#398);
#184=VERTEX_POINT('',#401);
#185=VERTEX_POINT('',#402);
#186=VERTEX_POINT('',#406);
#187=VERTEX_POINT('',#407);
#188=VERTEX_POINT('',#414);
#189=VERTEX_POINT('',#415);
#190=VERTEX_POINT('',#419);
#191=VERTEX_POINT('',#421);
#192=VERTEX_POINT('',#423);
#193=VERTEX_POINT('',#425);
#194=EDGE_CURVE('',#172,#172,#220,.T.);
#195=EDGE_CURVE('',#173,#174,#221,.T.);
#196=EDGE_CURVE('',#174,#173,#222,.T.);
#197=EDGE_CURVE('',#175,#175,#223,.T.);
#198=EDGE_CURVE('',#176,#177,#224,.T.);
#199=EDGE_CURVE('',#177,#176,#225,.T.);
#200=EDGE_CURVE('',#178,#179,#226,.T.);
#201=EDGE_CURVE('',#179,#178,#227,.T.);
#202=EDGE_CURVE('',#180,#178,#41,.T.);
#203=EDGE_CURVE('',#180,#181,#228,.T.);
#204=EDGE_CURVE('',#181,#179,#42,.T.);
#205=EDGE_CURVE('',#181,#180,#229,.T.);
#206=EDGE_CURVE('',#173,#182,#43,.T.);
#207=EDGE_CURVE('',#174,#183,#44,.T.);
#208=EDGE_CURVE('',#184,#185,#230,.T.);
#209=EDGE_CURVE('',#185,#184,#231,.T.);
#210=EDGE_CURVE('',#186,#187,#232,.T.);
#211=EDGE_CURVE('',#184,#186,#45,.T.);
#212=EDGE_CURVE('',#185,#187,#46,.T.);
#213=EDGE_CURVE('',#187,#186,#233,.T.);
#214=EDGE_CURVE('',#188,#189,#234,.T.);
#215=EDGE_CURVE('',#189,#188,#235,.T.);
#216=EDGE_CURVE('',#190,#189,#47,.T.);
#217=EDGE_CURVE('',#191,#188,#48,.T.);
#218=EDGE_CURVE('',#176,#192,#49,.T.);
#219=EDGE_CURVE('',#177,#193,#50,.T.);
#220=CIRCLE('',#261,48.75);
#221=CIRCLE('',#262,35.3916641016607);
#222=CIRCLE('',#263,35.3916641016607);
#223=CIRCLE('',#265,48.75);
#224=CIRCLE('',#267,36.);
#225=CIRCLE('',#268,36.);
#226=CIRCLE('',#270,19.65);
#227=CIRCLE('',#271,19.65);
#228=CIRCLE('',#273,19.65);
#229=CIRCLE('',#275,19.65);
#230=CIRCLE('',#278,39.05);
#231=CIRCLE('',#279,39.05);
#232=CIRCLE('',#281,39.05);
#233=CIRCLE('',#283,39.05);
#234=CIRCLE('',#285,36.);
#235=CIRCLE('',#286,36.);
#236=INVISIBILITY((#237,#238,#239));
#237=PRESENTATION_LAYER_ASSIGNMENT('100','Layer 100',(#258));
#238=PRESENTATION_LAYER_ASSIGNMENT('101','Layer 101',(#259));
#239=PRESENTATION_LAYER_ASSIGNMENT('102','Layer 102',(#260));
#240=PRESENTATION_LAYER_ASSIGNMENT('98','Layer 98',(#38));
#241=STYLED_ITEM('',(#245),#258);
#242=STYLED_ITEM('',(#246),#259);
#243=STYLED_ITEM('',(#247),#260);
#244=STYLED_ITEM('',(#248),#38);
#245=PRESENTATION_STYLE_ASSIGNMENT((#249));
#246=PRESENTATION_STYLE_ASSIGNMENT((#250));
#247=PRESENTATION_STYLE_ASSIGNMENT((#251));
#248=PRESENTATION_STYLE_ASSIGNMENT((#33));
#249=CURVE_STYLE('',#254,POSITIVE_LENGTH_MEASURE(0.7),#252);
#250=CURVE_STYLE('',#255,POSITIVE_LENGTH_MEASURE(0.7),#252);
#251=CURVE_STYLE('',#256,POSITIVE_LENGTH_MEASURE(0.7),#252);
#252=COLOUR_RGB('Medium Maroon',0.6,0.4,0.4);
#253=COLOUR_RGB('Medium Gray',0.490196078431373,0.490196078431373,0.490196078431373);
#254=DRAUGHTING_PRE_DEFINED_CURVE_FONT('continuous');
#255=DRAUGHTING_PRE_DEFINED_CURVE_FONT('continuous');
#256=DRAUGHTING_PRE_DEFINED_CURVE_FONT('continuous');
#257=AXIS2_PLACEMENT_3D('',#363,#289,#290);
#258=AXIS2_PLACEMENT_3D('PCS',#364,#291,#292);
#259=AXIS2_PLACEMENT_3D('CSW',#365,#293,#294);
#260=AXIS2_PLACEMENT_3D('MCS',#366,#295,#296);
#261=AXIS2_PLACEMENT_3D('',#367,#297,#298);
#262=AXIS2_PLACEMENT_3D('',#369,#299,#300);
#263=AXIS2_PLACEMENT_3D('',#372,#301,#302);
#264=AXIS2_PLACEMENT_3D('',#373,#303,#304);
#265=AXIS2_PLACEMENT_3D('',#374,#305,#306);
#266=AXIS2_PLACEMENT_3D('',#376,#307,#308);
#267=AXIS2_PLACEMENT_3D('',#377,#309,#310);
#268=AXIS2_PLACEMENT_3D('',#380,#311,#312);
#269=AXIS2_PLACEMENT_3D('',#381,#313,#314);
#270=AXIS2_PLACEMENT_3D('',#382,#315,#316);
#271=AXIS2_PLACEMENT_3D('',#385,#317,#318);
#272=AXIS2_PLACEMENT_3D('',#386,#319,#320);
#273=AXIS2_PLACEMENT_3D('',#389,#322,#323);
#274=AXIS2_PLACEMENT_3D('',#392,#325,#326);
#275=AXIS2_PLACEMENT_3D('',#393,#327,#328);
#276=AXIS2_PLACEMENT_3D('',#394,#329,#330);
#277=AXIS2_PLACEMENT_3D('',#399,#333,#334);
#278=AXIS2_PLACEMENT_3D('',#400,#335,#336);
#279=AXIS2_PLACEMENT_3D('',#403,#337,#338);
#280=AXIS2_PLACEMENT_3D('',#404,#339,#340);
#281=AXIS2_PLACEMENT_3D('',#405,#341,#342);
#282=AXIS2_PLACEMENT_3D('',#410,#345,#346);
#283=AXIS2_PLACEMENT_3D('',#411,#347,#348);
#284=AXIS2_PLACEMENT_3D('',#412,#349,#350);
#285=AXIS2_PLACEMENT_3D('',#413,#351,#352);
#286=AXIS2_PLACEMENT_3D('',#416,#353,#354);
#287=AXIS2_PLACEMENT_3D('',#417,#355,#356);
#288=AXIS2_PLACEMENT_3D('',#426,#361,#362);
#289=DIRECTION('',(0.,0.,1.));
#290=DIRECTION('',(1.,0.,0.));
#291=DIRECTION('',(0.,0.,1.));
#292=DIRECTION('',(1.,0.,0.));
#293=DIRECTION('',(0.,0.,1.));
#294=DIRECTION('',(1.,0.,0.));
#295=DIRECTION('',(0.,0.,1.));
#296=DIRECTION('',(1.,0.,0.));
#297=DIRECTION('',(0.,0.,1.));
#298=DIRECTION('',(-1.,0.,0.));
#299=DIRECTION('',(0.,0.,-1.));
#300=DIRECTION('',(-1.,0.,0.));
#301=DIRECTION('',(0.,0.,-1.));
#302=DIRECTION('',(-1.,0.,0.));
#303=DIRECTION('',(0.,0.,-1.));
#304=DIRECTION('',(0.,1.,0.));
#305=DIRECTION('',(0.,0.,1.));
#306=DIRECTION('',(-1.,0.,0.));
#307=DIRECTION('',(0.,0.,-1.));
#308=DIRECTION('',(0.,1.,0.));
#309=DIRECTION('',(0.,0.,-1.));
#310=DIRECTION('',(-1.,0.,0.));
#311=DIRECTION('',(0.,0.,-1.));
#312=DIRECTION('',(-1.,0.,0.));
#313=DIRECTION('',(0.,0.,-1.));
#314=DIRECTION('',(0.,1.,0.));
#315=DIRECTION('',(0.,0.,1.));
#316=DIRECTION('',(-1.,0.,0.));
#317=DIRECTION('',(0.,0.,1.));
#318=DIRECTION('',(-1.,0.,0.));
#319=DIRECTION('',(0.,0.,-1.));
#320=DIRECTION('',(0.,1.,0.));
#321=DIRECTION('',(-5.265924720999E-13,0.,1.));
#322=DIRECTION('',(0.,0.,1.));
#323=DIRECTION('',(-1.,0.,0.));
#324=DIRECTION('',(5.256754995996E-13,0.,1.));
#325=DIRECTION('',(0.,0.,-1.));
#326=DIRECTION('',(0.,1.,0.));
#327=DIRECTION('',(0.,0.,1.));
#328=DIRECTION('',(-1.,0.,0.));
#329=DIRECTION('',(0.,0.,-1.));
#330=DIRECTION('',(0.,1.,0.));
#331=DIRECTION('',(0.,-0.144306116415197,0.989533094325381));
#332=DIRECTION('',(0.,0.144306116415197,0.989533094325381));
#333=DIRECTION('',(0.,0.,-1.));
#334=DIRECTION('',(0.,1.,0.));
#335=DIRECTION('',(0.,0.,-1.));
#336=DIRECTION('',(-1.,0.,0.));
#337=DIRECTION('',(0.,0.,-1.));
#338=DIRECTION('',(-1.,0.,0.));
#339=DIRECTION('',(0.,0.,-1.));
#340=DIRECTION('',(0.,1.,0.));
#341=DIRECTION('',(0.,0.,1.));
#342=DIRECTION('',(-1.,0.,0.));
#343=DIRECTION('',(0.,0.,1.));
#344=DIRECTION('',(0.,0.,1.));
#345=DIRECTION('',(0.,0.,-1.));
#346=DIRECTION('',(0.,1.,0.));
#347=DIRECTION('',(0.,0.,1.));
#348=DIRECTION('',(-1.,0.,0.));
#349=DIRECTION('',(0.,0.,-1.));
#350=DIRECTION('',(0.,1.,0.));
#351=DIRECTION('',(0.,0.,-1.));
#352=DIRECTION('',(0.,-1.,0.));
#353=DIRECTION('',(0.,0.,-1.));
#354=DIRECTION('',(0.,1.,0.));
#355=DIRECTION('',(0.,0.,-1.));
#356=DIRECTION('',(0.,1.,0.));
#357=DIRECTION('',(0.,0.,-1.));
#358=DIRECTION('',(0.,0.,-1.));
#359=DIRECTION('',(0.,0.,-1.));
#360=DIRECTION('',(0.,0.,-1.));
#361=DIRECTION('',(0.,0.,-1.));
#362=DIRECTION('',(0.,1.,0.));
#363=CARTESIAN_POINT('',(0.,0.,0.));
#364=CARTESIAN_POINT('',(0.,0.,0.));
#365=CARTESIAN_POINT('',(0.,0.,-117.));
#366=CARTESIAN_POINT('',(0.,0.,0.));
#367=CARTESIAN_POINT('',(0.,0.,-3.20000000000001));
#368=CARTESIAN_POINT('',(-48.75,0.,-3.20000000000001));
#369=CARTESIAN_POINT('',(0.,0.,-3.2));
#370=CARTESIAN_POINT('',(0.,35.3916641016607,-3.2));
#371=CARTESIAN_POINT('',(4.3342288158597E-15,-35.3916641016607,-3.2));
#372=CARTESIAN_POINT('',(0.,0.,-3.2));
#373=CARTESIAN_POINT('',(0.,0.,-3.2));
#374=CARTESIAN_POINT('',(0.,0.,-15.2));
#375=CARTESIAN_POINT('',(-48.75,0.,-15.2));
#376=CARTESIAN_POINT('',(0.,0.,133.9));
#377=CARTESIAN_POINT('',(0.,0.,-15.2));
#378=CARTESIAN_POINT('',(0.,36.,-15.2));
#379=CARTESIAN_POINT('',(2.20436423846524E-15,-36.,-15.2));
#380=CARTESIAN_POINT('',(0.,0.,-15.2));
#381=CARTESIAN_POINT('',(0.,0.,-15.2));
#382=CARTESIAN_POINT('',(0.,0.,126.8));
#383=CARTESIAN_POINT('',(-5.37552117746493E-12,-19.65,126.8));
#384=CARTESIAN_POINT('',(5.36616060860822E-12,19.65,126.8));
#385=CARTESIAN_POINT('',(0.,0.,126.8));
#386=CARTESIAN_POINT('',(0.,0.,126.8));
#387=CARTESIAN_POINT('',(0.,-19.65,116.5918761428));
#388=CARTESIAN_POINT('',(-1.34265514244711E-12,-19.65,104.743432858557));
#389=CARTESIAN_POINT('',(0.,0.,104.743432858557));
#390=CARTESIAN_POINT('',(0.,19.65,104.743432858557));
#391=CARTESIAN_POINT('',(0.,19.65,116.5918761428));
#392=CARTESIAN_POINT('',(0.,0.,133.9));
#393=CARTESIAN_POINT('',(0.,0.,104.743432858557));
#394=CARTESIAN_POINT('',(0.,0.,133.9));
#395=CARTESIAN_POINT('',(0.,35.09999903812,-1.2));
#396=CARTESIAN_POINT('',(0.,20.19982736606,100.9731673397));
#397=CARTESIAN_POINT('',(0.,-35.09999903812,-1.2));
#398=CARTESIAN_POINT('',(0.,-20.19982736606,100.9731673397));
#399=CARTESIAN_POINT('',(0.,0.,49.88658366985));
#400=CARTESIAN_POINT('',(0.,0.,-117.));
#401=CARTESIAN_POINT('',(2.39112287533521E-15,-39.05,-117.));
#402=CARTESIAN_POINT('',(0.,39.05,-117.));
#403=CARTESIAN_POINT('',(0.,0.,-117.));
#404=CARTESIAN_POINT('',(0.,0.,-117.));
#405=CARTESIAN_POINT('',(0.,0.,-46.));
#406=CARTESIAN_POINT('',(-6.2528362299123E-10,-39.0499999999914,-46.));
#407=CARTESIAN_POINT('',(6.2528375024623E-10,39.0499999999914,-46.));
#408=CARTESIAN_POINT('',(0.,-39.05,-87.5));
#409=CARTESIAN_POINT('',(0.,39.05,-87.5));
#410=CARTESIAN_POINT('',(0.,0.,-42.45));
#411=CARTESIAN_POINT('',(0.,0.,-46.));
#412=CARTESIAN_POINT('',(0.,0.,-42.45));
#413=CARTESIAN_POINT('',(0.,0.,-46.));
#414=CARTESIAN_POINT('',(1.59872215546E-14,-36.,-46.));
#415=CARTESIAN_POINT('',(-1.157847307767E-14,36.,-46.));
#416=CARTESIAN_POINT('',(0.,0.,-46.));
#417=CARTESIAN_POINT('',(0.,0.,-46.));
#418=CARTESIAN_POINT('',(0.,36.,-46.));
#419=CARTESIAN_POINT('',(1.71056941445901E-45,36.,-29.1));
#420=CARTESIAN_POINT('',(0.,-36.,-46.));
#421=CARTESIAN_POINT('',(0.,-36.,-29.1));
#422=CARTESIAN_POINT('',(0.,36.,-22.3));
#423=CARTESIAN_POINT('',(0.,36.,-22.3));
#424=CARTESIAN_POINT('',(0.,-36.,-22.3));
#425=CARTESIAN_POINT('',(1.1973985901213E-45,-36.,-22.3));
#426=CARTESIAN_POINT('',(0.,0.,-11.345));
#427=MECHANICAL_DESIGN_GEOMETRIC_PRESENTATION_REPRESENTATION('',(#241,#242,
#243,#244),#428);
#428=(
GEOMETRIC_REPRESENTATION_CONTEXT(3)
GLOBAL_UNCERTAINTY_ASSIGNED_CONTEXT((#429))
GLOBAL_UNIT_ASSIGNED_CONTEXT((#435,#431,#430))
REPRESENTATION_CONTEXT('2080.50-QTCC.M14','TOP_LEVEL_ASSEMBLY_PART')
);
#429=UNCERTAINTY_MEASURE_WITH_UNIT(LENGTH_MEASURE(2.E-5),#435,
'DISTANCE_ACCURACY_VALUE','Maximum Tolerance applied to model');
#430=(
NAMED_UNIT(*)
SI_UNIT($,.STERADIAN.)
SOLID_ANGLE_UNIT()
);
#431=(
CONVERSION_BASED_UNIT('DEGREE',#433)
NAMED_UNIT(#432)
PLANE_ANGLE_UNIT()
);
#432=DIMENSIONAL_EXPONENTS(0.,0.,0.,0.,0.,0.,0.);
#433=PLANE_ANGLE_MEASURE_WITH_UNIT(PLANE_ANGLE_MEASURE(0.0174532925),#434);
#434=(
NAMED_UNIT(*)
PLANE_ANGLE_UNIT()
SI_UNIT($,.RADIAN.)
);
#435=(
LENGTH_UNIT()
NAMED_UNIT(*)
SI_UNIT(.MILLI.,.METRE.)
);
ENDSEC;
END-ISO-10303-21;
