ISO-10303-21;
HEADER;
/* Generated by software containing ST-Developer
 * from STEP Tools, Inc. (www.steptools.com) 
 */
/* OPTION: using custom schema-name function */

FILE_DESCRIPTION(
/* description */ (''),
/* implementation_level */ '2;1');

FILE_NAME(
/* name */ '2080.50-MT.2.060.stp',
/* time_stamp */ '2024-06-23T17:09:33+02:00',
/* author */ (''),
/* organization */ (''),
/* preprocessor_version */ 'ST-DEVELOPER v16.7',
/* originating_system */ 'SIEMENS PLM Software NX 12.0',
/* authorisation */ '');

FILE_SCHEMA (('AUTOMOTIVE_DESIGN { 1 0 10303 214 3 1 1 1 }'));
ENDSEC;

DATA;
#10=CONSTRUCTIVE_GEOMETRY_REPRESENTATION_RELATIONSHIP(
'supplemental geometry','',#32,#11);
#11=CONSTRUCTIVE_GEOMETRY_REPRESENTATION('supplemental geometry',(#246,
#247,#248),#410);
#12=PROPERTY_DEFINITION_REPRESENTATION(#16,#14);
#13=PROPERTY_DEFINITION_REPRESENTATION(#17,#15);
#14=REPRESENTATION('',(#18),#410);
#15=REPRESENTATION('',(#19),#410);
#16=PROPERTY_DEFINITION('pmi validation property','',#23);
#17=PROPERTY_DEFINITION('pmi validation property','',#23);
#18=VALUE_REPRESENTATION_ITEM('number of annotations',COUNT_MEASURE(0.));
#19=VALUE_REPRESENTATION_ITEM('number of views',COUNT_MEASURE(0.));
#20=SHAPE_REPRESENTATION_RELATIONSHIP('None',
'relationship between pf660F5CA0AEj88v-None and pf660F5CA0AEj88v-None',
#32,#21);
#21=ADVANCED_BREP_SHAPE_REPRESENTATION('pf660F5CA0AEj88v-None',(#38),#410);
#22=SHAPE_DEFINITION_REPRESENTATION(#23,#32);
#23=PRODUCT_DEFINITION_SHAPE('','',#24);
#24=PRODUCT_DEFINITION(' ','',#26,#25);
#25=PRODUCT_DEFINITION_CONTEXT('part definition',#31,'design');
#26=PRODUCT_DEFINITION_FORMATION_WITH_SPECIFIED_SOURCE(' ',' ',#28,
 .NOT_KNOWN.);
#27=PRODUCT_RELATED_PRODUCT_CATEGORY('part','',(#28));
#28=PRODUCT('pf660F5CA0AEj88v','pf660F5CA0AEj88v',' ',(#29));
#29=PRODUCT_CONTEXT(' ',#31,'mechanical');
#30=APPLICATION_PROTOCOL_DEFINITION('international standard',
'automotive_design',2010,#31);
#31=APPLICATION_CONTEXT(
'core data for automotive mechanical design processes');
#32=SHAPE_REPRESENTATION('pf660F5CA0AEj88v-None',(#245),#410);
#33=SURFACE_STYLE_USAGE(.BOTH.,#34);
#34=SURFACE_SIDE_STYLE('',(#35));
#35=SURFACE_STYLE_FILL_AREA(#36);
#36=FILL_AREA_STYLE('',(#37));
#37=FILL_AREA_STYLE_COLOUR('',#241);
#38=MANIFOLD_SOLID_BREP('',#39);
#39=CLOSED_SHELL('',(#72,#73,#74,#75,#76,#77,#78,#79,#80,#81,#82,#83));
#40=CONICAL_SURFACE('',#276,27.64991320209,8.2971);
#41=LINE('',#376,#49);
#42=LINE('',#378,#50);
#43=LINE('',#390,#51);
#44=LINE('',#394,#52);
#45=LINE('',#398,#53);
#46=LINE('',#401,#54);
#47=LINE('',#403,#55);
#48=LINE('',#405,#56);
#49=VECTOR('',#315,1.);
#50=VECTOR('',#316,1.);
#51=VECTOR('',#333,1.);
#52=VECTOR('',#336,1.);
#53=VECTOR('',#343,1.);
#54=VECTOR('',#344,1.);
#55=VECTOR('',#345,1.);
#56=VECTOR('',#346,1.);
#57=TOROIDAL_SURFACE('',#261,21.,5.);
#58=TOROIDAL_SURFACE('',#263,21.,5.);
#59=FACE_OUTER_BOUND('',#104,.T.);
#60=FACE_OUTER_BOUND('',#105,.T.);
#61=FACE_OUTER_BOUND('',#106,.T.);
#62=FACE_OUTER_BOUND('',#107,.T.);
#63=FACE_OUTER_BOUND('',#108,.T.);
#64=FACE_OUTER_BOUND('',#109,.T.);
#65=FACE_OUTER_BOUND('',#110,.T.);
#66=FACE_OUTER_BOUND('',#111,.T.);
#67=CYLINDRICAL_SURFACE('',#257,48.75);
#68=CYLINDRICAL_SURFACE('',#265,16.);
#69=CYLINDRICAL_SURFACE('',#267,16.);
#70=CYLINDRICAL_SURFACE('',#273,19.65);
#71=CYLINDRICAL_SURFACE('',#275,19.65);
#72=ADVANCED_FACE('',(#88,#89),#84,.F.);
#73=ADVANCED_FACE('',(#90,#91),#85,.T.);
#74=ADVANCED_FACE('',(#92,#93),#67,.T.);
#75=ADVANCED_FACE('',(#59),#57,.F.);
#76=ADVANCED_FACE('',(#60),#58,.F.);
#77=ADVANCED_FACE('',(#61),#68,.T.);
#78=ADVANCED_FACE('',(#62),#69,.T.);
#79=ADVANCED_FACE('',(#63),#86,.T.);
#80=ADVANCED_FACE('',(#64),#87,.F.);
#81=ADVANCED_FACE('',(#65),#70,.T.);
#82=ADVANCED_FACE('',(#66),#71,.T.);
#83=ADVANCED_FACE('',(#94,#95,#96,#97),#40,.T.);
#84=PLANE('',#252);
#85=PLANE('',#256);
#86=PLANE('',#268);
#87=PLANE('',#271);
#88=FACE_BOUND('',#98,.T.);
#89=FACE_BOUND('',#99,.T.);
#90=FACE_BOUND('',#100,.T.);
#91=FACE_BOUND('',#101,.T.);
#92=FACE_BOUND('',#102,.T.);
#93=FACE_BOUND('',#103,.T.);
#94=FACE_BOUND('',#112,.T.);
#95=FACE_BOUND('',#113,.T.);
#96=FACE_BOUND('',#114,.T.);
#97=FACE_BOUND('',#115,.T.);
#98=EDGE_LOOP('',(#116));
#99=EDGE_LOOP('',(#117,#118));
#100=EDGE_LOOP('',(#119));
#101=EDGE_LOOP('',(#120,#121));
#102=EDGE_LOOP('',(#122));
#103=EDGE_LOOP('',(#123));
#104=EDGE_LOOP('',(#124,#125,#126,#127));
#105=EDGE_LOOP('',(#128,#129,#130,#131));
#106=EDGE_LOOP('',(#132,#133,#134,#135));
#107=EDGE_LOOP('',(#136,#137,#138,#139));
#108=EDGE_LOOP('',(#140,#141));
#109=EDGE_LOOP('',(#142,#143));
#110=EDGE_LOOP('',(#144,#145,#146,#147));
#111=EDGE_LOOP('',(#148,#149,#150,#151));
#112=EDGE_LOOP('',(#152,#153));
#113=EDGE_LOOP('',(#154,#155));
#114=EDGE_LOOP('',(#156,#157,#158,#159,#160,#161));
#115=EDGE_LOOP('',(#162,#163));
#116=ORIENTED_EDGE('',*,*,#184,.F.);
#117=ORIENTED_EDGE('',*,*,#185,.T.);
#118=ORIENTED_EDGE('',*,*,#186,.T.);
#119=ORIENTED_EDGE('',*,*,#187,.T.);
#120=ORIENTED_EDGE('',*,*,#188,.F.);
#121=ORIENTED_EDGE('',*,*,#189,.F.);
#122=ORIENTED_EDGE('',*,*,#184,.T.);
#123=ORIENTED_EDGE('',*,*,#187,.F.);
#124=ORIENTED_EDGE('',*,*,#190,.F.);
#125=ORIENTED_EDGE('',*,*,#191,.F.);
#126=ORIENTED_EDGE('',*,*,#192,.T.);
#127=ORIENTED_EDGE('',*,*,#189,.T.);
#128=ORIENTED_EDGE('',*,*,#192,.F.);
#129=ORIENTED_EDGE('',*,*,#193,.T.);
#130=ORIENTED_EDGE('',*,*,#190,.T.);
#131=ORIENTED_EDGE('',*,*,#188,.T.);
#132=ORIENTED_EDGE('',*,*,#194,.T.);
#133=ORIENTED_EDGE('',*,*,#193,.F.);
#134=ORIENTED_EDGE('',*,*,#195,.F.);
#135=ORIENTED_EDGE('',*,*,#196,.T.);
#136=ORIENTED_EDGE('',*,*,#195,.T.);
#137=ORIENTED_EDGE('',*,*,#191,.T.);
#138=ORIENTED_EDGE('',*,*,#194,.F.);
#139=ORIENTED_EDGE('',*,*,#197,.T.);
#140=ORIENTED_EDGE('',*,*,#197,.F.);
#141=ORIENTED_EDGE('',*,*,#196,.F.);
#142=ORIENTED_EDGE('',*,*,#198,.T.);
#143=ORIENTED_EDGE('',*,*,#199,.T.);
#144=ORIENTED_EDGE('',*,*,#200,.F.);
#145=ORIENTED_EDGE('',*,*,#201,.T.);
#146=ORIENTED_EDGE('',*,*,#202,.T.);
#147=ORIENTED_EDGE('',*,*,#198,.F.);
#148=ORIENTED_EDGE('',*,*,#202,.F.);
#149=ORIENTED_EDGE('',*,*,#203,.T.);
#150=ORIENTED_EDGE('',*,*,#200,.T.);
#151=ORIENTED_EDGE('',*,*,#199,.F.);
#152=ORIENTED_EDGE('',*,*,#203,.F.);
#153=ORIENTED_EDGE('',*,*,#201,.F.);
#154=ORIENTED_EDGE('',*,*,#204,.T.);
#155=ORIENTED_EDGE('',*,*,#204,.F.);
#156=ORIENTED_EDGE('',*,*,#205,.T.);
#157=ORIENTED_EDGE('',*,*,#205,.F.);
#158=ORIENTED_EDGE('',*,*,#186,.F.);
#159=ORIENTED_EDGE('',*,*,#206,.T.);
#160=ORIENTED_EDGE('',*,*,#206,.F.);
#161=ORIENTED_EDGE('',*,*,#185,.F.);
#162=ORIENTED_EDGE('',*,*,#207,.T.);
#163=ORIENTED_EDGE('',*,*,#207,.F.);
#164=VERTEX_POINT('',#354);
#165=VERTEX_POINT('',#356);
#166=VERTEX_POINT('',#357);
#167=VERTEX_POINT('',#361);
#168=VERTEX_POINT('',#363);
#169=VERTEX_POINT('',#364);
#170=VERTEX_POINT('',#369);
#171=VERTEX_POINT('',#371);
#172=VERTEX_POINT('',#377);
#173=VERTEX_POINT('',#379);
#174=VERTEX_POINT('',#386);
#175=VERTEX_POINT('',#387);
#176=VERTEX_POINT('',#391);
#177=VERTEX_POINT('',#393);
#178=VERTEX_POINT('',#399);
#179=VERTEX_POINT('',#400);
#180=VERTEX_POINT('',#402);
#181=VERTEX_POINT('',#404);
#182=VERTEX_POINT('',#406);
#183=VERTEX_POINT('',#407);
#184=EDGE_CURVE('',#164,#164,#208,.T.);
#185=EDGE_CURVE('',#165,#166,#209,.T.);
#186=EDGE_CURVE('',#166,#165,#210,.T.);
#187=EDGE_CURVE('',#167,#167,#211,.T.);
#188=EDGE_CURVE('',#168,#169,#212,.T.);
#189=EDGE_CURVE('',#169,#168,#213,.T.);
#190=EDGE_CURVE('',#170,#168,#214,.T.);
#191=EDGE_CURVE('',#171,#170,#215,.T.);
#192=EDGE_CURVE('',#171,#169,#216,.T.);
#193=EDGE_CURVE('',#171,#170,#217,.T.);
#194=EDGE_CURVE('',#172,#170,#41,.T.);
#195=EDGE_CURVE('',#173,#171,#42,.T.);
#196=EDGE_CURVE('',#173,#172,#218,.T.);
#197=EDGE_CURVE('',#172,#173,#219,.T.);
#198=EDGE_CURVE('',#174,#175,#220,.T.);
#199=EDGE_CURVE('',#175,#174,#221,.T.);
#200=EDGE_CURVE('',#176,#174,#43,.T.);
#201=EDGE_CURVE('',#176,#177,#222,.T.);
#202=EDGE_CURVE('',#177,#175,#44,.T.);
#203=EDGE_CURVE('',#177,#176,#223,.T.);
#204=EDGE_CURVE('',#178,#179,#45,.T.);
#205=EDGE_CURVE('',#165,#180,#46,.T.);
#206=EDGE_CURVE('',#166,#181,#47,.T.);
#207=EDGE_CURVE('',#182,#183,#48,.T.);
#208=CIRCLE('',#249,48.75);
#209=CIRCLE('',#250,35.3916641016607);
#210=CIRCLE('',#251,35.3916641016607);
#211=CIRCLE('',#253,48.75);
#212=CIRCLE('',#254,21.);
#213=CIRCLE('',#255,21.);
#214=CIRCLE('',#258,5.);
#215=CIRCLE('',#259,16.);
#216=CIRCLE('',#260,5.);
#217=CIRCLE('',#262,16.);
#218=CIRCLE('',#264,16.);
#219=CIRCLE('',#266,16.);
#220=CIRCLE('',#269,19.65);
#221=CIRCLE('',#270,19.65);
#222=CIRCLE('',#272,19.65);
#223=CIRCLE('',#274,19.65);
#224=INVISIBILITY((#225,#226,#227));
#225=PRESENTATION_LAYER_ASSIGNMENT('100','Layer 100',(#246));
#226=PRESENTATION_LAYER_ASSIGNMENT('101','Layer 101',(#247));
#227=PRESENTATION_LAYER_ASSIGNMENT('102','Layer 102',(#248));
#228=PRESENTATION_LAYER_ASSIGNMENT('98','Layer 98',(#38));
#229=STYLED_ITEM('',(#233),#246);
#230=STYLED_ITEM('',(#234),#247);
#231=STYLED_ITEM('',(#235),#248);
#232=STYLED_ITEM('',(#236),#38);
#233=PRESENTATION_STYLE_ASSIGNMENT((#237));
#234=PRESENTATION_STYLE_ASSIGNMENT((#238));
#235=PRESENTATION_STYLE_ASSIGNMENT((#239));
#236=PRESENTATION_STYLE_ASSIGNMENT((#33));
#237=CURVE_STYLE('',#242,POSITIVE_LENGTH_MEASURE(0.7),#240);
#238=CURVE_STYLE('',#243,POSITIVE_LENGTH_MEASURE(0.7),#240);
#239=CURVE_STYLE('',#244,POSITIVE_LENGTH_MEASURE(0.7),#240);
#240=COLOUR_RGB('Medium Maroon',0.6,0.4,0.4);
#241=COLOUR_RGB('Medium Gray',0.490196078431373,0.490196078431373,0.490196078431373);
#242=DRAUGHTING_PRE_DEFINED_CURVE_FONT('continuous');
#243=DRAUGHTING_PRE_DEFINED_CURVE_FONT('continuous');
#244=DRAUGHTING_PRE_DEFINED_CURVE_FONT('continuous');
#245=AXIS2_PLACEMENT_3D('',#349,#277,#278);
#246=AXIS2_PLACEMENT_3D('PCS',#350,#279,#280);
#247=AXIS2_PLACEMENT_3D('CSW',#351,#281,#282);
#248=AXIS2_PLACEMENT_3D('MCS',#352,#283,#284);
#249=AXIS2_PLACEMENT_3D('',#353,#285,#286);
#250=AXIS2_PLACEMENT_3D('',#355,#287,#288);
#251=AXIS2_PLACEMENT_3D('',#358,#289,#290);
#252=AXIS2_PLACEMENT_3D('',#359,#291,#292);
#253=AXIS2_PLACEMENT_3D('',#360,#293,#294);
#254=AXIS2_PLACEMENT_3D('',#362,#295,#296);
#255=AXIS2_PLACEMENT_3D('',#365,#297,#298);
#256=AXIS2_PLACEMENT_3D('',#366,#299,#300);
#257=AXIS2_PLACEMENT_3D('',#367,#301,#302);
#258=AXIS2_PLACEMENT_3D('',#368,#303,#304);
#259=AXIS2_PLACEMENT_3D('',#370,#305,#306);
#260=AXIS2_PLACEMENT_3D('',#372,#307,#308);
#261=AXIS2_PLACEMENT_3D('',#373,#309,#310);
#262=AXIS2_PLACEMENT_3D('',#374,#311,#312);
#263=AXIS2_PLACEMENT_3D('',#375,#313,#314);
#264=AXIS2_PLACEMENT_3D('',#380,#317,#318);
#265=AXIS2_PLACEMENT_3D('',#381,#319,#320);
#266=AXIS2_PLACEMENT_3D('',#382,#321,#322);
#267=AXIS2_PLACEMENT_3D('',#383,#323,#324);
#268=AXIS2_PLACEMENT_3D('',#384,#325,#326);
#269=AXIS2_PLACEMENT_3D('',#385,#327,#328);
#270=AXIS2_PLACEMENT_3D('',#388,#329,#330);
#271=AXIS2_PLACEMENT_3D('',#389,#331,#332);
#272=AXIS2_PLACEMENT_3D('',#392,#334,#335);
#273=AXIS2_PLACEMENT_3D('',#395,#337,#338);
#274=AXIS2_PLACEMENT_3D('',#396,#339,#340);
#275=AXIS2_PLACEMENT_3D('',#397,#341,#342);
#276=AXIS2_PLACEMENT_3D('',#408,#347,#348);
#277=DIRECTION('',(0.,0.,1.));
#278=DIRECTION('',(1.,0.,0.));
#279=DIRECTION('',(0.,0.,1.));
#280=DIRECTION('',(1.,0.,0.));
#281=DIRECTION('',(0.,0.,1.));
#282=DIRECTION('',(1.,0.,0.));
#283=DIRECTION('',(0.,0.,1.));
#284=DIRECTION('',(1.,0.,0.));
#285=DIRECTION('',(0.,0.,-1.));
#286=DIRECTION('',(-1.,0.,0.));
#287=DIRECTION('',(0.,0.,-1.));
#288=DIRECTION('',(-1.,0.,0.));
#289=DIRECTION('',(0.,0.,-1.));
#290=DIRECTION('',(-1.,0.,0.));
#291=DIRECTION('',(0.,0.,-1.));
#292=DIRECTION('',(0.,1.,0.));
#293=DIRECTION('',(0.,0.,-1.));
#294=DIRECTION('',(-1.,0.,0.));
#295=DIRECTION('',(0.,0.,-1.));
#296=DIRECTION('',(0.,-1.,0.));
#297=DIRECTION('',(0.,0.,-1.));
#298=DIRECTION('',(0.,1.,0.));
#299=DIRECTION('',(0.,0.,-1.));
#300=DIRECTION('',(0.,1.,0.));
#301=DIRECTION('',(0.,0.,-1.));
#302=DIRECTION('',(0.,1.,0.));
#303=DIRECTION('',(1.,0.,0.));
#304=DIRECTION('',(0.,1.,0.));
#305=DIRECTION('',(0.,0.,-1.));
#306=DIRECTION('',(0.,1.,0.));
#307=DIRECTION('',(-1.,0.,0.));
#308=DIRECTION('',(0.,-1.,0.));
#309=DIRECTION('',(0.,0.,-1.));
#310=DIRECTION('',(0.,1.,0.));
#311=DIRECTION('',(0.,0.,1.));
#312=DIRECTION('',(0.,1.,0.));
#313=DIRECTION('',(0.,0.,-1.));
#314=DIRECTION('',(0.,1.,0.));
#315=DIRECTION('',(0.,0.,1.));
#316=DIRECTION('',(0.,0.,1.));
#317=DIRECTION('',(0.,0.,1.));
#318=DIRECTION('',(-1.,0.,0.));
#319=DIRECTION('',(0.,0.,-1.));
#320=DIRECTION('',(0.,1.,0.));
#321=DIRECTION('',(0.,0.,1.));
#322=DIRECTION('',(-1.,0.,0.));
#323=DIRECTION('',(0.,0.,-1.));
#324=DIRECTION('',(0.,1.,0.));
#325=DIRECTION('',(0.,0.,-1.));
#326=DIRECTION('',(0.,1.,0.));
#327=DIRECTION('',(0.,0.,1.));
#328=DIRECTION('',(-1.,0.,0.));
#329=DIRECTION('',(0.,0.,1.));
#330=DIRECTION('',(-1.,0.,0.));
#331=DIRECTION('',(0.,0.,-1.));
#332=DIRECTION('',(0.,1.,0.));
#333=DIRECTION('',(-5.268520003996E-13,0.,1.));
#334=DIRECTION('',(0.,0.,1.));
#335=DIRECTION('',(-1.,0.,0.));
#336=DIRECTION('',(5.26753345144E-13,0.,1.));
#337=DIRECTION('',(0.,0.,-1.));
#338=DIRECTION('',(0.,1.,0.));
#339=DIRECTION('',(0.,0.,1.));
#340=DIRECTION('',(-1.,0.,0.));
#341=DIRECTION('',(0.,0.,-1.));
#342=DIRECTION('',(0.,1.,0.));
#343=DIRECTION('',(2.03036539169596E-14,-0.144306116415197,0.989533094325381));
#344=DIRECTION('',(0.,-0.144306116415197,0.989533094325381));
#345=DIRECTION('',(1.41181618707297E-14,0.144306116415197,0.989533094325381));
#346=DIRECTION('',(-2.02742185329096E-14,0.144306116415197,0.989533094325381));
#347=DIRECTION('',(0.,0.,-1.));
#348=DIRECTION('',(0.,1.,0.));
#349=CARTESIAN_POINT('',(0.,0.,0.));
#350=CARTESIAN_POINT('',(0.,0.,0.));
#351=CARTESIAN_POINT('',(0.,0.,-60.));
#352=CARTESIAN_POINT('',(0.,0.,0.));
#353=CARTESIAN_POINT('',(0.,0.,-3.20000000000001));
#354=CARTESIAN_POINT('',(-48.75,0.,-3.20000000000001));
#355=CARTESIAN_POINT('',(0.,0.,-3.2));
#356=CARTESIAN_POINT('',(0.,35.3916641016607,-3.2));
#357=CARTESIAN_POINT('',(2.0051284962045E-14,-35.3916641016607,-3.2));
#358=CARTESIAN_POINT('',(0.,0.,-3.2));
#359=CARTESIAN_POINT('',(0.,0.,-3.2));
#360=CARTESIAN_POINT('',(0.,0.,-15.2));
#361=CARTESIAN_POINT('',(-48.75,0.,-15.2));
#362=CARTESIAN_POINT('',(0.,0.,-15.2));
#363=CARTESIAN_POINT('',(0.,-21.,-15.2));
#364=CARTESIAN_POINT('',(0.,21.,-15.2));
#365=CARTESIAN_POINT('',(0.,0.,-15.2));
#366=CARTESIAN_POINT('',(0.,0.,-15.2));
#367=CARTESIAN_POINT('',(0.,0.,133.9));
#368=CARTESIAN_POINT('',(0.,-21.,-20.2));
#369=CARTESIAN_POINT('',(0.,-16.,-20.2));
#370=CARTESIAN_POINT('',(0.,0.,-20.2));
#371=CARTESIAN_POINT('',(0.,16.,-20.2));
#372=CARTESIAN_POINT('',(0.,21.,-20.2));
#373=CARTESIAN_POINT('',(0.,0.,-20.2));
#374=CARTESIAN_POINT('',(0.,0.,-20.2));
#375=CARTESIAN_POINT('',(0.,0.,-20.2));
#376=CARTESIAN_POINT('',(2.114469238355E-13,-16.,-58.));
#377=CARTESIAN_POINT('',(2.114469238355E-13,-16.,-60.));
#378=CARTESIAN_POINT('',(-2.119367625551E-13,16.,-58.));
#379=CARTESIAN_POINT('',(-2.119367625551E-13,16.,-60.));
#380=CARTESIAN_POINT('',(0.,0.,-60.));
#381=CARTESIAN_POINT('',(0.,0.,-12.96));
#382=CARTESIAN_POINT('',(0.,0.,-60.));
#383=CARTESIAN_POINT('',(0.,0.,-12.96));
#384=CARTESIAN_POINT('',(0.,0.,-60.));
#385=CARTESIAN_POINT('',(0.,0.,126.8));
#386=CARTESIAN_POINT('',(-5.37817047449272E-12,-19.65,126.8));
#387=CARTESIAN_POINT('',(5.37716338942439E-12,19.65,126.8));
#388=CARTESIAN_POINT('',(0.,0.,126.8));
#389=CARTESIAN_POINT('',(0.,0.,126.8));
#390=CARTESIAN_POINT('',(0.,-19.65,116.5918761428));
#391=CARTESIAN_POINT('',(-1.34265514244711E-12,-19.65,104.743432858557));
#392=CARTESIAN_POINT('',(0.,0.,104.743432858557));
#393=CARTESIAN_POINT('',(0.,19.65,104.743432858557));
#394=CARTESIAN_POINT('',(0.,19.65,116.5918761428));
#395=CARTESIAN_POINT('',(0.,0.,133.9));
#396=CARTESIAN_POINT('',(0.,0.,104.743432858557));
#397=CARTESIAN_POINT('',(0.,0.,133.9));
#398=CARTESIAN_POINT('',(-1.553297696301E-12,31.257311826,25.15));
#399=CARTESIAN_POINT('',(-1.55329769630101E-12,31.2573118259969,25.15));
#400=CARTESIAN_POINT('',(0.,20.19982736606,100.9731673397));
#401=CARTESIAN_POINT('',(0.,35.09999903812,-1.2));
#402=CARTESIAN_POINT('',(0.,34.8010423479932,0.85));
#403=CARTESIAN_POINT('',(0.,-35.09999903812,-1.2));
#404=CARTESIAN_POINT('',(2.70991167099808E-14,-34.8010423479932,0.85));
#405=CARTESIAN_POINT('',(1.551042204227E-12,-31.257311826,25.15));
#406=CARTESIAN_POINT('',(1.55104220422701E-12,-31.2573118259969,25.15));
#407=CARTESIAN_POINT('',(0.,-20.19982736606,100.9731673397));
#408=CARTESIAN_POINT('',(0.,0.,49.88658366985));
#409=MECHANICAL_DESIGN_GEOMETRIC_PRESENTATION_REPRESENTATION('',(#229,#230,
#231,#232),#410);
#410=(
GEOMETRIC_REPRESENTATION_CONTEXT(3)
GLOBAL_UNCERTAINTY_ASSIGNED_CONTEXT((#411))
GLOBAL_UNIT_ASSIGNED_CONTEXT((#417,#413,#412))
REPRESENTATION_CONTEXT('2080.50-MT.2','TOP_LEVEL_ASSEMBLY_PART')
);
#411=UNCERTAINTY_MEASURE_WITH_UNIT(LENGTH_MEASURE(2.E-5),#417,
'DISTANCE_ACCURACY_VALUE','Maximum Tolerance applied to model');
#412=(
NAMED_UNIT(*)
SI_UNIT($,.STERADIAN.)
SOLID_ANGLE_UNIT()
);
#413=(
CONVERSION_BASED_UNIT('DEGREE',#415)
NAMED_UNIT(#414)
PLANE_ANGLE_UNIT()
);
#414=DIMENSIONAL_EXPONENTS(0.,0.,0.,0.,0.,0.,0.);
#415=PLANE_ANGLE_MEASURE_WITH_UNIT(PLANE_ANGLE_MEASURE(0.0174532925),#416);
#416=(
NAMED_UNIT(*)
PLANE_ANGLE_UNIT()
SI_UNIT($,.RADIAN.)
);
#417=(
LENGTH_UNIT()
NAMED_UNIT(*)
SI_UNIT(.MILLI.,.METRE.)
);
ENDSEC;
END-ISO-10303-21;
