ISO-10303-21;
HEADER;
/* Generated by software containing ST-Developer
 * from STEP Tools, Inc. (www.steptools.com) 
 */
/* OPTION: using custom schema-name function */

FILE_DESCRIPTION(
/* description */ (''),
/* implementation_level */ '2;1');

FILE_NAME(
/* name */ '2080.50-CC.ER40.063.stp',
/* time_stamp */ '2024-06-23T16:41:56+02:00',
/* author */ (''),
/* organization */ (''),
/* preprocessor_version */ 'ST-DEVELOPER v16.7',
/* originating_system */ 'SIEMENS PLM Software NX 12.0',
/* authorisation */ '');

FILE_SCHEMA (('AUTOMOTIVE_DESIGN { 1 0 10303 214 3 1 1 1 }'));
ENDSEC;

DATA;
#10=CONSTRUCTIVE_GEOMETRY_REPRESENTATION_RELATIONSHIP(
'supplemental geometry','',#32,#11);
#11=CONSTRUCTIVE_GEOMETRY_REPRESENTATION('supplemental geometry',(#295,
#296,#297),#500);
#12=PROPERTY_DEFINITION_REPRESENTATION(#16,#14);
#13=PROPERTY_DEFINITION_REPRESENTATION(#17,#15);
#14=REPRESENTATION('',(#18),#500);
#15=REPRESENTATION('',(#19),#500);
#16=PROPERTY_DEFINITION('pmi validation property','',#23);
#17=PROPERTY_DEFINITION('pmi validation property','',#23);
#18=VALUE_REPRESENTATION_ITEM('number of annotations',COUNT_MEASURE(0.));
#19=VALUE_REPRESENTATION_ITEM('number of views',COUNT_MEASURE(0.));
#20=SHAPE_REPRESENTATION_RELATIONSHIP('None',
'relationship between pf660F5CA0AEj85x-None and pf660F5CA0AEj85x-None',
#32,#21);
#21=ADVANCED_BREP_SHAPE_REPRESENTATION('pf660F5CA0AEj85x-None',(#38),#500);
#22=SHAPE_DEFINITION_REPRESENTATION(#23,#32);
#23=PRODUCT_DEFINITION_SHAPE('','',#24);
#24=PRODUCT_DEFINITION(' ','',#26,#25);
#25=PRODUCT_DEFINITION_CONTEXT('part definition',#31,'design');
#26=PRODUCT_DEFINITION_FORMATION_WITH_SPECIFIED_SOURCE(' ',' ',#28,
 .NOT_KNOWN.);
#27=PRODUCT_RELATED_PRODUCT_CATEGORY('part','',(#28));
#28=PRODUCT('pf660F5CA0AEj85x','pf660F5CA0AEj85x',' ',(#29));
#29=PRODUCT_CONTEXT(' ',#31,'mechanical');
#30=APPLICATION_PROTOCOL_DEFINITION('international standard',
'automotive_design',2010,#31);
#31=APPLICATION_CONTEXT(
'core data for automotive mechanical design processes');
#32=SHAPE_REPRESENTATION('pf660F5CA0AEj85x-None',(#294),#500);
#33=SURFACE_STYLE_USAGE(.BOTH.,#34);
#34=SURFACE_SIDE_STYLE('',(#35));
#35=SURFACE_STYLE_FILL_AREA(#36);
#36=FILL_AREA_STYLE('',(#37));
#37=FILL_AREA_STYLE_COLOUR('',#290);
#38=MANIFOLD_SOLID_BREP('',#39);
#39=CLOSED_SHELL('',(#84,#85,#86,#87,#88,#89,#90,#91,#92,#93,#94,#95,#96,
#97,#98));
#40=TOROIDAL_SURFACE('',#316,30.,5.);
#41=TOROIDAL_SURFACE('',#318,30.,5.);
#42=CYLINDRICAL_SURFACE('',#305,31.45);
#43=CYLINDRICAL_SURFACE('',#310,25.);
#44=CYLINDRICAL_SURFACE('',#312,25.);
#45=CYLINDRICAL_SURFACE('',#322,48.75);
#46=CYLINDRICAL_SURFACE('',#332,19.65);
#47=CYLINDRICAL_SURFACE('',#333,19.65);
#48=CONICAL_SURFACE('',#302,27.83205080757,60.);
#49=CONICAL_SURFACE('',#328,27.64991320209,8.2971);
#50=LINE('',#435,#60);
#51=LINE('',#437,#61);
#52=LINE('',#440,#62);
#53=LINE('',#445,#63);
#54=LINE('',#454,#64);
#55=LINE('',#456,#65);
#56=LINE('',#485,#66);
#57=LINE('',#487,#67);
#58=LINE('',#495,#68);
#59=LINE('',#496,#69);
#60=VECTOR('',#350,1.);
#61=VECTOR('',#351,1.);
#62=VECTOR('',#354,1.);
#63=VECTOR('',#357,1.);
#64=VECTOR('',#368,1.);
#65=VECTOR('',#369,1.);
#66=VECTOR('',#408,1.);
#67=VECTOR('',#409,1.);
#68=VECTOR('',#418,1.);
#69=VECTOR('',#419,1.);
#70=FACE_BOUND('',#113,.T.);
#71=FACE_BOUND('',#114,.T.);
#72=FACE_BOUND('',#115,.T.);
#73=FACE_BOUND('',#116,.T.);
#74=FACE_BOUND('',#117,.T.);
#75=FACE_BOUND('',#118,.T.);
#76=FACE_BOUND('',#123,.T.);
#77=FACE_BOUND('',#124,.T.);
#78=FACE_BOUND('',#125,.T.);
#79=FACE_BOUND('',#126,.T.);
#80=FACE_BOUND('',#127,.T.);
#81=FACE_BOUND('',#128,.T.);
#82=FACE_BOUND('',#129,.T.);
#83=FACE_BOUND('',#130,.T.);
#84=ADVANCED_FACE('',(#104),#99,.T.);
#85=ADVANCED_FACE('',(#70,#71),#48,.T.);
#86=ADVANCED_FACE('',(#72,#73),#42,.T.);
#87=ADVANCED_FACE('',(#74,#75),#100,.F.);
#88=ADVANCED_FACE('',(#105),#43,.T.);
#89=ADVANCED_FACE('',(#106),#44,.T.);
#90=ADVANCED_FACE('',(#107),#40,.F.);
#91=ADVANCED_FACE('',(#108),#41,.F.);
#92=ADVANCED_FACE('',(#76,#77),#101,.T.);
#93=ADVANCED_FACE('',(#78,#79),#45,.T.);
#94=ADVANCED_FACE('',(#80,#81),#102,.F.);
#95=ADVANCED_FACE('',(#82,#83),#49,.T.);
#96=ADVANCED_FACE('',(#109),#103,.F.);
#97=ADVANCED_FACE('',(#110),#46,.T.);
#98=ADVANCED_FACE('',(#111),#47,.T.);
#99=PLANE('',#300);
#100=PLANE('',#308);
#101=PLANE('',#320);
#102=PLANE('',#325);
#103=PLANE('',#331);
#104=FACE_OUTER_BOUND('',#112,.T.);
#105=FACE_OUTER_BOUND('',#119,.T.);
#106=FACE_OUTER_BOUND('',#120,.T.);
#107=FACE_OUTER_BOUND('',#121,.T.);
#108=FACE_OUTER_BOUND('',#122,.T.);
#109=FACE_OUTER_BOUND('',#131,.T.);
#110=FACE_OUTER_BOUND('',#132,.T.);
#111=FACE_OUTER_BOUND('',#133,.T.);
#112=EDGE_LOOP('',(#134,#135));
#113=EDGE_LOOP('',(#136));
#114=EDGE_LOOP('',(#137,#138,#139,#140,#141,#142));
#115=EDGE_LOOP('',(#143,#144,#145,#146,#147,#148));
#116=EDGE_LOOP('',(#149));
#117=EDGE_LOOP('',(#150,#151));
#118=EDGE_LOOP('',(#152,#153));
#119=EDGE_LOOP('',(#154,#155,#156,#157));
#120=EDGE_LOOP('',(#158,#159,#160,#161));
#121=EDGE_LOOP('',(#162,#163,#164,#165));
#122=EDGE_LOOP('',(#166,#167,#168,#169));
#123=EDGE_LOOP('',(#170));
#124=EDGE_LOOP('',(#171,#172));
#125=EDGE_LOOP('',(#173));
#126=EDGE_LOOP('',(#174));
#127=EDGE_LOOP('',(#175));
#128=EDGE_LOOP('',(#176,#177));
#129=EDGE_LOOP('',(#178,#179));
#130=EDGE_LOOP('',(#180,#181,#182,#183,#184,#185));
#131=EDGE_LOOP('',(#186,#187));
#132=EDGE_LOOP('',(#188,#189,#190,#191));
#133=EDGE_LOOP('',(#192,#193,#194,#195));
#134=ORIENTED_EDGE('',*,*,#221,.T.);
#135=ORIENTED_EDGE('',*,*,#222,.T.);
#136=ORIENTED_EDGE('',*,*,#223,.T.);
#137=ORIENTED_EDGE('',*,*,#224,.F.);
#138=ORIENTED_EDGE('',*,*,#224,.T.);
#139=ORIENTED_EDGE('',*,*,#221,.F.);
#140=ORIENTED_EDGE('',*,*,#225,.F.);
#141=ORIENTED_EDGE('',*,*,#225,.T.);
#142=ORIENTED_EDGE('',*,*,#222,.F.);
#143=ORIENTED_EDGE('',*,*,#226,.F.);
#144=ORIENTED_EDGE('',*,*,#226,.T.);
#145=ORIENTED_EDGE('',*,*,#227,.T.);
#146=ORIENTED_EDGE('',*,*,#228,.F.);
#147=ORIENTED_EDGE('',*,*,#228,.T.);
#148=ORIENTED_EDGE('',*,*,#229,.T.);
#149=ORIENTED_EDGE('',*,*,#223,.F.);
#150=ORIENTED_EDGE('',*,*,#230,.F.);
#151=ORIENTED_EDGE('',*,*,#231,.F.);
#152=ORIENTED_EDGE('',*,*,#227,.F.);
#153=ORIENTED_EDGE('',*,*,#229,.F.);
#154=ORIENTED_EDGE('',*,*,#232,.F.);
#155=ORIENTED_EDGE('',*,*,#231,.T.);
#156=ORIENTED_EDGE('',*,*,#233,.T.);
#157=ORIENTED_EDGE('',*,*,#234,.T.);
#158=ORIENTED_EDGE('',*,*,#233,.F.);
#159=ORIENTED_EDGE('',*,*,#230,.T.);
#160=ORIENTED_EDGE('',*,*,#232,.T.);
#161=ORIENTED_EDGE('',*,*,#235,.F.);
#162=ORIENTED_EDGE('',*,*,#236,.F.);
#163=ORIENTED_EDGE('',*,*,#234,.F.);
#164=ORIENTED_EDGE('',*,*,#237,.T.);
#165=ORIENTED_EDGE('',*,*,#238,.T.);
#166=ORIENTED_EDGE('',*,*,#237,.F.);
#167=ORIENTED_EDGE('',*,*,#235,.T.);
#168=ORIENTED_EDGE('',*,*,#236,.T.);
#169=ORIENTED_EDGE('',*,*,#239,.T.);
#170=ORIENTED_EDGE('',*,*,#240,.F.);
#171=ORIENTED_EDGE('',*,*,#239,.F.);
#172=ORIENTED_EDGE('',*,*,#238,.F.);
#173=ORIENTED_EDGE('',*,*,#240,.T.);
#174=ORIENTED_EDGE('',*,*,#241,.F.);
#175=ORIENTED_EDGE('',*,*,#241,.T.);
#176=ORIENTED_EDGE('',*,*,#242,.T.);
#177=ORIENTED_EDGE('',*,*,#243,.T.);
#178=ORIENTED_EDGE('',*,*,#244,.F.);
#179=ORIENTED_EDGE('',*,*,#245,.F.);
#180=ORIENTED_EDGE('',*,*,#246,.F.);
#181=ORIENTED_EDGE('',*,*,#243,.F.);
#182=ORIENTED_EDGE('',*,*,#247,.T.);
#183=ORIENTED_EDGE('',*,*,#247,.F.);
#184=ORIENTED_EDGE('',*,*,#242,.F.);
#185=ORIENTED_EDGE('',*,*,#246,.T.);
#186=ORIENTED_EDGE('',*,*,#248,.T.);
#187=ORIENTED_EDGE('',*,*,#249,.T.);
#188=ORIENTED_EDGE('',*,*,#250,.F.);
#189=ORIENTED_EDGE('',*,*,#245,.T.);
#190=ORIENTED_EDGE('',*,*,#251,.T.);
#191=ORIENTED_EDGE('',*,*,#248,.F.);
#192=ORIENTED_EDGE('',*,*,#251,.F.);
#193=ORIENTED_EDGE('',*,*,#244,.T.);
#194=ORIENTED_EDGE('',*,*,#250,.T.);
#195=ORIENTED_EDGE('',*,*,#249,.F.);
#196=VERTEX_POINT('',#429);
#197=VERTEX_POINT('',#430);
#198=VERTEX_POINT('',#434);
#199=VERTEX_POINT('',#436);
#200=VERTEX_POINT('',#438);
#201=VERTEX_POINT('',#441);
#202=VERTEX_POINT('',#442);
#203=VERTEX_POINT('',#444);
#204=VERTEX_POINT('',#446);
#205=VERTEX_POINT('',#450);
#206=VERTEX_POINT('',#451);
#207=VERTEX_POINT('',#455);
#208=VERTEX_POINT('',#457);
#209=VERTEX_POINT('',#463);
#210=VERTEX_POINT('',#465);
#211=VERTEX_POINT('',#471);
#212=VERTEX_POINT('',#474);
#213=VERTEX_POINT('',#477);
#214=VERTEX_POINT('',#478);
#215=VERTEX_POINT('',#482);
#216=VERTEX_POINT('',#483);
#217=VERTEX_POINT('',#486);
#218=VERTEX_POINT('',#488);
#219=VERTEX_POINT('',#491);
#220=VERTEX_POINT('',#492);
#221=EDGE_CURVE('',#196,#197,#252,.T.);
#222=EDGE_CURVE('',#197,#196,#253,.T.);
#223=EDGE_CURVE('',#198,#198,#254,.T.);
#224=EDGE_CURVE('',#199,#197,#50,.T.);
#225=EDGE_CURVE('',#200,#196,#51,.T.);
#226=EDGE_CURVE('',#201,#202,#52,.T.);
#227=EDGE_CURVE('',#202,#203,#255,.T.);
#228=EDGE_CURVE('',#204,#203,#53,.T.);
#229=EDGE_CURVE('',#203,#202,#256,.T.);
#230=EDGE_CURVE('',#205,#206,#257,.T.);
#231=EDGE_CURVE('',#206,#205,#258,.T.);
#232=EDGE_CURVE('',#206,#207,#54,.T.);
#233=EDGE_CURVE('',#205,#208,#55,.T.);
#234=EDGE_CURVE('',#208,#207,#259,.T.);
#235=EDGE_CURVE('',#208,#207,#260,.T.);
#236=EDGE_CURVE('',#207,#209,#261,.T.);
#237=EDGE_CURVE('',#208,#210,#262,.T.);
#238=EDGE_CURVE('',#210,#209,#263,.T.);
#239=EDGE_CURVE('',#209,#210,#264,.T.);
#240=EDGE_CURVE('',#211,#211,#265,.T.);
#241=EDGE_CURVE('',#212,#212,#266,.T.);
#242=EDGE_CURVE('',#213,#214,#267,.T.);
#243=EDGE_CURVE('',#214,#213,#268,.T.);
#244=EDGE_CURVE('',#215,#216,#269,.T.);
#245=EDGE_CURVE('',#216,#215,#270,.T.);
#246=EDGE_CURVE('',#213,#217,#56,.T.);
#247=EDGE_CURVE('',#214,#218,#57,.T.);
#248=EDGE_CURVE('',#219,#220,#271,.T.);
#249=EDGE_CURVE('',#220,#219,#272,.T.);
#250=EDGE_CURVE('',#216,#219,#58,.T.);
#251=EDGE_CURVE('',#215,#220,#59,.T.);
#252=CIRCLE('',#298,24.7499999999942);
#253=CIRCLE('',#299,24.7499999999942);
#254=CIRCLE('',#301,31.45);
#255=CIRCLE('',#303,31.45);
#256=CIRCLE('',#304,31.45);
#257=CIRCLE('',#306,25.);
#258=CIRCLE('',#307,25.);
#259=CIRCLE('',#309,25.);
#260=CIRCLE('',#311,25.);
#261=CIRCLE('',#313,5.);
#262=CIRCLE('',#314,5.);
#263=CIRCLE('',#315,30.);
#264=CIRCLE('',#317,30.);
#265=CIRCLE('',#319,48.75);
#266=CIRCLE('',#321,48.75);
#267=CIRCLE('',#323,35.3916641016607);
#268=CIRCLE('',#324,35.3916641016607);
#269=CIRCLE('',#326,19.65);
#270=CIRCLE('',#327,19.65);
#271=CIRCLE('',#329,19.65);
#272=CIRCLE('',#330,19.65);
#273=INVISIBILITY((#274,#275,#276));
#274=PRESENTATION_LAYER_ASSIGNMENT('100','Layer 100',(#295));
#275=PRESENTATION_LAYER_ASSIGNMENT('101','Layer 101',(#296));
#276=PRESENTATION_LAYER_ASSIGNMENT('102','Layer 102',(#297));
#277=PRESENTATION_LAYER_ASSIGNMENT('98','Layer 98',(#38));
#278=STYLED_ITEM('',(#282),#295);
#279=STYLED_ITEM('',(#283),#296);
#280=STYLED_ITEM('',(#284),#297);
#281=STYLED_ITEM('',(#285),#38);
#282=PRESENTATION_STYLE_ASSIGNMENT((#286));
#283=PRESENTATION_STYLE_ASSIGNMENT((#287));
#284=PRESENTATION_STYLE_ASSIGNMENT((#288));
#285=PRESENTATION_STYLE_ASSIGNMENT((#33));
#286=CURVE_STYLE('',#291,POSITIVE_LENGTH_MEASURE(0.7),#289);
#287=CURVE_STYLE('',#292,POSITIVE_LENGTH_MEASURE(0.7),#289);
#288=CURVE_STYLE('',#293,POSITIVE_LENGTH_MEASURE(0.7),#289);
#289=COLOUR_RGB('Medium Maroon',0.6,0.4,0.4);
#290=COLOUR_RGB('Medium Gray',0.490196078431373,0.490196078431373,0.490196078431373);
#291=DRAUGHTING_PRE_DEFINED_CURVE_FONT('continuous');
#292=DRAUGHTING_PRE_DEFINED_CURVE_FONT('continuous');
#293=DRAUGHTING_PRE_DEFINED_CURVE_FONT('continuous');
#294=AXIS2_PLACEMENT_3D('',#424,#334,#335);
#295=AXIS2_PLACEMENT_3D('PCS',#425,#336,#337);
#296=AXIS2_PLACEMENT_3D('CSW',#426,#338,#339);
#297=AXIS2_PLACEMENT_3D('MCS',#427,#340,#341);
#298=AXIS2_PLACEMENT_3D('',#428,#342,#343);
#299=AXIS2_PLACEMENT_3D('',#431,#344,#345);
#300=AXIS2_PLACEMENT_3D('',#432,#346,#347);
#301=AXIS2_PLACEMENT_3D('',#433,#348,#349);
#302=AXIS2_PLACEMENT_3D('',#439,#352,#353);
#303=AXIS2_PLACEMENT_3D('',#443,#355,#356);
#304=AXIS2_PLACEMENT_3D('',#447,#358,#359);
#305=AXIS2_PLACEMENT_3D('',#448,#360,#361);
#306=AXIS2_PLACEMENT_3D('',#449,#362,#363);
#307=AXIS2_PLACEMENT_3D('',#452,#364,#365);
#308=AXIS2_PLACEMENT_3D('',#453,#366,#367);
#309=AXIS2_PLACEMENT_3D('',#458,#370,#371);
#310=AXIS2_PLACEMENT_3D('',#459,#372,#373);
#311=AXIS2_PLACEMENT_3D('',#460,#374,#375);
#312=AXIS2_PLACEMENT_3D('',#461,#376,#377);
#313=AXIS2_PLACEMENT_3D('',#462,#378,#379);
#314=AXIS2_PLACEMENT_3D('',#464,#380,#381);
#315=AXIS2_PLACEMENT_3D('',#466,#382,#383);
#316=AXIS2_PLACEMENT_3D('',#467,#384,#385);
#317=AXIS2_PLACEMENT_3D('',#468,#386,#387);
#318=AXIS2_PLACEMENT_3D('',#469,#388,#389);
#319=AXIS2_PLACEMENT_3D('',#470,#390,#391);
#320=AXIS2_PLACEMENT_3D('',#472,#392,#393);
#321=AXIS2_PLACEMENT_3D('',#473,#394,#395);
#322=AXIS2_PLACEMENT_3D('',#475,#396,#397);
#323=AXIS2_PLACEMENT_3D('',#476,#398,#399);
#324=AXIS2_PLACEMENT_3D('',#479,#400,#401);
#325=AXIS2_PLACEMENT_3D('',#480,#402,#403);
#326=AXIS2_PLACEMENT_3D('',#481,#404,#405);
#327=AXIS2_PLACEMENT_3D('',#484,#406,#407);
#328=AXIS2_PLACEMENT_3D('',#489,#410,#411);
#329=AXIS2_PLACEMENT_3D('',#490,#412,#413);
#330=AXIS2_PLACEMENT_3D('',#493,#414,#415);
#331=AXIS2_PLACEMENT_3D('',#494,#416,#417);
#332=AXIS2_PLACEMENT_3D('',#497,#420,#421);
#333=AXIS2_PLACEMENT_3D('',#498,#422,#423);
#334=DIRECTION('',(0.,0.,1.));
#335=DIRECTION('',(1.,0.,0.));
#336=DIRECTION('',(0.,0.,1.));
#337=DIRECTION('',(1.,0.,0.));
#338=DIRECTION('',(0.,0.,1.));
#339=DIRECTION('',(1.,0.,0.));
#340=DIRECTION('',(0.,0.,1.));
#341=DIRECTION('',(1.,0.,0.));
#342=DIRECTION('',(0.,0.,-1.));
#343=DIRECTION('',(-1.,0.,0.));
#344=DIRECTION('',(0.,0.,-1.));
#345=DIRECTION('',(-1.,0.,0.));
#346=DIRECTION('',(0.,0.,-1.));
#347=DIRECTION('',(0.,-1.,0.));
#348=DIRECTION('',(0.,0.,-1.));
#349=DIRECTION('',(1.,0.,0.));
#350=DIRECTION('',(0.,-0.866025403784429,-0.500000000000017));
#351=DIRECTION('',(0.,0.866025403784429,-0.500000000000017));
#352=DIRECTION('',(0.,0.,1.));
#353=DIRECTION('',(0.,1.,-7.88563155880568E-18));
#354=DIRECTION('',(0.,0.,1.));
#355=DIRECTION('',(0.,0.,-1.));
#356=DIRECTION('',(-1.,0.,0.));
#357=DIRECTION('',(-1.716326236589E-14,0.,1.));
#358=DIRECTION('',(0.,0.,-1.));
#359=DIRECTION('',(-1.,0.,0.));
#360=DIRECTION('',(0.,0.,-1.));
#361=DIRECTION('',(0.,-1.,0.));
#362=DIRECTION('',(0.,0.,1.));
#363=DIRECTION('',(-1.,0.,0.));
#364=DIRECTION('',(0.,0.,1.));
#365=DIRECTION('',(-1.,0.,0.));
#366=DIRECTION('',(0.,0.,-1.));
#367=DIRECTION('',(0.,-1.,0.));
#368=DIRECTION('',(0.,0.,1.));
#369=DIRECTION('',(0.,0.,1.));
#370=DIRECTION('',(0.,0.,-1.));
#371=DIRECTION('',(0.,1.,0.));
#372=DIRECTION('',(0.,0.,-1.));
#373=DIRECTION('',(0.,1.,0.));
#374=DIRECTION('',(0.,0.,1.));
#375=DIRECTION('',(0.,1.,0.));
#376=DIRECTION('',(0.,0.,-1.));
#377=DIRECTION('',(0.,1.,0.));
#378=DIRECTION('',(1.,0.,0.));
#379=DIRECTION('',(0.,1.,0.));
#380=DIRECTION('',(-1.,0.,0.));
#381=DIRECTION('',(0.,-1.,0.));
#382=DIRECTION('',(0.,0.,-1.));
#383=DIRECTION('',(0.,1.,0.));
#384=DIRECTION('',(0.,0.,-1.));
#385=DIRECTION('',(0.,1.,0.));
#386=DIRECTION('',(0.,0.,-1.));
#387=DIRECTION('',(0.,-1.,0.));
#388=DIRECTION('',(0.,0.,-1.));
#389=DIRECTION('',(0.,1.,0.));
#390=DIRECTION('',(0.,0.,1.));
#391=DIRECTION('',(-1.,0.,0.));
#392=DIRECTION('',(0.,0.,-1.));
#393=DIRECTION('',(0.,1.,0.));
#394=DIRECTION('',(0.,0.,1.));
#395=DIRECTION('',(-1.,0.,0.));
#396=DIRECTION('',(0.,0.,-1.));
#397=DIRECTION('',(0.,1.,0.));
#398=DIRECTION('',(0.,0.,-1.));
#399=DIRECTION('',(-1.,0.,0.));
#400=DIRECTION('',(0.,0.,-1.));
#401=DIRECTION('',(-1.,0.,0.));
#402=DIRECTION('',(0.,0.,-1.));
#403=DIRECTION('',(0.,1.,0.));
#404=DIRECTION('',(0.,0.,1.));
#405=DIRECTION('',(-1.,0.,0.));
#406=DIRECTION('',(0.,0.,1.));
#407=DIRECTION('',(-1.,0.,0.));
#408=DIRECTION('',(0.,-0.144306116415197,0.989533094325381));
#409=DIRECTION('',(0.,0.144306116415197,0.989533094325381));
#410=DIRECTION('',(0.,0.,-1.));
#411=DIRECTION('',(0.,1.,0.));
#412=DIRECTION('',(0.,0.,1.));
#413=DIRECTION('',(-1.,0.,0.));
#414=DIRECTION('',(0.,0.,1.));
#415=DIRECTION('',(-1.,0.,0.));
#416=DIRECTION('',(0.,0.,-1.));
#417=DIRECTION('',(0.,1.,0.));
#418=DIRECTION('',(-5.268520003996E-13,0.,1.));
#419=DIRECTION('',(5.267339016558E-13,0.,1.));
#420=DIRECTION('',(0.,0.,-1.));
#421=DIRECTION('',(0.,1.,0.));
#422=DIRECTION('',(0.,0.,-1.));
#423=DIRECTION('',(0.,1.,0.));
#424=CARTESIAN_POINT('',(0.,0.,0.));
#425=CARTESIAN_POINT('',(0.,0.,0.));
#426=CARTESIAN_POINT('',(0.,0.,-48.));
#427=CARTESIAN_POINT('',(0.,0.,0.));
#428=CARTESIAN_POINT('',(0.,0.,-63.));
#429=CARTESIAN_POINT('',(0.,-24.7500000000042,-63.));
#430=CARTESIAN_POINT('',(0.,24.7500000000042,-63.));
#431=CARTESIAN_POINT('',(0.,0.,-63.));
#432=CARTESIAN_POINT('',(0.,0.,-63.));
#433=CARTESIAN_POINT('',(0.,0.,-59.1317531964262));
#434=CARTESIAN_POINT('',(31.45,0.,-59.1317531964262));
#435=CARTESIAN_POINT('',(0.,25.21410161514,-62.73205080757));
#436=CARTESIAN_POINT('',(2.052556870943E-14,28.29551270189,-60.95299728715));
#437=CARTESIAN_POINT('',(0.,-25.21410161514,-62.73205080757));
#438=CARTESIAN_POINT('',(-1.803633163934E-14,-28.29551270189,-60.95299728715));
#439=CARTESIAN_POINT('',(0.,0.,-61.22057713659));
#440=CARTESIAN_POINT('',(0.,31.45,-48.1));
#441=CARTESIAN_POINT('',(0.,31.45,-48.1));
#442=CARTESIAN_POINT('',(0.,31.45,-37.1));
#443=CARTESIAN_POINT('',(0.,0.,-37.1));
#444=CARTESIAN_POINT('',(-3.81780189150971E-14,-31.45,-37.1));
#445=CARTESIAN_POINT('',(3.562400925823E-14,-31.45,-41.4));
#446=CARTESIAN_POINT('',(1.155843793816E-13,-31.45,-41.4));
#447=CARTESIAN_POINT('',(0.,0.,-37.1));
#448=CARTESIAN_POINT('',(0.,0.,-71.12));
#449=CARTESIAN_POINT('',(0.,0.,-37.1));
#450=CARTESIAN_POINT('',(0.,25.,-37.1));
#451=CARTESIAN_POINT('',(0.,-25.,-37.1));
#452=CARTESIAN_POINT('',(0.,0.,-37.1));
#453=CARTESIAN_POINT('',(0.,0.,-37.1));
#454=CARTESIAN_POINT('',(0.,-25.,-37.5003751221));
#455=CARTESIAN_POINT('',(0.,-25.,-20.2));
#456=CARTESIAN_POINT('',(0.,25.,-37.5003751221));
#457=CARTESIAN_POINT('',(0.,25.,-20.2));
#458=CARTESIAN_POINT('',(0.,0.,-20.2));
#459=CARTESIAN_POINT('',(0.,0.,-13.56));
#460=CARTESIAN_POINT('',(0.,0.,-20.2));
#461=CARTESIAN_POINT('',(0.,0.,-13.56));
#462=CARTESIAN_POINT('',(0.,-30.,-20.2));
#463=CARTESIAN_POINT('',(0.,-30.,-15.2));
#464=CARTESIAN_POINT('',(0.,30.,-20.2));
#465=CARTESIAN_POINT('',(0.,30.,-15.2));
#466=CARTESIAN_POINT('',(0.,0.,-15.2));
#467=CARTESIAN_POINT('',(0.,0.,-20.2));
#468=CARTESIAN_POINT('',(0.,0.,-15.2));
#469=CARTESIAN_POINT('',(0.,0.,-20.2));
#470=CARTESIAN_POINT('',(0.,0.,-15.2));
#471=CARTESIAN_POINT('',(-48.75,0.,-15.2));
#472=CARTESIAN_POINT('',(0.,0.,-15.2));
#473=CARTESIAN_POINT('',(0.,0.,-3.20000000000001));
#474=CARTESIAN_POINT('',(-48.75,0.,-3.20000000000001));
#475=CARTESIAN_POINT('',(0.,0.,133.9));
#476=CARTESIAN_POINT('',(0.,0.,-3.2));
#477=CARTESIAN_POINT('',(0.,35.3916641016607,-3.2));
#478=CARTESIAN_POINT('',(4.3342288158597E-15,-35.3916641016607,-3.2));
#479=CARTESIAN_POINT('',(0.,0.,-3.2));
#480=CARTESIAN_POINT('',(0.,0.,-3.2));
#481=CARTESIAN_POINT('',(0.,0.,104.743432858557));
#482=CARTESIAN_POINT('',(0.,19.65,104.743432858557));
#483=CARTESIAN_POINT('',(-1.34265514244711E-12,-19.65,104.743432858557));
#484=CARTESIAN_POINT('',(0.,0.,104.743432858557));
#485=CARTESIAN_POINT('',(0.,35.09999903812,-1.2));
#486=CARTESIAN_POINT('',(0.,20.19982736606,100.9731673397));
#487=CARTESIAN_POINT('',(0.,-35.09999903812,-1.2));
#488=CARTESIAN_POINT('',(0.,-20.19982736606,100.9731673397));
#489=CARTESIAN_POINT('',(0.,0.,49.88658366985));
#490=CARTESIAN_POINT('',(0.,0.,126.8));
#491=CARTESIAN_POINT('',(-5.37817047449272E-12,-19.65,126.8));
#492=CARTESIAN_POINT('',(5.37696490788863E-12,19.65,126.8));
#493=CARTESIAN_POINT('',(0.,0.,126.8));
#494=CARTESIAN_POINT('',(0.,0.,126.8));
#495=CARTESIAN_POINT('',(0.,-19.65,116.5918761428));
#496=CARTESIAN_POINT('',(0.,19.65,116.5918761428));
#497=CARTESIAN_POINT('',(0.,0.,133.9));
#498=CARTESIAN_POINT('',(0.,0.,133.9));
#499=MECHANICAL_DESIGN_GEOMETRIC_PRESENTATION_REPRESENTATION('',(#278,#279,
#280,#281),#500);
#500=(
GEOMETRIC_REPRESENTATION_CONTEXT(3)
GLOBAL_UNCERTAINTY_ASSIGNED_CONTEXT((#501))
GLOBAL_UNIT_ASSIGNED_CONTEXT((#507,#503,#502))
REPRESENTATION_CONTEXT('2080.50-CC.ER40','TOP_LEVEL_ASSEMBLY_PART')
);
#501=UNCERTAINTY_MEASURE_WITH_UNIT(LENGTH_MEASURE(2.E-5),#507,
'DISTANCE_ACCURACY_VALUE','Maximum Tolerance applied to model');
#502=(
NAMED_UNIT(*)
SI_UNIT($,.STERADIAN.)
SOLID_ANGLE_UNIT()
);
#503=(
CONVERSION_BASED_UNIT('DEGREE',#505)
NAMED_UNIT(#504)
PLANE_ANGLE_UNIT()
);
#504=DIMENSIONAL_EXPONENTS(0.,0.,0.,0.,0.,0.,0.);
#505=PLANE_ANGLE_MEASURE_WITH_UNIT(PLANE_ANGLE_MEASURE(0.0174532925),#506);
#506=(
NAMED_UNIT(*)
PLANE_ANGLE_UNIT()
SI_UNIT($,.RADIAN.)
);
#507=(
LENGTH_UNIT()
NAMED_UNIT(*)
SI_UNIT(.MILLI.,.METRE.)
);
ENDSEC;
END-ISO-10303-21;
