ISO-10303-21;
HEADER;
/* Generated by software containing ST-Developer
 * from STEP Tools, Inc. (www.steptools.com) 
 */
/* OPTION: using custom schema-name function */

FILE_DESCRIPTION(
/* description */ (''),
/* implementation_level */ '2;1');

FILE_NAME(
/* name */ '2080.50-CC.ER32.063.stp',
/* time_stamp */ '2024-06-23T16:40:40+02:00',
/* author */ (''),
/* organization */ (''),
/* preprocessor_version */ 'ST-DEVELOPER v16.7',
/* originating_system */ 'SIEMENS PLM Software NX 12.0',
/* authorisation */ '');

FILE_SCHEMA (('AUTOMOTIVE_DESIGN { 1 0 10303 214 3 1 1 1 }'));
ENDSEC;

DATA;
#10=CONSTRUCTIVE_GEOMETRY_REPRESENTATION_RELATIONSHIP(
'supplemental geometry','',#32,#11);
#11=CONSTRUCTIVE_GEOMETRY_REPRESENTATION('supplemental geometry',(#295,
#296,#297),#500);
#12=PROPERTY_DEFINITION_REPRESENTATION(#16,#14);
#13=PROPERTY_DEFINITION_REPRESENTATION(#17,#15);
#14=REPRESENTATION('',(#18),#500);
#15=REPRESENTATION('',(#19),#500);
#16=PROPERTY_DEFINITION('pmi validation property','',#23);
#17=PROPERTY_DEFINITION('pmi validation property','',#23);
#18=VALUE_REPRESENTATION_ITEM('number of annotations',COUNT_MEASURE(0.));
#19=VALUE_REPRESENTATION_ITEM('number of views',COUNT_MEASURE(0.));
#20=SHAPE_REPRESENTATION_RELATIONSHIP('None',
'relationship between pf660F5CA0AEj85j-None and pf660F5CA0AEj85j-None',
#32,#21);
#21=ADVANCED_BREP_SHAPE_REPRESENTATION('pf660F5CA0AEj85j-None',(#38),#500);
#22=SHAPE_DEFINITION_REPRESENTATION(#23,#32);
#23=PRODUCT_DEFINITION_SHAPE('','',#24);
#24=PRODUCT_DEFINITION(' ','',#26,#25);
#25=PRODUCT_DEFINITION_CONTEXT('part definition',#31,'design');
#26=PRODUCT_DEFINITION_FORMATION_WITH_SPECIFIED_SOURCE(' ',' ',#28,
 .NOT_KNOWN.);
#27=PRODUCT_RELATED_PRODUCT_CATEGORY('part','',(#28));
#28=PRODUCT('pf660F5CA0AEj85j','pf660F5CA0AEj85j',' ',(#29));
#29=PRODUCT_CONTEXT(' ',#31,'mechanical');
#30=APPLICATION_PROTOCOL_DEFINITION('international standard',
'automotive_design',2010,#31);
#31=APPLICATION_CONTEXT(
'core data for automotive mechanical design processes');
#32=SHAPE_REPRESENTATION('pf660F5CA0AEj85j-None',(#294),#500);
#33=SURFACE_STYLE_USAGE(.BOTH.,#34);
#34=SURFACE_SIDE_STYLE('',(#35));
#35=SURFACE_STYLE_FILL_AREA(#36);
#36=FILL_AREA_STYLE('',(#37));
#37=FILL_AREA_STYLE_COLOUR('',#290);
#38=MANIFOLD_SOLID_BREP('',#39);
#39=CLOSED_SHELL('',(#63,#64,#65,#66,#67,#68,#69,#70,#71,#72,#73,#74,#75,
#76,#77));
#40=TOROIDAL_SURFACE('',#323,25.,5.);
#41=TOROIDAL_SURFACE('',#324,25.,5.);
#42=CONICAL_SURFACE('',#313,27.64991320209,8.2971);
#43=CONICAL_SURFACE('',#332,21.95705080757,60.);
#44=FACE_BOUND('',#97,.T.);
#45=FACE_BOUND('',#98,.T.);
#46=FACE_BOUND('',#99,.T.);
#47=FACE_BOUND('',#100,.T.);
#48=FACE_BOUND('',#101,.T.);
#49=FACE_BOUND('',#102,.T.);
#50=FACE_BOUND('',#103,.T.);
#51=FACE_BOUND('',#104,.T.);
#52=FACE_BOUND('',#107,.T.);
#53=FACE_BOUND('',#108,.T.);
#54=FACE_BOUND('',#109,.T.);
#55=FACE_BOUND('',#110,.T.);
#56=FACE_BOUND('',#111,.T.);
#57=FACE_BOUND('',#112,.T.);
#58=PLANE('',#306);
#59=PLANE('',#315);
#60=PLANE('',#320);
#61=PLANE('',#327);
#62=PLANE('',#333);
#63=ADVANCED_FACE('',(#84),#78,.T.);
#64=ADVANCED_FACE('',(#85),#79,.T.);
#65=ADVANCED_FACE('',(#86),#58,.F.);
#66=ADVANCED_FACE('',(#87),#80,.T.);
#67=ADVANCED_FACE('',(#88),#81,.T.);
#68=ADVANCED_FACE('',(#44,#45),#42,.T.);
#69=ADVANCED_FACE('',(#46,#47),#59,.F.);
#70=ADVANCED_FACE('',(#48,#49),#82,.T.);
#71=ADVANCED_FACE('',(#50,#51),#60,.T.);
#72=ADVANCED_FACE('',(#89),#40,.F.);
#73=ADVANCED_FACE('',(#90),#41,.F.);
#74=ADVANCED_FACE('',(#52,#53),#61,.F.);
#75=ADVANCED_FACE('',(#54,#55),#83,.T.);
#76=ADVANCED_FACE('',(#56,#57),#43,.T.);
#77=ADVANCED_FACE('',(#91),#62,.T.);
#78=CYLINDRICAL_SURFACE('',#300,20.);
#79=CYLINDRICAL_SURFACE('',#303,20.);
#80=CYLINDRICAL_SURFACE('',#308,19.65);
#81=CYLINDRICAL_SURFACE('',#310,19.65);
#82=CYLINDRICAL_SURFACE('',#317,48.75);
#83=CYLINDRICAL_SURFACE('',#329,24.95);
#84=FACE_OUTER_BOUND('',#92,.T.);
#85=FACE_OUTER_BOUND('',#93,.T.);
#86=FACE_OUTER_BOUND('',#94,.T.);
#87=FACE_OUTER_BOUND('',#95,.T.);
#88=FACE_OUTER_BOUND('',#96,.T.);
#89=FACE_OUTER_BOUND('',#105,.T.);
#90=FACE_OUTER_BOUND('',#106,.T.);
#91=FACE_OUTER_BOUND('',#113,.T.);
#92=EDGE_LOOP('',(#135,#136,#137,#138));
#93=EDGE_LOOP('',(#139,#140,#141,#142));
#94=EDGE_LOOP('',(#143,#144));
#95=EDGE_LOOP('',(#145,#146,#147,#148));
#96=EDGE_LOOP('',(#149,#150,#151,#152));
#97=EDGE_LOOP('',(#153,#154));
#98=EDGE_LOOP('',(#155,#156,#157,#158,#159,#160));
#99=EDGE_LOOP('',(#161));
#100=EDGE_LOOP('',(#162,#163));
#101=EDGE_LOOP('',(#164));
#102=EDGE_LOOP('',(#165));
#103=EDGE_LOOP('',(#166));
#104=EDGE_LOOP('',(#167,#168));
#105=EDGE_LOOP('',(#169,#170,#171,#172));
#106=EDGE_LOOP('',(#173,#174,#175,#176));
#107=EDGE_LOOP('',(#177,#178));
#108=EDGE_LOOP('',(#179,#180));
#109=EDGE_LOOP('',(#181,#182,#183,#184,#185,#186));
#110=EDGE_LOOP('',(#187));
#111=EDGE_LOOP('',(#188));
#112=EDGE_LOOP('',(#189,#190,#191,#192,#193,#194));
#113=EDGE_LOOP('',(#195,#196));
#114=CIRCLE('',#298,20.);
#115=CIRCLE('',#299,20.);
#116=CIRCLE('',#301,20.);
#117=CIRCLE('',#302,20.);
#118=CIRCLE('',#304,19.65);
#119=CIRCLE('',#305,19.65);
#120=CIRCLE('',#307,19.65);
#121=CIRCLE('',#309,19.65);
#122=CIRCLE('',#311,35.3916641016607);
#123=CIRCLE('',#312,35.3916641016607);
#124=CIRCLE('',#314,48.75);
#125=CIRCLE('',#316,48.75);
#126=CIRCLE('',#318,25.);
#127=CIRCLE('',#319,25.);
#128=CIRCLE('',#321,5.);
#129=CIRCLE('',#322,5.);
#130=CIRCLE('',#325,24.95);
#131=CIRCLE('',#326,24.95);
#132=CIRCLE('',#328,24.95);
#133=CIRCLE('',#330,19.5000000000054);
#134=CIRCLE('',#331,19.5000000000054);
#135=ORIENTED_EDGE('',*,*,#222,.F.);
#136=ORIENTED_EDGE('',*,*,#223,.T.);
#137=ORIENTED_EDGE('',*,*,#224,.T.);
#138=ORIENTED_EDGE('',*,*,#225,.F.);
#139=ORIENTED_EDGE('',*,*,#224,.F.);
#140=ORIENTED_EDGE('',*,*,#226,.T.);
#141=ORIENTED_EDGE('',*,*,#222,.T.);
#142=ORIENTED_EDGE('',*,*,#227,.T.);
#143=ORIENTED_EDGE('',*,*,#228,.T.);
#144=ORIENTED_EDGE('',*,*,#229,.T.);
#145=ORIENTED_EDGE('',*,*,#230,.F.);
#146=ORIENTED_EDGE('',*,*,#231,.T.);
#147=ORIENTED_EDGE('',*,*,#232,.T.);
#148=ORIENTED_EDGE('',*,*,#228,.F.);
#149=ORIENTED_EDGE('',*,*,#232,.F.);
#150=ORIENTED_EDGE('',*,*,#233,.T.);
#151=ORIENTED_EDGE('',*,*,#230,.T.);
#152=ORIENTED_EDGE('',*,*,#229,.F.);
#153=ORIENTED_EDGE('',*,*,#233,.F.);
#154=ORIENTED_EDGE('',*,*,#231,.F.);
#155=ORIENTED_EDGE('',*,*,#234,.T.);
#156=ORIENTED_EDGE('',*,*,#234,.F.);
#157=ORIENTED_EDGE('',*,*,#235,.F.);
#158=ORIENTED_EDGE('',*,*,#236,.T.);
#159=ORIENTED_EDGE('',*,*,#236,.F.);
#160=ORIENTED_EDGE('',*,*,#237,.F.);
#161=ORIENTED_EDGE('',*,*,#238,.T.);
#162=ORIENTED_EDGE('',*,*,#237,.T.);
#163=ORIENTED_EDGE('',*,*,#235,.T.);
#164=ORIENTED_EDGE('',*,*,#239,.T.);
#165=ORIENTED_EDGE('',*,*,#238,.F.);
#166=ORIENTED_EDGE('',*,*,#239,.F.);
#167=ORIENTED_EDGE('',*,*,#240,.F.);
#168=ORIENTED_EDGE('',*,*,#241,.F.);
#169=ORIENTED_EDGE('',*,*,#242,.F.);
#170=ORIENTED_EDGE('',*,*,#225,.T.);
#171=ORIENTED_EDGE('',*,*,#243,.T.);
#172=ORIENTED_EDGE('',*,*,#240,.T.);
#173=ORIENTED_EDGE('',*,*,#243,.F.);
#174=ORIENTED_EDGE('',*,*,#227,.F.);
#175=ORIENTED_EDGE('',*,*,#242,.T.);
#176=ORIENTED_EDGE('',*,*,#241,.T.);
#177=ORIENTED_EDGE('',*,*,#223,.F.);
#178=ORIENTED_EDGE('',*,*,#226,.F.);
#179=ORIENTED_EDGE('',*,*,#244,.F.);
#180=ORIENTED_EDGE('',*,*,#245,.F.);
#181=ORIENTED_EDGE('',*,*,#246,.F.);
#182=ORIENTED_EDGE('',*,*,#246,.T.);
#183=ORIENTED_EDGE('',*,*,#244,.T.);
#184=ORIENTED_EDGE('',*,*,#247,.F.);
#185=ORIENTED_EDGE('',*,*,#247,.T.);
#186=ORIENTED_EDGE('',*,*,#245,.T.);
#187=ORIENTED_EDGE('',*,*,#248,.F.);
#188=ORIENTED_EDGE('',*,*,#248,.T.);
#189=ORIENTED_EDGE('',*,*,#249,.F.);
#190=ORIENTED_EDGE('',*,*,#249,.T.);
#191=ORIENTED_EDGE('',*,*,#250,.T.);
#192=ORIENTED_EDGE('',*,*,#251,.F.);
#193=ORIENTED_EDGE('',*,*,#251,.T.);
#194=ORIENTED_EDGE('',*,*,#252,.T.);
#195=ORIENTED_EDGE('',*,*,#250,.F.);
#196=ORIENTED_EDGE('',*,*,#252,.F.);
#197=VERTEX_POINT('',#429);
#198=VERTEX_POINT('',#430);
#199=VERTEX_POINT('',#432);
#200=VERTEX_POINT('',#434);
#201=VERTEX_POINT('',#441);
#202=VERTEX_POINT('',#442);
#203=VERTEX_POINT('',#446);
#204=VERTEX_POINT('',#448);
#205=VERTEX_POINT('',#454);
#206=VERTEX_POINT('',#455);
#207=VERTEX_POINT('',#457);
#208=VERTEX_POINT('',#459);
#209=VERTEX_POINT('',#463);
#210=VERTEX_POINT('',#466);
#211=VERTEX_POINT('',#469);
#212=VERTEX_POINT('',#470);
#213=VERTEX_POINT('',#478);
#214=VERTEX_POINT('',#479);
#215=VERTEX_POINT('',#483);
#216=VERTEX_POINT('',#485);
#217=VERTEX_POINT('',#487);
#218=VERTEX_POINT('',#490);
#219=VERTEX_POINT('',#491);
#220=VERTEX_POINT('',#493);
#221=VERTEX_POINT('',#495);
#222=EDGE_CURVE('',#197,#198,#253,.T.);
#223=EDGE_CURVE('',#197,#199,#114,.T.);
#224=EDGE_CURVE('',#199,#200,#254,.T.);
#225=EDGE_CURVE('',#198,#200,#115,.T.);
#226=EDGE_CURVE('',#199,#197,#116,.T.);
#227=EDGE_CURVE('',#198,#200,#117,.T.);
#228=EDGE_CURVE('',#201,#202,#118,.T.);
#229=EDGE_CURVE('',#202,#201,#119,.T.);
#230=EDGE_CURVE('',#203,#201,#255,.T.);
#231=EDGE_CURVE('',#203,#204,#120,.T.);
#232=EDGE_CURVE('',#204,#202,#256,.T.);
#233=EDGE_CURVE('',#204,#203,#121,.T.);
#234=EDGE_CURVE('',#205,#206,#257,.T.);
#235=EDGE_CURVE('',#207,#205,#122,.T.);
#236=EDGE_CURVE('',#207,#208,#258,.T.);
#237=EDGE_CURVE('',#205,#207,#123,.T.);
#238=EDGE_CURVE('',#209,#209,#124,.T.);
#239=EDGE_CURVE('',#210,#210,#125,.T.);
#240=EDGE_CURVE('',#211,#212,#126,.T.);
#241=EDGE_CURVE('',#212,#211,#127,.T.);
#242=EDGE_CURVE('',#198,#212,#128,.T.);
#243=EDGE_CURVE('',#200,#211,#129,.T.);
#244=EDGE_CURVE('',#213,#214,#130,.T.);
#245=EDGE_CURVE('',#214,#213,#131,.T.);
#246=EDGE_CURVE('',#215,#213,#259,.T.);
#247=EDGE_CURVE('',#216,#214,#260,.T.);
#248=EDGE_CURVE('',#217,#217,#132,.T.);
#249=EDGE_CURVE('',#218,#219,#261,.T.);
#250=EDGE_CURVE('',#219,#220,#133,.T.);
#251=EDGE_CURVE('',#221,#220,#262,.T.);
#252=EDGE_CURVE('',#220,#219,#134,.T.);
#253=LINE('',#428,#263);
#254=LINE('',#433,#264);
#255=LINE('',#445,#265);
#256=LINE('',#449,#266);
#257=LINE('',#453,#267);
#258=LINE('',#458,#268);
#259=LINE('',#482,#269);
#260=LINE('',#484,#270);
#261=LINE('',#489,#271);
#262=LINE('',#494,#272);
#263=VECTOR('',#342,1.);
#264=VECTOR('',#345,1.);
#265=VECTOR('',#362,1.);
#266=VECTOR('',#365,1.);
#267=VECTOR('',#372,1.);
#268=VECTOR('',#375,1.);
#269=VECTOR('',#408,1.);
#270=VECTOR('',#409,1.);
#271=VECTOR('',#414,1.);
#272=VECTOR('',#417,1.);
#273=INVISIBILITY((#274,#275,#276));
#274=PRESENTATION_LAYER_ASSIGNMENT('100','Layer 100',(#295));
#275=PRESENTATION_LAYER_ASSIGNMENT('101','Layer 101',(#296));
#276=PRESENTATION_LAYER_ASSIGNMENT('102','Layer 102',(#297));
#277=PRESENTATION_LAYER_ASSIGNMENT('98','Layer 98',(#38));
#278=STYLED_ITEM('',(#282),#295);
#279=STYLED_ITEM('',(#283),#296);
#280=STYLED_ITEM('',(#284),#297);
#281=STYLED_ITEM('',(#285),#38);
#282=PRESENTATION_STYLE_ASSIGNMENT((#286));
#283=PRESENTATION_STYLE_ASSIGNMENT((#287));
#284=PRESENTATION_STYLE_ASSIGNMENT((#288));
#285=PRESENTATION_STYLE_ASSIGNMENT((#33));
#286=CURVE_STYLE('',#291,POSITIVE_LENGTH_MEASURE(0.7),#289);
#287=CURVE_STYLE('',#292,POSITIVE_LENGTH_MEASURE(0.7),#289);
#288=CURVE_STYLE('',#293,POSITIVE_LENGTH_MEASURE(0.7),#289);
#289=COLOUR_RGB('Medium Maroon',0.6,0.4,0.4);
#290=COLOUR_RGB('Medium Gray',0.490196078431373,0.490196078431373,0.490196078431373);
#291=DRAUGHTING_PRE_DEFINED_CURVE_FONT('continuous');
#292=DRAUGHTING_PRE_DEFINED_CURVE_FONT('continuous');
#293=DRAUGHTING_PRE_DEFINED_CURVE_FONT('continuous');
#294=AXIS2_PLACEMENT_3D('',#424,#334,#335);
#295=AXIS2_PLACEMENT_3D('PCS',#425,#336,#337);
#296=AXIS2_PLACEMENT_3D('CSW',#426,#338,#339);
#297=AXIS2_PLACEMENT_3D('MCS',#427,#340,#341);
#298=AXIS2_PLACEMENT_3D('',#431,#343,#344);
#299=AXIS2_PLACEMENT_3D('',#435,#346,#347);
#300=AXIS2_PLACEMENT_3D('',#436,#348,#349);
#301=AXIS2_PLACEMENT_3D('',#437,#350,#351);
#302=AXIS2_PLACEMENT_3D('',#438,#352,#353);
#303=AXIS2_PLACEMENT_3D('',#439,#354,#355);
#304=AXIS2_PLACEMENT_3D('',#440,#356,#357);
#305=AXIS2_PLACEMENT_3D('',#443,#358,#359);
#306=AXIS2_PLACEMENT_3D('',#444,#360,#361);
#307=AXIS2_PLACEMENT_3D('',#447,#363,#364);
#308=AXIS2_PLACEMENT_3D('',#450,#366,#367);
#309=AXIS2_PLACEMENT_3D('',#451,#368,#369);
#310=AXIS2_PLACEMENT_3D('',#452,#370,#371);
#311=AXIS2_PLACEMENT_3D('',#456,#373,#374);
#312=AXIS2_PLACEMENT_3D('',#460,#376,#377);
#313=AXIS2_PLACEMENT_3D('',#461,#378,#379);
#314=AXIS2_PLACEMENT_3D('',#462,#380,#381);
#315=AXIS2_PLACEMENT_3D('',#464,#382,#383);
#316=AXIS2_PLACEMENT_3D('',#465,#384,#385);
#317=AXIS2_PLACEMENT_3D('',#467,#386,#387);
#318=AXIS2_PLACEMENT_3D('',#468,#388,#389);
#319=AXIS2_PLACEMENT_3D('',#471,#390,#391);
#320=AXIS2_PLACEMENT_3D('',#472,#392,#393);
#321=AXIS2_PLACEMENT_3D('',#473,#394,#395);
#322=AXIS2_PLACEMENT_3D('',#474,#396,#397);
#323=AXIS2_PLACEMENT_3D('',#475,#398,#399);
#324=AXIS2_PLACEMENT_3D('',#476,#400,#401);
#325=AXIS2_PLACEMENT_3D('',#477,#402,#403);
#326=AXIS2_PLACEMENT_3D('',#480,#404,#405);
#327=AXIS2_PLACEMENT_3D('',#481,#406,#407);
#328=AXIS2_PLACEMENT_3D('',#486,#410,#411);
#329=AXIS2_PLACEMENT_3D('',#488,#412,#413);
#330=AXIS2_PLACEMENT_3D('',#492,#415,#416);
#331=AXIS2_PLACEMENT_3D('',#496,#418,#419);
#332=AXIS2_PLACEMENT_3D('',#497,#420,#421);
#333=AXIS2_PLACEMENT_3D('',#498,#422,#423);
#334=DIRECTION('',(0.,0.,1.));
#335=DIRECTION('',(1.,0.,0.));
#336=DIRECTION('',(0.,0.,1.));
#337=DIRECTION('',(1.,0.,0.));
#338=DIRECTION('',(0.,0.,1.));
#339=DIRECTION('',(1.,0.,0.));
#340=DIRECTION('',(0.,0.,1.));
#341=DIRECTION('',(1.,0.,0.));
#342=DIRECTION('',(0.,0.,1.));
#343=DIRECTION('',(0.,0.,1.));
#344=DIRECTION('',(-1.,0.,0.));
#345=DIRECTION('',(0.,0.,1.));
#346=DIRECTION('',(0.,0.,1.));
#347=DIRECTION('',(0.,1.,0.));
#348=DIRECTION('',(0.,0.,-1.));
#349=DIRECTION('',(0.,1.,0.));
#350=DIRECTION('',(0.,0.,1.));
#351=DIRECTION('',(-1.,0.,0.));
#352=DIRECTION('',(0.,0.,-1.));
#353=DIRECTION('',(0.,1.,0.));
#354=DIRECTION('',(0.,0.,-1.));
#355=DIRECTION('',(0.,1.,0.));
#356=DIRECTION('',(0.,0.,1.));
#357=DIRECTION('',(-1.,0.,0.));
#358=DIRECTION('',(0.,0.,1.));
#359=DIRECTION('',(-1.,0.,0.));
#360=DIRECTION('',(0.,0.,-1.));
#361=DIRECTION('',(0.,1.,0.));
#362=DIRECTION('',(-5.268520003996E-13,0.,1.));
#363=DIRECTION('',(0.,0.,1.));
#364=DIRECTION('',(-1.,0.,0.));
#365=DIRECTION('',(5.267339016558E-13,0.,1.));
#366=DIRECTION('',(0.,0.,-1.));
#367=DIRECTION('',(0.,1.,0.));
#368=DIRECTION('',(0.,0.,1.));
#369=DIRECTION('',(-1.,0.,0.));
#370=DIRECTION('',(0.,0.,-1.));
#371=DIRECTION('',(0.,1.,0.));
#372=DIRECTION('',(0.,-0.144306116415197,0.989533094325381));
#373=DIRECTION('',(0.,0.,-1.));
#374=DIRECTION('',(-1.,0.,0.));
#375=DIRECTION('',(0.,0.144306116415197,0.989533094325381));
#376=DIRECTION('',(0.,0.,-1.));
#377=DIRECTION('',(-1.,0.,0.));
#378=DIRECTION('',(0.,0.,-1.));
#379=DIRECTION('',(0.,1.,0.));
#380=DIRECTION('',(0.,0.,1.));
#381=DIRECTION('',(-1.,0.,0.));
#382=DIRECTION('',(0.,0.,-1.));
#383=DIRECTION('',(0.,1.,0.));
#384=DIRECTION('',(0.,0.,1.));
#385=DIRECTION('',(-1.,0.,0.));
#386=DIRECTION('',(0.,0.,-1.));
#387=DIRECTION('',(0.,1.,0.));
#388=DIRECTION('',(0.,0.,-1.));
#389=DIRECTION('',(0.,-1.,0.));
#390=DIRECTION('',(0.,0.,-1.));
#391=DIRECTION('',(0.,1.,0.));
#392=DIRECTION('',(0.,0.,-1.));
#393=DIRECTION('',(0.,1.,0.));
#394=DIRECTION('',(-1.,0.,0.));
#395=DIRECTION('',(0.,-1.,0.));
#396=DIRECTION('',(1.,0.,0.));
#397=DIRECTION('',(0.,1.,0.));
#398=DIRECTION('',(0.,0.,-1.));
#399=DIRECTION('',(0.,1.,0.));
#400=DIRECTION('',(0.,0.,-1.));
#401=DIRECTION('',(0.,1.,0.));
#402=DIRECTION('',(0.,0.,-1.));
#403=DIRECTION('',(-1.,0.,0.));
#404=DIRECTION('',(0.,0.,-1.));
#405=DIRECTION('',(-1.,0.,0.));
#406=DIRECTION('',(0.,0.,-1.));
#407=DIRECTION('',(0.,-1.,0.));
#408=DIRECTION('',(-1.020758022592E-14,0.,1.));
#409=DIRECTION('',(0.,0.,1.));
#410=DIRECTION('',(0.,0.,-1.));
#411=DIRECTION('',(1.,0.,0.));
#412=DIRECTION('',(0.,0.,-1.));
#413=DIRECTION('',(0.,-1.,0.));
#414=DIRECTION('',(-4.35743536838215E-14,-0.866025403784429,-0.500000000000017));
#415=DIRECTION('',(0.,0.,1.));
#416=DIRECTION('',(-1.,0.,0.));
#417=DIRECTION('',(4.26177158807214E-14,0.866025403784429,-0.500000000000017));
#418=DIRECTION('',(0.,0.,1.));
#419=DIRECTION('',(-1.,0.,0.));
#420=DIRECTION('',(0.,0.,1.));
#421=DIRECTION('',(0.,1.,7.91204425997275E-18));
#422=DIRECTION('',(0.,0.,-1.));
#423=DIRECTION('',(0.,-1.,0.));
#424=CARTESIAN_POINT('',(0.,0.,0.));
#425=CARTESIAN_POINT('',(0.,0.,0.));
#426=CARTESIAN_POINT('',(0.,0.,-50.));
#427=CARTESIAN_POINT('',(0.,0.,0.));
#428=CARTESIAN_POINT('',(0.,20.,-40.5003751221));
#429=CARTESIAN_POINT('',(0.,20.,-40.1));
#430=CARTESIAN_POINT('',(0.,20.,-20.2));
#431=CARTESIAN_POINT('',(0.,0.,-40.1));
#432=CARTESIAN_POINT('',(0.,-20.,-40.1));
#433=CARTESIAN_POINT('',(0.,-20.,-40.5003751221));
#434=CARTESIAN_POINT('',(0.,-20.,-20.2));
#435=CARTESIAN_POINT('',(0.,0.,-20.2));
#436=CARTESIAN_POINT('',(0.,0.,-13.46));
#437=CARTESIAN_POINT('',(0.,0.,-40.1));
#438=CARTESIAN_POINT('',(0.,0.,-20.2));
#439=CARTESIAN_POINT('',(0.,0.,-13.46));
#440=CARTESIAN_POINT('',(0.,0.,126.8));
#441=CARTESIAN_POINT('',(-5.37817047449272E-12,-19.65,126.8));
#442=CARTESIAN_POINT('',(5.37696490788863E-12,19.65,126.8));
#443=CARTESIAN_POINT('',(0.,0.,126.8));
#444=CARTESIAN_POINT('',(0.,0.,126.8));
#445=CARTESIAN_POINT('',(0.,-19.65,116.5918761428));
#446=CARTESIAN_POINT('',(-1.34265514244711E-12,-19.65,104.743432858557));
#447=CARTESIAN_POINT('',(0.,0.,104.743432858557));
#448=CARTESIAN_POINT('',(0.,19.65,104.743432858557));
#449=CARTESIAN_POINT('',(0.,19.65,116.5918761428));
#450=CARTESIAN_POINT('',(0.,0.,133.9));
#451=CARTESIAN_POINT('',(0.,0.,104.743432858557));
#452=CARTESIAN_POINT('',(0.,0.,133.9));
#453=CARTESIAN_POINT('',(0.,35.09999903812,-1.2));
#454=CARTESIAN_POINT('',(0.,35.3916641016607,-3.2));
#455=CARTESIAN_POINT('',(0.,20.19982736606,100.9731673397));
#456=CARTESIAN_POINT('',(0.,0.,-3.2));
#457=CARTESIAN_POINT('',(4.3342288158597E-15,-35.3916641016607,-3.2));
#458=CARTESIAN_POINT('',(0.,-35.09999903812,-1.2));
#459=CARTESIAN_POINT('',(0.,-20.19982736606,100.9731673397));
#460=CARTESIAN_POINT('',(0.,0.,-3.2));
#461=CARTESIAN_POINT('',(0.,0.,49.88658366985));
#462=CARTESIAN_POINT('',(0.,0.,-3.20000000000001));
#463=CARTESIAN_POINT('',(-48.75,0.,-3.20000000000001));
#464=CARTESIAN_POINT('',(0.,0.,-3.2));
#465=CARTESIAN_POINT('',(0.,0.,-15.2));
#466=CARTESIAN_POINT('',(-48.75,0.,-15.2));
#467=CARTESIAN_POINT('',(0.,0.,133.9));
#468=CARTESIAN_POINT('',(0.,0.,-15.2));
#469=CARTESIAN_POINT('',(0.,-25.,-15.2));
#470=CARTESIAN_POINT('',(0.,25.,-15.2));
#471=CARTESIAN_POINT('',(0.,0.,-15.2));
#472=CARTESIAN_POINT('',(0.,0.,-15.2));
#473=CARTESIAN_POINT('',(0.,25.,-20.2));
#474=CARTESIAN_POINT('',(0.,-25.,-20.2));
#475=CARTESIAN_POINT('',(0.,0.,-20.2));
#476=CARTESIAN_POINT('',(0.,0.,-20.2));
#477=CARTESIAN_POINT('',(0.,0.,-40.1));
#478=CARTESIAN_POINT('',(-1.62138365265401E-14,24.95,-40.1));
#479=CARTESIAN_POINT('',(0.,-24.95,-40.1));
#480=CARTESIAN_POINT('',(0.,0.,-40.1));
#481=CARTESIAN_POINT('',(0.,0.,-40.1));
#482=CARTESIAN_POINT('',(6.034301516786E-14,24.95,-47.6));
#483=CARTESIAN_POINT('',(1.1177289989388E-13,24.95,-47.6));
#484=CARTESIAN_POINT('',(0.,-24.95,-45.3));
#485=CARTESIAN_POINT('',(0.,-24.95,-45.3));
#486=CARTESIAN_POINT('',(0.,0.,-59.8534410329197));
#487=CARTESIAN_POINT('',(24.95,0.,-59.8534410329197));
#488=CARTESIAN_POINT('',(0.,0.,-70.97));
#489=CARTESIAN_POINT('',(0.,19.96410161514,-62.73205080757));
#490=CARTESIAN_POINT('',(9.346087496656E-14,21.77301270189,-61.68767550469));
#491=CARTESIAN_POINT('',(-2.33514257604768E-14,19.5000000000042,-63.));
#492=CARTESIAN_POINT('',(0.,0.,-63.));
#493=CARTESIAN_POINT('',(2.28387651068995E-14,-19.5000000000042,-63.));
#494=CARTESIAN_POINT('',(0.,-19.96410161514,-62.73205080757));
#495=CARTESIAN_POINT('',(-9.146265717585E-14,-21.77301270189,-61.68767550469));
#496=CARTESIAN_POINT('',(0.,0.,-63.));
#497=CARTESIAN_POINT('',(0.,0.,-61.58142105484));
#498=CARTESIAN_POINT('',(0.,0.,-63.));
#499=MECHANICAL_DESIGN_GEOMETRIC_PRESENTATION_REPRESENTATION('',(#278,#279,
#280,#281),#500);
#500=(
GEOMETRIC_REPRESENTATION_CONTEXT(3)
GLOBAL_UNCERTAINTY_ASSIGNED_CONTEXT((#501))
GLOBAL_UNIT_ASSIGNED_CONTEXT((#507,#503,#502))
REPRESENTATION_CONTEXT('2080.50-CC.ER32','TOP_LEVEL_ASSEMBLY_PART')
);
#501=UNCERTAINTY_MEASURE_WITH_UNIT(LENGTH_MEASURE(2.E-5),#507,
'DISTANCE_ACCURACY_VALUE','Maximum Tolerance applied to model');
#502=(
NAMED_UNIT(*)
SI_UNIT($,.STERADIAN.)
SOLID_ANGLE_UNIT()
);
#503=(
CONVERSION_BASED_UNIT('DEGREE',#505)
NAMED_UNIT(#504)
PLANE_ANGLE_UNIT()
);
#504=DIMENSIONAL_EXPONENTS(0.,0.,0.,0.,0.,0.,0.);
#505=PLANE_ANGLE_MEASURE_WITH_UNIT(PLANE_ANGLE_MEASURE(0.0174532925),#506);
#506=(
NAMED_UNIT(*)
PLANE_ANGLE_UNIT()
SI_UNIT($,.RADIAN.)
);
#507=(
LENGTH_UNIT()
NAMED_UNIT(*)
SI_UNIT(.MILLI.,.METRE.)
);
ENDSEC;
END-ISO-10303-21;
