ISO-10303-21;
HEADER;
/* Generated by software containing ST-Developer
 * from STEP Tools, Inc. (www.steptools.com) 
 */
/* OPTION: using custom schema-name function */

FILE_DESCRIPTION(
/* description */ (''),
/* implementation_level */ '2;1');

FILE_NAME(
/* name */ '2080.40-W.40.090.stp',
/* time_stamp */ '2024-06-23T16:33:04+02:00',
/* author */ (''),
/* organization */ (''),
/* preprocessor_version */ 'ST-DEVELOPER v16.7',
/* originating_system */ 'SIEMENS PLM Software NX 12.0',
/* authorisation */ '');

FILE_SCHEMA (('AUTOMOTIVE_DESIGN { 1 0 10303 214 3 1 1 1 }'));
ENDSEC;

DATA;
#10=CONSTRUCTIVE_GEOMETRY_REPRESENTATION_RELATIONSHIP(
'supplemental geometry','',#32,#11);
#11=CONSTRUCTIVE_GEOMETRY_REPRESENTATION('supplemental geometry',(#253,
#254,#255),#418);
#12=PROPERTY_DEFINITION_REPRESENTATION(#16,#14);
#13=PROPERTY_DEFINITION_REPRESENTATION(#17,#15);
#14=REPRESENTATION('',(#18),#418);
#15=REPRESENTATION('',(#19),#418);
#16=PROPERTY_DEFINITION('pmi validation property','',#23);
#17=PROPERTY_DEFINITION('pmi validation property','',#23);
#18=VALUE_REPRESENTATION_ITEM('number of annotations',COUNT_MEASURE(0.));
#19=VALUE_REPRESENTATION_ITEM('number of views',COUNT_MEASURE(0.));
#20=SHAPE_REPRESENTATION_RELATIONSHIP('None',
'relationship between pf660F5CA0AEj852-None and pf660F5CA0AEj852-None',
#32,#21);
#21=ADVANCED_BREP_SHAPE_REPRESENTATION('pf660F5CA0AEj852-None',(#38),#418);
#22=SHAPE_DEFINITION_REPRESENTATION(#23,#32);
#23=PRODUCT_DEFINITION_SHAPE('','',#24);
#24=PRODUCT_DEFINITION(' ','',#26,#25);
#25=PRODUCT_DEFINITION_CONTEXT('part definition',#31,'design');
#26=PRODUCT_DEFINITION_FORMATION_WITH_SPECIFIED_SOURCE(' ',' ',#28,
 .NOT_KNOWN.);
#27=PRODUCT_RELATED_PRODUCT_CATEGORY('part','',(#28));
#28=PRODUCT('pf660F5CA0AEj852','pf660F5CA0AEj852',' ',(#29));
#29=PRODUCT_CONTEXT(' ',#31,'mechanical');
#30=APPLICATION_PROTOCOL_DEFINITION('international standard',
'automotive_design',2010,#31);
#31=APPLICATION_CONTEXT(
'core data for automotive mechanical design processes');
#32=SHAPE_REPRESENTATION('pf660F5CA0AEj852-None',(#252),#418);
#33=SURFACE_STYLE_USAGE(.BOTH.,#34);
#34=SURFACE_SIDE_STYLE('',(#35));
#35=SURFACE_STYLE_FILL_AREA(#36);
#36=FILL_AREA_STYLE('',(#37));
#37=FILL_AREA_STYLE_COLOUR('',#248);
#38=MANIFOLD_SOLID_BREP('',#39);
#39=CLOSED_SHELL('',(#74,#75,#76,#77,#78,#79,#80,#81,#82,#83,#84,#85));
#40=CONICAL_SURFACE('',#271,35.,45.);
#41=CONICAL_SURFACE('',#273,35.,45.);
#42=CONICAL_SURFACE('',#282,17.42710970478,8.2971);
#43=FACE_OUTER_BOUND('',#112,.T.);
#44=FACE_OUTER_BOUND('',#113,.T.);
#45=FACE_OUTER_BOUND('',#114,.T.);
#46=FACE_OUTER_BOUND('',#115,.T.);
#47=FACE_OUTER_BOUND('',#116,.T.);
#48=FACE_OUTER_BOUND('',#117,.T.);
#49=LINE('',#375,#59);
#50=LINE('',#379,#60);
#51=LINE('',#383,#61);
#52=LINE('',#385,#62);
#53=LINE('',#390,#63);
#54=LINE('',#392,#64);
#55=LINE('',#404,#65);
#56=LINE('',#408,#66);
#57=LINE('',#412,#67);
#58=LINE('',#414,#68);
#59=VECTOR('',#309,1.);
#60=VECTOR('',#312,1.);
#61=VECTOR('',#317,1.);
#62=VECTOR('',#318,1.);
#63=VECTOR('',#323,1.);
#64=VECTOR('',#324,1.);
#65=VECTOR('',#341,1.);
#66=VECTOR('',#344,1.);
#67=VECTOR('',#351,1.);
#68=VECTOR('',#352,1.);
#69=CYLINDRICAL_SURFACE('',#263,31.5);
#70=CYLINDRICAL_SURFACE('',#268,40.);
#71=CYLINDRICAL_SURFACE('',#279,12.5);
#72=CYLINDRICAL_SURFACE('',#281,12.5);
#73=TOROIDAL_SURFACE('',#262,32.3,0.8);
#74=ADVANCED_FACE('',(#90,#91),#86,.F.);
#75=ADVANCED_FACE('',(#92,#93),#73,.F.);
#76=ADVANCED_FACE('',(#94,#95),#69,.T.);
#77=ADVANCED_FACE('',(#96,#97),#70,.T.);
#78=ADVANCED_FACE('',(#98,#99),#87,.F.);
#79=ADVANCED_FACE('',(#43),#40,.T.);
#80=ADVANCED_FACE('',(#44),#41,.T.);
#81=ADVANCED_FACE('',(#45),#88,.T.);
#82=ADVANCED_FACE('',(#46),#89,.F.);
#83=ADVANCED_FACE('',(#47),#71,.T.);
#84=ADVANCED_FACE('',(#48),#72,.T.);
#85=ADVANCED_FACE('',(#100,#101),#42,.T.);
#86=PLANE('',#259);
#87=PLANE('',#269);
#88=PLANE('',#274);
#89=PLANE('',#277);
#90=FACE_BOUND('',#102,.T.);
#91=FACE_BOUND('',#103,.T.);
#92=FACE_BOUND('',#104,.T.);
#93=FACE_BOUND('',#105,.T.);
#94=FACE_BOUND('',#106,.T.);
#95=FACE_BOUND('',#107,.T.);
#96=FACE_BOUND('',#108,.T.);
#97=FACE_BOUND('',#109,.T.);
#98=FACE_BOUND('',#110,.T.);
#99=FACE_BOUND('',#111,.T.);
#100=FACE_BOUND('',#118,.T.);
#101=FACE_BOUND('',#119,.T.);
#102=EDGE_LOOP('',(#120));
#103=EDGE_LOOP('',(#121,#122));
#104=EDGE_LOOP('',(#123));
#105=EDGE_LOOP('',(#124));
#106=EDGE_LOOP('',(#125));
#107=EDGE_LOOP('',(#126));
#108=EDGE_LOOP('',(#127,#128,#129,#130,#131,#132,#133,#134,#135,#136));
#109=EDGE_LOOP('',(#137,#138));
#110=EDGE_LOOP('',(#139));
#111=EDGE_LOOP('',(#140,#141));
#112=EDGE_LOOP('',(#142,#143,#144,#145));
#113=EDGE_LOOP('',(#146,#147,#148,#149));
#114=EDGE_LOOP('',(#150,#151));
#115=EDGE_LOOP('',(#152,#153));
#116=EDGE_LOOP('',(#154,#155,#156,#157));
#117=EDGE_LOOP('',(#158,#159,#160,#161));
#118=EDGE_LOOP('',(#162,#163));
#119=EDGE_LOOP('',(#164,#165,#166,#167,#168,#169));
#120=ORIENTED_EDGE('',*,*,#191,.F.);
#121=ORIENTED_EDGE('',*,*,#192,.T.);
#122=ORIENTED_EDGE('',*,*,#193,.T.);
#123=ORIENTED_EDGE('',*,*,#194,.F.);
#124=ORIENTED_EDGE('',*,*,#195,.F.);
#125=ORIENTED_EDGE('',*,*,#191,.T.);
#126=ORIENTED_EDGE('',*,*,#194,.T.);
#127=ORIENTED_EDGE('',*,*,#196,.F.);
#128=ORIENTED_EDGE('',*,*,#197,.F.);
#129=ORIENTED_EDGE('',*,*,#198,.T.);
#130=ORIENTED_EDGE('',*,*,#199,.T.);
#131=ORIENTED_EDGE('',*,*,#199,.F.);
#132=ORIENTED_EDGE('',*,*,#200,.T.);
#133=ORIENTED_EDGE('',*,*,#197,.T.);
#134=ORIENTED_EDGE('',*,*,#201,.F.);
#135=ORIENTED_EDGE('',*,*,#202,.F.);
#136=ORIENTED_EDGE('',*,*,#202,.T.);
#137=ORIENTED_EDGE('',*,*,#203,.T.);
#138=ORIENTED_EDGE('',*,*,#203,.F.);
#139=ORIENTED_EDGE('',*,*,#195,.T.);
#140=ORIENTED_EDGE('',*,*,#196,.T.);
#141=ORIENTED_EDGE('',*,*,#201,.T.);
#142=ORIENTED_EDGE('',*,*,#204,.T.);
#143=ORIENTED_EDGE('',*,*,#198,.F.);
#144=ORIENTED_EDGE('',*,*,#205,.F.);
#145=ORIENTED_EDGE('',*,*,#206,.T.);
#146=ORIENTED_EDGE('',*,*,#205,.T.);
#147=ORIENTED_EDGE('',*,*,#200,.F.);
#148=ORIENTED_EDGE('',*,*,#204,.F.);
#149=ORIENTED_EDGE('',*,*,#207,.T.);
#150=ORIENTED_EDGE('',*,*,#207,.F.);
#151=ORIENTED_EDGE('',*,*,#206,.F.);
#152=ORIENTED_EDGE('',*,*,#208,.T.);
#153=ORIENTED_EDGE('',*,*,#209,.T.);
#154=ORIENTED_EDGE('',*,*,#210,.F.);
#155=ORIENTED_EDGE('',*,*,#211,.T.);
#156=ORIENTED_EDGE('',*,*,#212,.T.);
#157=ORIENTED_EDGE('',*,*,#208,.F.);
#158=ORIENTED_EDGE('',*,*,#212,.F.);
#159=ORIENTED_EDGE('',*,*,#213,.T.);
#160=ORIENTED_EDGE('',*,*,#210,.T.);
#161=ORIENTED_EDGE('',*,*,#209,.F.);
#162=ORIENTED_EDGE('',*,*,#213,.F.);
#163=ORIENTED_EDGE('',*,*,#211,.F.);
#164=ORIENTED_EDGE('',*,*,#214,.F.);
#165=ORIENTED_EDGE('',*,*,#193,.F.);
#166=ORIENTED_EDGE('',*,*,#215,.T.);
#167=ORIENTED_EDGE('',*,*,#215,.F.);
#168=ORIENTED_EDGE('',*,*,#192,.F.);
#169=ORIENTED_EDGE('',*,*,#214,.T.);
#170=VERTEX_POINT('',#360);
#171=VERTEX_POINT('',#362);
#172=VERTEX_POINT('',#363);
#173=VERTEX_POINT('',#367);
#174=VERTEX_POINT('',#369);
#175=VERTEX_POINT('',#373);
#176=VERTEX_POINT('',#374);
#177=VERTEX_POINT('',#376);
#178=VERTEX_POINT('',#378);
#179=VERTEX_POINT('',#380);
#180=VERTEX_POINT('',#384);
#181=VERTEX_POINT('',#386);
#182=VERTEX_POINT('',#387);
#183=VERTEX_POINT('',#391);
#184=VERTEX_POINT('',#393);
#185=VERTEX_POINT('',#400);
#186=VERTEX_POINT('',#401);
#187=VERTEX_POINT('',#405);
#188=VERTEX_POINT('',#407);
#189=VERTEX_POINT('',#413);
#190=VERTEX_POINT('',#415);
#191=EDGE_CURVE('',#170,#170,#216,.T.);
#192=EDGE_CURVE('',#171,#172,#217,.T.);
#193=EDGE_CURVE('',#172,#171,#218,.T.);
#194=EDGE_CURVE('',#173,#173,#219,.T.);
#195=EDGE_CURVE('',#174,#174,#220,.T.);
#196=EDGE_CURVE('',#175,#176,#221,.T.);
#197=EDGE_CURVE('',#177,#175,#49,.T.);
#198=EDGE_CURVE('',#177,#178,#222,.T.);
#199=EDGE_CURVE('',#178,#179,#50,.T.);
#200=EDGE_CURVE('',#178,#177,#223,.T.);
#201=EDGE_CURVE('',#176,#175,#224,.T.);
#202=EDGE_CURVE('',#180,#176,#51,.T.);
#203=EDGE_CURVE('',#181,#182,#52,.T.);
#204=EDGE_CURVE('',#183,#178,#53,.T.);
#205=EDGE_CURVE('',#184,#177,#54,.T.);
#206=EDGE_CURVE('',#184,#183,#225,.T.);
#207=EDGE_CURVE('',#183,#184,#226,.T.);
#208=EDGE_CURVE('',#185,#186,#227,.T.);
#209=EDGE_CURVE('',#186,#185,#228,.T.);
#210=EDGE_CURVE('',#187,#185,#55,.T.);
#211=EDGE_CURVE('',#187,#188,#229,.T.);
#212=EDGE_CURVE('',#188,#186,#56,.T.);
#213=EDGE_CURVE('',#188,#187,#230,.T.);
#214=EDGE_CURVE('',#171,#189,#57,.T.);
#215=EDGE_CURVE('',#172,#190,#58,.T.);
#216=CIRCLE('',#256,31.5);
#217=CIRCLE('',#257,22.4583320508297);
#218=CIRCLE('',#258,22.4583320508297);
#219=CIRCLE('',#260,31.5);
#220=CIRCLE('',#261,32.3);
#221=CIRCLE('',#264,40.);
#222=CIRCLE('',#265,40.);
#223=CIRCLE('',#266,40.);
#224=CIRCLE('',#267,40.);
#225=CIRCLE('',#270,30.);
#226=CIRCLE('',#272,30.);
#227=CIRCLE('',#275,12.5);
#228=CIRCLE('',#276,12.5);
#229=CIRCLE('',#278,12.5);
#230=CIRCLE('',#280,12.5);
#231=INVISIBILITY((#232,#233,#234));
#232=PRESENTATION_LAYER_ASSIGNMENT('100','Layer 100',(#253));
#233=PRESENTATION_LAYER_ASSIGNMENT('101','Layer 101',(#254));
#234=PRESENTATION_LAYER_ASSIGNMENT('102','Layer 102',(#255));
#235=PRESENTATION_LAYER_ASSIGNMENT('98','Layer 98',(#38));
#236=STYLED_ITEM('',(#240),#253);
#237=STYLED_ITEM('',(#241),#254);
#238=STYLED_ITEM('',(#242),#255);
#239=STYLED_ITEM('',(#243),#38);
#240=PRESENTATION_STYLE_ASSIGNMENT((#244));
#241=PRESENTATION_STYLE_ASSIGNMENT((#245));
#242=PRESENTATION_STYLE_ASSIGNMENT((#246));
#243=PRESENTATION_STYLE_ASSIGNMENT((#33));
#244=CURVE_STYLE('',#249,POSITIVE_LENGTH_MEASURE(0.7),#247);
#245=CURVE_STYLE('',#250,POSITIVE_LENGTH_MEASURE(0.7),#247);
#246=CURVE_STYLE('',#251,POSITIVE_LENGTH_MEASURE(0.7),#247);
#247=COLOUR_RGB('Medium Maroon',0.6,0.4,0.4);
#248=COLOUR_RGB('Medium Gray',0.490196078431373,0.490196078431373,0.490196078431373);
#249=DRAUGHTING_PRE_DEFINED_CURVE_FONT('continuous');
#250=DRAUGHTING_PRE_DEFINED_CURVE_FONT('continuous');
#251=DRAUGHTING_PRE_DEFINED_CURVE_FONT('continuous');
#252=AXIS2_PLACEMENT_3D('',#355,#283,#284);
#253=AXIS2_PLACEMENT_3D('PCS',#356,#285,#286);
#254=AXIS2_PLACEMENT_3D('CSW',#357,#287,#288);
#255=AXIS2_PLACEMENT_3D('MCS',#358,#289,#290);
#256=AXIS2_PLACEMENT_3D('',#359,#291,#292);
#257=AXIS2_PLACEMENT_3D('',#361,#293,#294);
#258=AXIS2_PLACEMENT_3D('',#364,#295,#296);
#259=AXIS2_PLACEMENT_3D('',#365,#297,#298);
#260=AXIS2_PLACEMENT_3D('',#366,#299,#300);
#261=AXIS2_PLACEMENT_3D('',#368,#301,#302);
#262=AXIS2_PLACEMENT_3D('',#370,#303,#304);
#263=AXIS2_PLACEMENT_3D('',#371,#305,#306);
#264=AXIS2_PLACEMENT_3D('',#372,#307,#308);
#265=AXIS2_PLACEMENT_3D('',#377,#310,#311);
#266=AXIS2_PLACEMENT_3D('',#381,#313,#314);
#267=AXIS2_PLACEMENT_3D('',#382,#315,#316);
#268=AXIS2_PLACEMENT_3D('',#388,#319,#320);
#269=AXIS2_PLACEMENT_3D('',#389,#321,#322);
#270=AXIS2_PLACEMENT_3D('',#394,#325,#326);
#271=AXIS2_PLACEMENT_3D('',#395,#327,#328);
#272=AXIS2_PLACEMENT_3D('',#396,#329,#330);
#273=AXIS2_PLACEMENT_3D('',#397,#331,#332);
#274=AXIS2_PLACEMENT_3D('',#398,#333,#334);
#275=AXIS2_PLACEMENT_3D('',#399,#335,#336);
#276=AXIS2_PLACEMENT_3D('',#402,#337,#338);
#277=AXIS2_PLACEMENT_3D('',#403,#339,#340);
#278=AXIS2_PLACEMENT_3D('',#406,#342,#343);
#279=AXIS2_PLACEMENT_3D('',#409,#345,#346);
#280=AXIS2_PLACEMENT_3D('',#410,#347,#348);
#281=AXIS2_PLACEMENT_3D('',#411,#349,#350);
#282=AXIS2_PLACEMENT_3D('',#416,#353,#354);
#283=DIRECTION('',(0.,0.,1.));
#284=DIRECTION('',(1.,0.,0.));
#285=DIRECTION('',(0.,0.,1.));
#286=DIRECTION('',(1.,0.,0.));
#287=DIRECTION('',(0.,0.,1.));
#288=DIRECTION('',(1.,0.,0.));
#289=DIRECTION('',(0.,0.,1.));
#290=DIRECTION('',(1.,0.,0.));
#291=DIRECTION('',(0.,0.,-1.));
#292=DIRECTION('',(-1.,0.,0.));
#293=DIRECTION('',(0.,0.,-1.));
#294=DIRECTION('',(-1.,0.,0.));
#295=DIRECTION('',(0.,0.,-1.));
#296=DIRECTION('',(-1.,0.,0.));
#297=DIRECTION('',(0.,0.,-1.));
#298=DIRECTION('',(0.,1.,0.));
#299=DIRECTION('',(0.,0.,1.));
#300=DIRECTION('',(-0.966794372151946,-0.255555555555586,0.));
#301=DIRECTION('',(0.,0.,-1.));
#302=DIRECTION('',(0.968445350981454,-0.249226006191988,0.));
#303=DIRECTION('',(0.,0.,-1.));
#304=DIRECTION('',(0.999999564444476,-0.000933333197827178,0.));
#305=DIRECTION('',(0.,0.,-1.));
#306=DIRECTION('',(0.,1.,0.));
#307=DIRECTION('',(0.,0.,1.));
#308=DIRECTION('',(-1.,0.,0.));
#309=DIRECTION('',(2.654253983383E-14,0.,1.));
#310=DIRECTION('',(0.,0.,1.));
#311=DIRECTION('',(1.,0.,0.));
#312=DIRECTION('',(-1.591888004857E-13,0.,1.));
#313=DIRECTION('',(0.,0.,1.));
#314=DIRECTION('',(1.,0.,0.));
#315=DIRECTION('',(0.,0.,1.));
#316=DIRECTION('',(-1.,0.,0.));
#317=DIRECTION('',(-1.66207700657E-13,0.,1.));
#318=DIRECTION('',(0.,0.,1.));
#319=DIRECTION('',(0.,0.,-1.));
#320=DIRECTION('',(0.,1.,0.));
#321=DIRECTION('',(0.,0.,-1.));
#322=DIRECTION('',(0.,1.,0.));
#323=DIRECTION('',(3.15921067450621E-14,-0.707106781186547,0.707106781186547));
#324=DIRECTION('',(-3.24498346608222E-14,0.707106781186547,0.707106781186547));
#325=DIRECTION('',(0.,0.,1.));
#326=DIRECTION('',(-1.,0.,0.));
#327=DIRECTION('',(0.,0.,1.));
#328=DIRECTION('',(0.,-1.,4.02254719067086E-17));
#329=DIRECTION('',(0.,0.,1.));
#330=DIRECTION('',(-1.,0.,0.));
#331=DIRECTION('',(0.,0.,1.));
#332=DIRECTION('',(0.,-1.,4.02254719067086E-17));
#333=DIRECTION('',(0.,0.,-1.));
#334=DIRECTION('',(0.,1.,0.));
#335=DIRECTION('',(0.,0.,1.));
#336=DIRECTION('',(-1.,0.,0.));
#337=DIRECTION('',(0.,0.,1.));
#338=DIRECTION('',(-1.,0.,0.));
#339=DIRECTION('',(0.,0.,-1.));
#340=DIRECTION('',(0.,1.,0.));
#341=DIRECTION('',(-2.114902063601E-13,0.,1.));
#342=DIRECTION('',(0.,0.,1.));
#343=DIRECTION('',(-1.,0.,0.));
#344=DIRECTION('',(2.114908338869E-13,0.,1.));
#345=DIRECTION('',(0.,0.,-1.));
#346=DIRECTION('',(0.,1.,0.));
#347=DIRECTION('',(0.,0.,1.));
#348=DIRECTION('',(-1.,0.,0.));
#349=DIRECTION('',(0.,0.,-1.));
#350=DIRECTION('',(0.,1.,0.));
#351=DIRECTION('',(0.,-0.144306116415197,0.989533094325381));
#352=DIRECTION('',(0.,0.144306116415197,0.989533094325381));
#353=DIRECTION('',(0.,0.,-1.));
#354=DIRECTION('',(0.,1.,2.55013198898809E-16));
#355=CARTESIAN_POINT('',(0.,0.,0.));
#356=CARTESIAN_POINT('',(0.,0.,0.));
#357=CARTESIAN_POINT('',(0.,0.,-90.));
#358=CARTESIAN_POINT('',(0.,0.,0.));
#359=CARTESIAN_POINT('',(0.,0.,-1.6));
#360=CARTESIAN_POINT('',(-31.5,0.,-1.6));
#361=CARTESIAN_POINT('',(0.,0.,-1.6));
#362=CARTESIAN_POINT('',(0.,22.4583320508297,-1.6));
#363=CARTESIAN_POINT('',(2.7503524460237E-15,-22.4583320508297,-1.6));
#364=CARTESIAN_POINT('',(0.,0.,-1.6));
#365=CARTESIAN_POINT('',(0.,0.,-1.6));
#366=CARTESIAN_POINT('',(0.,0.,-10.8));
#367=CARTESIAN_POINT('',(-30.4540227227863,-8.05000000000095,-10.8));
#368=CARTESIAN_POINT('',(0.,0.,-11.6));
#369=CARTESIAN_POINT('',(31.2807848367009,-8.05000000000121,-11.6));
#370=CARTESIAN_POINT('',(0.,0.,-10.8));
#371=CARTESIAN_POINT('',(0.,0.,98.65));
#372=CARTESIAN_POINT('',(0.,0.,-11.6));
#373=CARTESIAN_POINT('',(6.3762968387187E-13,40.,-11.6));
#374=CARTESIAN_POINT('',(-7.479346529565E-13,-40.,-11.6));
#375=CARTESIAN_POINT('',(-1.155891480804E-12,40.,-79.17157287525));
#376=CARTESIAN_POINT('',(-7.39222140891225E-13,40.,-80.0000000000021));
#377=CARTESIAN_POINT('',(0.,0.,-80.));
#378=CARTESIAN_POINT('',(7.90593990766329E-13,-40.,-80.0000000000021));
#379=CARTESIAN_POINT('',(1.154607698104E-12,-40.,-79.17157287525));
#380=CARTESIAN_POINT('',(-7.36316387849756E-16,-40.,-71.9));
#381=CARTESIAN_POINT('',(0.,0.,-80.));
#382=CARTESIAN_POINT('',(0.,0.,-11.6));
#383=CARTESIAN_POINT('',(0.,-40.,-16.1));
#384=CARTESIAN_POINT('',(-3.94430452610506E-28,-40.,-16.1));
#385=CARTESIAN_POINT('',(0.,-40.,-48.1));
#386=CARTESIAN_POINT('',(0.,-40.,-48.1));
#387=CARTESIAN_POINT('',(1.3363823550461E-48,-40.,-39.9));
#388=CARTESIAN_POINT('',(0.,0.,-7.68));
#389=CARTESIAN_POINT('',(0.,0.,-11.6));
#390=CARTESIAN_POINT('',(1.913652886505E-13,-30.58578643763,-89.41421356237));
#391=CARTESIAN_POINT('',(1.65193530494875E-13,-30.,-90.));
#392=CARTESIAN_POINT('',(-1.923051577339E-13,30.58578643763,-89.41421356237));
#393=CARTESIAN_POINT('',(-1.65422834507203E-13,30.,-90.));
#394=CARTESIAN_POINT('',(0.,0.,-90.));
#395=CARTESIAN_POINT('',(0.,0.,-85.));
#396=CARTESIAN_POINT('',(0.,0.,-90.));
#397=CARTESIAN_POINT('',(0.,0.,-85.));
#398=CARTESIAN_POINT('',(0.,0.,-90.));
#399=CARTESIAN_POINT('',(0.,0.,93.4));
#400=CARTESIAN_POINT('',(-2.19180783021279E-12,-12.5,93.4));
#401=CARTESIAN_POINT('',(2.19181433367306E-12,12.5,93.4));
#402=CARTESIAN_POINT('',(0.,0.,93.4));
#403=CARTESIAN_POINT('',(0.,0.,93.4));
#404=CARTESIAN_POINT('',(0.,-12.5,83.03636251562));
#405=CARTESIAN_POINT('',(1.20114379396671E-13,-12.5,66.686080821567));
#406=CARTESIAN_POINT('',(0.,0.,66.686080821567));
#407=CARTESIAN_POINT('',(0.,12.5,66.686080821567));
#408=CARTESIAN_POINT('',(0.,12.5,83.03636251562));
#409=CARTESIAN_POINT('',(0.,0.,98.65));
#410=CARTESIAN_POINT('',(0.,0.,66.686080821567));
#411=CARTESIAN_POINT('',(0.,0.,98.65));
#412=CARTESIAN_POINT('',(0.,22.16666698729,0.400000000000001));
#413=CARTESIAN_POINT('',(0.,12.68755242227,65.4));
#414=CARTESIAN_POINT('',(0.,-22.16666698729,0.400000000000001));
#415=CARTESIAN_POINT('',(0.,-12.68755242227,65.4));
#416=CARTESIAN_POINT('',(0.,0.,32.9));
#417=MECHANICAL_DESIGN_GEOMETRIC_PRESENTATION_REPRESENTATION('',(#236,#237,
#238,#239),#418);
#418=(
GEOMETRIC_REPRESENTATION_CONTEXT(3)
GLOBAL_UNCERTAINTY_ASSIGNED_CONTEXT((#419))
GLOBAL_UNIT_ASSIGNED_CONTEXT((#425,#421,#420))
REPRESENTATION_CONTEXT('2080.40-W.40','TOP_LEVEL_ASSEMBLY_PART')
);
#419=UNCERTAINTY_MEASURE_WITH_UNIT(LENGTH_MEASURE(2.E-5),#425,
'DISTANCE_ACCURACY_VALUE','Maximum Tolerance applied to model');
#420=(
NAMED_UNIT(*)
SI_UNIT($,.STERADIAN.)
SOLID_ANGLE_UNIT()
);
#421=(
CONVERSION_BASED_UNIT('DEGREE',#423)
NAMED_UNIT(#422)
PLANE_ANGLE_UNIT()
);
#422=DIMENSIONAL_EXPONENTS(0.,0.,0.,0.,0.,0.,0.);
#423=PLANE_ANGLE_MEASURE_WITH_UNIT(PLANE_ANGLE_MEASURE(0.0174532925),#424);
#424=(
NAMED_UNIT(*)
PLANE_ANGLE_UNIT()
SI_UNIT($,.RADIAN.)
);
#425=(
LENGTH_UNIT()
NAMED_UNIT(*)
SI_UNIT(.MILLI.,.METRE.)
);
ENDSEC;
END-ISO-10303-21;
