ISO-10303-21;
HEADER;
/* Generated by software containing ST-Developer
 * from STEP Tools, Inc. (www.steptools.com) 
 */
/* OPTION: using custom schema-name function */

FILE_DESCRIPTION(
/* description */ (''),
/* implementation_level */ '2;1');

FILE_NAME(
/* name */ '2080.40-W.20.063.stp',
/* time_stamp */ '2024-06-23T16:26:15+02:00',
/* author */ (''),
/* organization */ (''),
/* preprocessor_version */ 'ST-DEVELOPER v16.7',
/* originating_system */ 'SIEMENS PLM Software NX 12.0',
/* authorisation */ '');

FILE_SCHEMA (('AUTOMOTIVE_DESIGN { 1 0 10303 214 3 1 1 1 }'));
ENDSEC;

DATA;
#10=CONSTRUCTIVE_GEOMETRY_REPRESENTATION_RELATIONSHIP(
'supplemental geometry','',#32,#11);
#11=CONSTRUCTIVE_GEOMETRY_REPRESENTATION('supplemental geometry',(#244,
#245,#246),#405);
#12=PROPERTY_DEFINITION_REPRESENTATION(#16,#14);
#13=PROPERTY_DEFINITION_REPRESENTATION(#17,#15);
#14=REPRESENTATION('',(#18),#405);
#15=REPRESENTATION('',(#19),#405);
#16=PROPERTY_DEFINITION('pmi validation property','',#23);
#17=PROPERTY_DEFINITION('pmi validation property','',#23);
#18=VALUE_REPRESENTATION_ITEM('number of annotations',COUNT_MEASURE(0.));
#19=VALUE_REPRESENTATION_ITEM('number of views',COUNT_MEASURE(0.));
#20=SHAPE_REPRESENTATION_RELATIONSHIP('None',
'relationship between pf660F5CA0AEj84d-None and pf660F5CA0AEj84d-None',
#32,#21);
#21=ADVANCED_BREP_SHAPE_REPRESENTATION('pf660F5CA0AEj84d-None',(#38),#405);
#22=SHAPE_DEFINITION_REPRESENTATION(#23,#32);
#23=PRODUCT_DEFINITION_SHAPE('','',#24);
#24=PRODUCT_DEFINITION(' ','',#26,#25);
#25=PRODUCT_DEFINITION_CONTEXT('part definition',#31,'design');
#26=PRODUCT_DEFINITION_FORMATION_WITH_SPECIFIED_SOURCE(' ',' ',#28,
 .NOT_KNOWN.);
#27=PRODUCT_RELATED_PRODUCT_CATEGORY('part','',(#28));
#28=PRODUCT('pf660F5CA0AEj84d','pf660F5CA0AEj84d',' ',(#29));
#29=PRODUCT_CONTEXT(' ',#31,'mechanical');
#30=APPLICATION_PROTOCOL_DEFINITION('international standard',
'automotive_design',2010,#31);
#31=APPLICATION_CONTEXT(
'core data for automotive mechanical design processes');
#32=SHAPE_REPRESENTATION('pf660F5CA0AEj84d-None',(#243),#405);
#33=SURFACE_STYLE_USAGE(.BOTH.,#34);
#34=SURFACE_SIDE_STYLE('',(#35));
#35=SURFACE_STYLE_FILL_AREA(#36);
#36=FILL_AREA_STYLE('',(#37));
#37=FILL_AREA_STYLE_COLOUR('',#239);
#38=MANIFOLD_SOLID_BREP('',#39);
#39=CLOSED_SHELL('',(#76,#77,#78,#79,#80,#81,#82,#83,#84,#85,#86,#87));
#40=TOROIDAL_SURFACE('',#258,26.8,0.8);
#41=FACE_BOUND('',#103,.T.);
#42=FACE_BOUND('',#104,.T.);
#43=FACE_BOUND('',#105,.T.);
#44=FACE_BOUND('',#106,.T.);
#45=FACE_BOUND('',#107,.T.);
#46=FACE_BOUND('',#108,.T.);
#47=FACE_BOUND('',#109,.T.);
#48=FACE_BOUND('',#110,.T.);
#49=FACE_BOUND('',#111,.T.);
#50=FACE_BOUND('',#112,.T.);
#51=CYLINDRICAL_SURFACE('',#256,26.);
#52=CYLINDRICAL_SURFACE('',#262,31.5);
#53=CYLINDRICAL_SURFACE('',#272,12.5);
#54=CYLINDRICAL_SURFACE('',#273,12.5);
#55=CONICAL_SURFACE('',#251,23.17554531327,25.);
#56=CONICAL_SURFACE('',#253,23.17554531327,25.);
#57=CONICAL_SURFACE('',#268,17.42710970478,8.2971);
#58=LINE('',#354,#67);
#59=LINE('',#356,#68);
#60=LINE('',#365,#69);
#61=LINE('',#366,#70);
#62=LINE('',#369,#71);
#63=LINE('',#390,#72);
#64=LINE('',#392,#73);
#65=LINE('',#400,#74);
#66=LINE('',#401,#75);
#67=VECTOR('',#288,1.);
#68=VECTOR('',#289,1.);
#69=VECTOR('',#300,1.);
#70=VECTOR('',#301,1.);
#71=VECTOR('',#304,1.);
#72=VECTOR('',#329,1.);
#73=VECTOR('',#330,1.);
#74=VECTOR('',#339,1.);
#75=VECTOR('',#340,1.);
#76=ADVANCED_FACE('',(#92),#88,.T.);
#77=ADVANCED_FACE('',(#93),#55,.T.);
#78=ADVANCED_FACE('',(#94),#56,.T.);
#79=ADVANCED_FACE('',(#95),#51,.T.);
#80=ADVANCED_FACE('',(#41,#42),#40,.F.);
#81=ADVANCED_FACE('',(#43,#44),#89,.T.);
#82=ADVANCED_FACE('',(#45,#46),#52,.T.);
#83=ADVANCED_FACE('',(#47,#48),#90,.F.);
#84=ADVANCED_FACE('',(#49,#50),#57,.T.);
#85=ADVANCED_FACE('',(#96),#91,.F.);
#86=ADVANCED_FACE('',(#97),#53,.T.);
#87=ADVANCED_FACE('',(#98),#54,.T.);
#88=PLANE('',#249);
#89=PLANE('',#260);
#90=PLANE('',#265);
#91=PLANE('',#271);
#92=FACE_OUTER_BOUND('',#99,.T.);
#93=FACE_OUTER_BOUND('',#100,.T.);
#94=FACE_OUTER_BOUND('',#101,.T.);
#95=FACE_OUTER_BOUND('',#102,.T.);
#96=FACE_OUTER_BOUND('',#113,.T.);
#97=FACE_OUTER_BOUND('',#114,.T.);
#98=FACE_OUTER_BOUND('',#115,.T.);
#99=EDGE_LOOP('',(#116,#117));
#100=EDGE_LOOP('',(#118,#119,#120,#121));
#101=EDGE_LOOP('',(#122,#123,#124,#125));
#102=EDGE_LOOP('',(#126,#127,#128,#129,#130,#131,#132,#133,#134,#135));
#103=EDGE_LOOP('',(#136));
#104=EDGE_LOOP('',(#137,#138));
#105=EDGE_LOOP('',(#139));
#106=EDGE_LOOP('',(#140));
#107=EDGE_LOOP('',(#141));
#108=EDGE_LOOP('',(#142));
#109=EDGE_LOOP('',(#143));
#110=EDGE_LOOP('',(#144,#145));
#111=EDGE_LOOP('',(#146,#147));
#112=EDGE_LOOP('',(#148,#149,#150,#151,#152,#153));
#113=EDGE_LOOP('',(#154,#155));
#114=EDGE_LOOP('',(#156,#157,#158,#159));
#115=EDGE_LOOP('',(#160,#161,#162,#163));
#116=ORIENTED_EDGE('',*,*,#183,.F.);
#117=ORIENTED_EDGE('',*,*,#184,.F.);
#118=ORIENTED_EDGE('',*,*,#185,.F.);
#119=ORIENTED_EDGE('',*,*,#183,.T.);
#120=ORIENTED_EDGE('',*,*,#186,.T.);
#121=ORIENTED_EDGE('',*,*,#187,.F.);
#122=ORIENTED_EDGE('',*,*,#186,.F.);
#123=ORIENTED_EDGE('',*,*,#184,.T.);
#124=ORIENTED_EDGE('',*,*,#185,.T.);
#125=ORIENTED_EDGE('',*,*,#188,.F.);
#126=ORIENTED_EDGE('',*,*,#189,.F.);
#127=ORIENTED_EDGE('',*,*,#190,.F.);
#128=ORIENTED_EDGE('',*,*,#188,.T.);
#129=ORIENTED_EDGE('',*,*,#191,.T.);
#130=ORIENTED_EDGE('',*,*,#191,.F.);
#131=ORIENTED_EDGE('',*,*,#187,.T.);
#132=ORIENTED_EDGE('',*,*,#190,.T.);
#133=ORIENTED_EDGE('',*,*,#192,.F.);
#134=ORIENTED_EDGE('',*,*,#193,.F.);
#135=ORIENTED_EDGE('',*,*,#193,.T.);
#136=ORIENTED_EDGE('',*,*,#194,.F.);
#137=ORIENTED_EDGE('',*,*,#189,.T.);
#138=ORIENTED_EDGE('',*,*,#192,.T.);
#139=ORIENTED_EDGE('',*,*,#195,.F.);
#140=ORIENTED_EDGE('',*,*,#194,.T.);
#141=ORIENTED_EDGE('',*,*,#195,.T.);
#142=ORIENTED_EDGE('',*,*,#196,.F.);
#143=ORIENTED_EDGE('',*,*,#196,.T.);
#144=ORIENTED_EDGE('',*,*,#197,.T.);
#145=ORIENTED_EDGE('',*,*,#198,.T.);
#146=ORIENTED_EDGE('',*,*,#199,.F.);
#147=ORIENTED_EDGE('',*,*,#200,.F.);
#148=ORIENTED_EDGE('',*,*,#201,.F.);
#149=ORIENTED_EDGE('',*,*,#198,.F.);
#150=ORIENTED_EDGE('',*,*,#202,.T.);
#151=ORIENTED_EDGE('',*,*,#202,.F.);
#152=ORIENTED_EDGE('',*,*,#197,.F.);
#153=ORIENTED_EDGE('',*,*,#201,.T.);
#154=ORIENTED_EDGE('',*,*,#203,.T.);
#155=ORIENTED_EDGE('',*,*,#204,.T.);
#156=ORIENTED_EDGE('',*,*,#205,.F.);
#157=ORIENTED_EDGE('',*,*,#199,.T.);
#158=ORIENTED_EDGE('',*,*,#206,.T.);
#159=ORIENTED_EDGE('',*,*,#204,.F.);
#160=ORIENTED_EDGE('',*,*,#206,.F.);
#161=ORIENTED_EDGE('',*,*,#200,.T.);
#162=ORIENTED_EDGE('',*,*,#205,.T.);
#163=ORIENTED_EDGE('',*,*,#203,.F.);
#164=VERTEX_POINT('',#350);
#165=VERTEX_POINT('',#351);
#166=VERTEX_POINT('',#355);
#167=VERTEX_POINT('',#357);
#168=VERTEX_POINT('',#363);
#169=VERTEX_POINT('',#364);
#170=VERTEX_POINT('',#367);
#171=VERTEX_POINT('',#370);
#172=VERTEX_POINT('',#373);
#173=VERTEX_POINT('',#376);
#174=VERTEX_POINT('',#379);
#175=VERTEX_POINT('',#382);
#176=VERTEX_POINT('',#383);
#177=VERTEX_POINT('',#387);
#178=VERTEX_POINT('',#388);
#179=VERTEX_POINT('',#391);
#180=VERTEX_POINT('',#393);
#181=VERTEX_POINT('',#396);
#182=VERTEX_POINT('',#397);
#183=EDGE_CURVE('',#164,#165,#207,.T.);
#184=EDGE_CURVE('',#165,#164,#208,.T.);
#185=EDGE_CURVE('',#164,#166,#58,.T.);
#186=EDGE_CURVE('',#165,#167,#59,.T.);
#187=EDGE_CURVE('',#166,#167,#209,.T.);
#188=EDGE_CURVE('',#167,#166,#210,.T.);
#189=EDGE_CURVE('',#168,#169,#211,.T.);
#190=EDGE_CURVE('',#167,#168,#60,.T.);
#191=EDGE_CURVE('',#166,#170,#61,.T.);
#192=EDGE_CURVE('',#169,#168,#212,.T.);
#193=EDGE_CURVE('',#171,#169,#62,.T.);
#194=EDGE_CURVE('',#172,#172,#213,.T.);
#195=EDGE_CURVE('',#173,#173,#214,.T.);
#196=EDGE_CURVE('',#174,#174,#215,.T.);
#197=EDGE_CURVE('',#175,#176,#216,.T.);
#198=EDGE_CURVE('',#176,#175,#217,.T.);
#199=EDGE_CURVE('',#177,#178,#218,.T.);
#200=EDGE_CURVE('',#178,#177,#219,.T.);
#201=EDGE_CURVE('',#175,#179,#63,.T.);
#202=EDGE_CURVE('',#176,#180,#64,.T.);
#203=EDGE_CURVE('',#181,#182,#220,.T.);
#204=EDGE_CURVE('',#182,#181,#221,.T.);
#205=EDGE_CURVE('',#177,#182,#65,.T.);
#206=EDGE_CURVE('',#178,#181,#66,.T.);
#207=CIRCLE('',#247,20.0000000000043);
#208=CIRCLE('',#248,20.0000000000043);
#209=CIRCLE('',#250,26.);
#210=CIRCLE('',#252,26.);
#211=CIRCLE('',#254,26.);
#212=CIRCLE('',#255,26.);
#213=CIRCLE('',#257,26.8);
#214=CIRCLE('',#259,31.5);
#215=CIRCLE('',#261,31.5);
#216=CIRCLE('',#263,22.4583320508297);
#217=CIRCLE('',#264,22.4583320508297);
#218=CIRCLE('',#266,12.5);
#219=CIRCLE('',#267,12.5);
#220=CIRCLE('',#269,12.5);
#221=CIRCLE('',#270,12.5);
#222=INVISIBILITY((#223,#224,#225));
#223=PRESENTATION_LAYER_ASSIGNMENT('100','Layer 100',(#244));
#224=PRESENTATION_LAYER_ASSIGNMENT('101','Layer 101',(#245));
#225=PRESENTATION_LAYER_ASSIGNMENT('102','Layer 102',(#246));
#226=PRESENTATION_LAYER_ASSIGNMENT('98','Layer 98',(#38));
#227=STYLED_ITEM('',(#231),#244);
#228=STYLED_ITEM('',(#232),#245);
#229=STYLED_ITEM('',(#233),#246);
#230=STYLED_ITEM('',(#234),#38);
#231=PRESENTATION_STYLE_ASSIGNMENT((#235));
#232=PRESENTATION_STYLE_ASSIGNMENT((#236));
#233=PRESENTATION_STYLE_ASSIGNMENT((#237));
#234=PRESENTATION_STYLE_ASSIGNMENT((#33));
#235=CURVE_STYLE('',#240,POSITIVE_LENGTH_MEASURE(0.7),#238);
#236=CURVE_STYLE('',#241,POSITIVE_LENGTH_MEASURE(0.7),#238);
#237=CURVE_STYLE('',#242,POSITIVE_LENGTH_MEASURE(0.7),#238);
#238=COLOUR_RGB('Medium Maroon',0.6,0.4,0.4);
#239=COLOUR_RGB('Medium Gray',0.490196078431373,0.490196078431373,0.490196078431373);
#240=DRAUGHTING_PRE_DEFINED_CURVE_FONT('continuous');
#241=DRAUGHTING_PRE_DEFINED_CURVE_FONT('continuous');
#242=DRAUGHTING_PRE_DEFINED_CURVE_FONT('continuous');
#243=AXIS2_PLACEMENT_3D('',#345,#274,#275);
#244=AXIS2_PLACEMENT_3D('PCS',#346,#276,#277);
#245=AXIS2_PLACEMENT_3D('CSW',#347,#278,#279);
#246=AXIS2_PLACEMENT_3D('MCS',#348,#280,#281);
#247=AXIS2_PLACEMENT_3D('',#349,#282,#283);
#248=AXIS2_PLACEMENT_3D('',#352,#284,#285);
#249=AXIS2_PLACEMENT_3D('',#353,#286,#287);
#250=AXIS2_PLACEMENT_3D('',#358,#290,#291);
#251=AXIS2_PLACEMENT_3D('',#359,#292,#293);
#252=AXIS2_PLACEMENT_3D('',#360,#294,#295);
#253=AXIS2_PLACEMENT_3D('',#361,#296,#297);
#254=AXIS2_PLACEMENT_3D('',#362,#298,#299);
#255=AXIS2_PLACEMENT_3D('',#368,#302,#303);
#256=AXIS2_PLACEMENT_3D('',#371,#305,#306);
#257=AXIS2_PLACEMENT_3D('',#372,#307,#308);
#258=AXIS2_PLACEMENT_3D('',#374,#309,#310);
#259=AXIS2_PLACEMENT_3D('',#375,#311,#312);
#260=AXIS2_PLACEMENT_3D('',#377,#313,#314);
#261=AXIS2_PLACEMENT_3D('',#378,#315,#316);
#262=AXIS2_PLACEMENT_3D('',#380,#317,#318);
#263=AXIS2_PLACEMENT_3D('',#381,#319,#320);
#264=AXIS2_PLACEMENT_3D('',#384,#321,#322);
#265=AXIS2_PLACEMENT_3D('',#385,#323,#324);
#266=AXIS2_PLACEMENT_3D('',#386,#325,#326);
#267=AXIS2_PLACEMENT_3D('',#389,#327,#328);
#268=AXIS2_PLACEMENT_3D('',#394,#331,#332);
#269=AXIS2_PLACEMENT_3D('',#395,#333,#334);
#270=AXIS2_PLACEMENT_3D('',#398,#335,#336);
#271=AXIS2_PLACEMENT_3D('',#399,#337,#338);
#272=AXIS2_PLACEMENT_3D('',#402,#341,#342);
#273=AXIS2_PLACEMENT_3D('',#403,#343,#344);
#274=DIRECTION('',(0.,0.,1.));
#275=DIRECTION('',(1.,0.,0.));
#276=DIRECTION('',(0.,0.,1.));
#277=DIRECTION('',(1.,0.,0.));
#278=DIRECTION('',(0.,0.,1.));
#279=DIRECTION('',(1.,0.,0.));
#280=DIRECTION('',(0.,0.,1.));
#281=DIRECTION('',(1.,0.,0.));
#282=DIRECTION('',(0.,0.,1.));
#283=DIRECTION('',(-1.,0.,0.));
#284=DIRECTION('',(0.,0.,1.));
#285=DIRECTION('',(-1.,0.,0.));
#286=DIRECTION('',(0.,0.,-1.));
#287=DIRECTION('',(0.,1.,0.));
#288=DIRECTION('',(2.65013161825588E-13,-0.422618261740681,0.906307787036659));
#289=DIRECTION('',(-2.65079756262888E-13,0.422618261740681,0.906307787036659));
#290=DIRECTION('',(0.,0.,1.));
#291=DIRECTION('',(1.,0.,0.));
#292=DIRECTION('',(0.,0.,1.));
#293=DIRECTION('',(0.,-1.,-8.50557549849457E-17));
#294=DIRECTION('',(0.,0.,1.));
#295=DIRECTION('',(1.,0.,0.));
#296=DIRECTION('',(0.,0.,1.));
#297=DIRECTION('',(0.,-1.,-8.50557549849457E-17));
#298=DIRECTION('',(0.,0.,1.));
#299=DIRECTION('',(-0.950861879354436,-0.309615384615412,0.));
#300=DIRECTION('',(1.082352373501E-13,0.,1.));
#301=DIRECTION('',(-2.25081826657E-12,0.,1.));
#302=DIRECTION('',(0.,0.,1.));
#303=DIRECTION('',(0.,1.,0.));
#304=DIRECTION('',(0.,0.,1.));
#305=DIRECTION('',(0.,0.,-1.));
#306=DIRECTION('',(0.,1.,0.));
#307=DIRECTION('',(0.,0.,1.));
#308=DIRECTION('',(-0.953821775896177,-0.300373134328393,0.));
#309=DIRECTION('',(0.,0.,-1.));
#310=DIRECTION('',(0.,1.,0.));
#311=DIRECTION('',(0.,0.,1.));
#312=DIRECTION('',(-1.,0.,0.));
#313=DIRECTION('',(0.,0.,-1.));
#314=DIRECTION('',(0.,1.,0.));
#315=DIRECTION('',(0.,0.,1.));
#316=DIRECTION('',(-1.,0.,0.));
#317=DIRECTION('',(0.,0.,-1.));
#318=DIRECTION('',(0.,1.,0.));
#319=DIRECTION('',(0.,0.,-1.));
#320=DIRECTION('',(-1.,0.,0.));
#321=DIRECTION('',(0.,0.,-1.));
#322=DIRECTION('',(-1.,0.,0.));
#323=DIRECTION('',(0.,0.,-1.));
#324=DIRECTION('',(0.,1.,0.));
#325=DIRECTION('',(0.,0.,1.));
#326=DIRECTION('',(-1.,0.,0.));
#327=DIRECTION('',(0.,0.,1.));
#328=DIRECTION('',(-1.,0.,0.));
#329=DIRECTION('',(0.,-0.144306116415197,0.989533094325381));
#330=DIRECTION('',(0.,0.144306116415197,0.989533094325381));
#331=DIRECTION('',(0.,0.,-1.));
#332=DIRECTION('',(0.,1.,2.55013198898809E-16));
#333=DIRECTION('',(0.,0.,1.));
#334=DIRECTION('',(-1.,0.,0.));
#335=DIRECTION('',(0.,0.,1.));
#336=DIRECTION('',(-1.,0.,0.));
#337=DIRECTION('',(0.,0.,-1.));
#338=DIRECTION('',(0.,1.,0.));
#339=DIRECTION('',(2.114908338869E-13,0.,1.));
#340=DIRECTION('',(-2.114902063601E-13,0.,1.));
#341=DIRECTION('',(0.,0.,-1.));
#342=DIRECTION('',(0.,1.,0.));
#343=DIRECTION('',(0.,0.,-1.));
#344=DIRECTION('',(0.,1.,0.));
#345=CARTESIAN_POINT('',(0.,0.,0.));
#346=CARTESIAN_POINT('',(0.,0.,0.));
#347=CARTESIAN_POINT('',(0.,0.,-63.));
#348=CARTESIAN_POINT('',(0.,0.,0.));
#349=CARTESIAN_POINT('',(0.,0.,-63.));
#350=CARTESIAN_POINT('',(-2.80451867194047E-13,-20.0000000000011,-63.));
#351=CARTESIAN_POINT('',(2.79907928421815E-13,20.0000000000011,-63.));
#352=CARTESIAN_POINT('',(0.,0.,-63.));
#353=CARTESIAN_POINT('',(0.,0.,-63.));
#354=CARTESIAN_POINT('',(5.721214104965E-14,-20.53847505246,-61.84523652348));
#355=CARTESIAN_POINT('',(2.51210093865752E-12,-26.,-50.1329584769447));
#356=CARTESIAN_POINT('',(-5.784093049296E-14,20.53847505246,-61.84523652348));
#357=CARTESIAN_POINT('',(-2.04042581249773E-12,26.,-50.1329584769447));
#358=CARTESIAN_POINT('',(0.,0.,-50.1329584769518));
#359=CARTESIAN_POINT('',(0.,0.,-56.19002109931));
#360=CARTESIAN_POINT('',(0.,0.,-50.1329584769518));
#361=CARTESIAN_POINT('',(0.,0.,-56.19002109931));
#362=CARTESIAN_POINT('',(0.,0.,-12.4));
#363=CARTESIAN_POINT('',(0.,26.,-12.4));
#364=CARTESIAN_POINT('',(0.,-26.,-12.4));
#365=CARTESIAN_POINT('',(-4.032861276134E-12,26.,-49.68956915166));
#366=CARTESIAN_POINT('',(4.026213084746E-12,-26.,-49.68956915166));
#367=CARTESIAN_POINT('',(-4.45462775128125E-16,-26.,-47.9));
#368=CARTESIAN_POINT('',(0.,0.,-12.4));
#369=CARTESIAN_POINT('',(0.,-26.,-28.1));
#370=CARTESIAN_POINT('',(0.,-26.,-28.1));
#371=CARTESIAN_POINT('',(0.,0.,-9.03));
#372=CARTESIAN_POINT('',(0.,0.,-11.6));
#373=CARTESIAN_POINT('',(-25.5624235940176,-8.05000000000093,-11.6));
#374=CARTESIAN_POINT('',(0.,0.,-12.4));
#375=CARTESIAN_POINT('',(0.,0.,-11.6));
#376=CARTESIAN_POINT('',(-31.5,0.,-11.6));
#377=CARTESIAN_POINT('',(0.,0.,-11.6));
#378=CARTESIAN_POINT('',(0.,0.,-1.6));
#379=CARTESIAN_POINT('',(-31.5,0.,-1.6));
#380=CARTESIAN_POINT('',(0.,0.,98.65));
#381=CARTESIAN_POINT('',(0.,0.,-1.6));
#382=CARTESIAN_POINT('',(0.,22.4583320508297,-1.6));
#383=CARTESIAN_POINT('',(2.7503524460237E-15,-22.4583320508297,-1.6));
#384=CARTESIAN_POINT('',(0.,0.,-1.6));
#385=CARTESIAN_POINT('',(0.,0.,-1.6));
#386=CARTESIAN_POINT('',(0.,0.,66.686080821567));
#387=CARTESIAN_POINT('',(0.,12.5,66.686080821567));
#388=CARTESIAN_POINT('',(7.65404249467096E-16,-12.5,66.686080821567));
#389=CARTESIAN_POINT('',(0.,0.,66.686080821567));
#390=CARTESIAN_POINT('',(0.,22.16666698729,0.400000000000001));
#391=CARTESIAN_POINT('',(0.,12.68755242227,65.4));
#392=CARTESIAN_POINT('',(0.,-22.16666698729,0.400000000000001));
#393=CARTESIAN_POINT('',(0.,-12.68755242227,65.4));
#394=CARTESIAN_POINT('',(0.,0.,32.9));
#395=CARTESIAN_POINT('',(0.,0.,93.4));
#396=CARTESIAN_POINT('',(-2.19180783021279E-12,-12.5,93.4));
#397=CARTESIAN_POINT('',(2.19181433367306E-12,12.5,93.4));
#398=CARTESIAN_POINT('',(0.,0.,93.4));
#399=CARTESIAN_POINT('',(0.,0.,93.4));
#400=CARTESIAN_POINT('',(0.,12.5,83.03636251562));
#401=CARTESIAN_POINT('',(0.,-12.5,83.03636251562));
#402=CARTESIAN_POINT('',(0.,0.,98.65));
#403=CARTESIAN_POINT('',(0.,0.,98.65));
#404=MECHANICAL_DESIGN_GEOMETRIC_PRESENTATION_REPRESENTATION('',(#227,#228,
#229,#230),#405);
#405=(
GEOMETRIC_REPRESENTATION_CONTEXT(3)
GLOBAL_UNCERTAINTY_ASSIGNED_CONTEXT((#406))
GLOBAL_UNIT_ASSIGNED_CONTEXT((#412,#408,#407))
REPRESENTATION_CONTEXT('2080.40-W.20','TOP_LEVEL_ASSEMBLY_PART')
);
#406=UNCERTAINTY_MEASURE_WITH_UNIT(LENGTH_MEASURE(2.E-5),#412,
'DISTANCE_ACCURACY_VALUE','Maximum Tolerance applied to model');
#407=(
NAMED_UNIT(*)
SI_UNIT($,.STERADIAN.)
SOLID_ANGLE_UNIT()
);
#408=(
CONVERSION_BASED_UNIT('DEGREE',#410)
NAMED_UNIT(#409)
PLANE_ANGLE_UNIT()
);
#409=DIMENSIONAL_EXPONENTS(0.,0.,0.,0.,0.,0.,0.);
#410=PLANE_ANGLE_MEASURE_WITH_UNIT(PLANE_ANGLE_MEASURE(0.0174532925),#411);
#411=(
NAMED_UNIT(*)
PLANE_ANGLE_UNIT()
SI_UNIT($,.RADIAN.)
);
#412=(
LENGTH_UNIT()
NAMED_UNIT(*)
SI_UNIT(.MILLI.,.METRE.)
);
ENDSEC;
END-ISO-10303-21;
