ISO-10303-21;
HEADER;
/* Generated by software containing ST-Developer
 * from STEP Tools, Inc. (www.steptools.com) 
 */
/* OPTION: using custom schema-name function */

FILE_DESCRIPTION(
/* description */ (''),
/* implementation_level */ '2;1');

FILE_NAME(
/* name */ '2080.40-W.12.050.stp',
/* time_stamp */ '2024-06-23T16:19:03+02:00',
/* author */ (''),
/* organization */ (''),
/* preprocessor_version */ 'ST-DEVELOPER v16.7',
/* originating_system */ 'SIEMENS PLM Software NX 12.0',
/* authorisation */ '');

FILE_SCHEMA (('AUTOMOTIVE_DESIGN { 1 0 10303 214 3 1 1 1 }'));
ENDSEC;

DATA;
#10=CONSTRUCTIVE_GEOMETRY_REPRESENTATION_RELATIONSHIP(
'supplemental geometry','',#32,#11);
#11=CONSTRUCTIVE_GEOMETRY_REPRESENTATION('supplemental geometry',(#259,
#260,#261),#437);
#12=PROPERTY_DEFINITION_REPRESENTATION(#16,#14);
#13=PROPERTY_DEFINITION_REPRESENTATION(#17,#15);
#14=REPRESENTATION('',(#18),#437);
#15=REPRESENTATION('',(#19),#437);
#16=PROPERTY_DEFINITION('pmi validation property','',#23);
#17=PROPERTY_DEFINITION('pmi validation property','',#23);
#18=VALUE_REPRESENTATION_ITEM('number of annotations',COUNT_MEASURE(0.));
#19=VALUE_REPRESENTATION_ITEM('number of views',COUNT_MEASURE(0.));
#20=SHAPE_REPRESENTATION_RELATIONSHIP('None',
'relationship between pf660F5CA0AEj83h-None and pf660F5CA0AEj83h-None',
#32,#21);
#21=ADVANCED_BREP_SHAPE_REPRESENTATION('pf660F5CA0AEj83h-None',(#38),#437);
#22=SHAPE_DEFINITION_REPRESENTATION(#23,#32);
#23=PRODUCT_DEFINITION_SHAPE('','',#24);
#24=PRODUCT_DEFINITION(' ','',#26,#25);
#25=PRODUCT_DEFINITION_CONTEXT('part definition',#31,'design');
#26=PRODUCT_DEFINITION_FORMATION_WITH_SPECIFIED_SOURCE(' ',' ',#28,
 .NOT_KNOWN.);
#27=PRODUCT_RELATED_PRODUCT_CATEGORY('part','',(#28));
#28=PRODUCT('pf660F5CA0AEj83h','pf660F5CA0AEj83h',' ',(#29));
#29=PRODUCT_CONTEXT(' ',#31,'mechanical');
#30=APPLICATION_PROTOCOL_DEFINITION('international standard',
'automotive_design',2010,#31);
#31=APPLICATION_CONTEXT(
'core data for automotive mechanical design processes');
#32=SHAPE_REPRESENTATION('pf660F5CA0AEj83h-None',(#258),#437);
#33=SURFACE_STYLE_USAGE(.BOTH.,#34);
#34=SURFACE_SIDE_STYLE('',(#35));
#35=SURFACE_STYLE_FILL_AREA(#36);
#36=FILL_AREA_STYLE('',(#37));
#37=FILL_AREA_STYLE_COLOUR('',#254);
#38=MANIFOLD_SOLID_BREP('',#39);
#39=CLOSED_SHELL('',(#75,#76,#77,#78,#79,#80,#81,#82,#83,#84,#85,#86,#87));
#40=FACE_BOUND('',#107,.T.);
#41=FACE_BOUND('',#108,.T.);
#42=FACE_BOUND('',#109,.T.);
#43=FACE_BOUND('',#110,.T.);
#44=FACE_BOUND('',#111,.T.);
#45=FACE_BOUND('',#112,.T.);
#46=FACE_BOUND('',#113,.T.);
#47=FACE_BOUND('',#114,.T.);
#48=TOROIDAL_SURFACE('',#275,25.,4.);
#49=TOROIDAL_SURFACE('',#277,25.,4.);
#50=CYLINDRICAL_SURFACE('',#271,21.);
#51=CYLINDRICAL_SURFACE('',#281,31.5);
#52=CYLINDRICAL_SURFACE('',#291,12.5);
#53=CYLINDRICAL_SURFACE('',#292,12.5);
#54=CONICAL_SURFACE('',#266,18.17554531327,25.);
#55=CONICAL_SURFACE('',#268,18.17554531327,25.);
#56=CONICAL_SURFACE('',#287,17.42710970478,8.2971);
#57=LINE('',#381,#66);
#58=LINE('',#383,#67);
#59=LINE('',#389,#68);
#60=LINE('',#393,#69);
#61=LINE('',#396,#70);
#62=LINE('',#422,#71);
#63=LINE('',#424,#72);
#64=LINE('',#432,#73);
#65=LINE('',#433,#74);
#66=VECTOR('',#307,1.);
#67=VECTOR('',#308,1.);
#68=VECTOR('',#317,1.);
#69=VECTOR('',#320,1.);
#70=VECTOR('',#323,1.);
#71=VECTOR('',#356,1.);
#72=VECTOR('',#357,1.);
#73=VECTOR('',#366,1.);
#74=VECTOR('',#367,1.);
#75=ADVANCED_FACE('',(#92),#88,.T.);
#76=ADVANCED_FACE('',(#93),#54,.T.);
#77=ADVANCED_FACE('',(#94),#55,.T.);
#78=ADVANCED_FACE('',(#95),#50,.T.);
#79=ADVANCED_FACE('',(#96),#48,.F.);
#80=ADVANCED_FACE('',(#97),#49,.F.);
#81=ADVANCED_FACE('',(#40,#41),#89,.T.);
#82=ADVANCED_FACE('',(#42,#43),#51,.T.);
#83=ADVANCED_FACE('',(#44,#45),#90,.F.);
#84=ADVANCED_FACE('',(#46,#47),#56,.T.);
#85=ADVANCED_FACE('',(#98),#91,.F.);
#86=ADVANCED_FACE('',(#99),#52,.T.);
#87=ADVANCED_FACE('',(#100),#53,.T.);
#88=PLANE('',#264);
#89=PLANE('',#279);
#90=PLANE('',#284);
#91=PLANE('',#290);
#92=FACE_OUTER_BOUND('',#101,.T.);
#93=FACE_OUTER_BOUND('',#102,.T.);
#94=FACE_OUTER_BOUND('',#103,.T.);
#95=FACE_OUTER_BOUND('',#104,.T.);
#96=FACE_OUTER_BOUND('',#105,.T.);
#97=FACE_OUTER_BOUND('',#106,.T.);
#98=FACE_OUTER_BOUND('',#115,.T.);
#99=FACE_OUTER_BOUND('',#116,.T.);
#100=FACE_OUTER_BOUND('',#117,.T.);
#101=EDGE_LOOP('',(#118,#119));
#102=EDGE_LOOP('',(#120,#121,#122,#123));
#103=EDGE_LOOP('',(#124,#125,#126,#127));
#104=EDGE_LOOP('',(#128,#129,#130,#131,#132,#133,#134,#135,#136,#137));
#105=EDGE_LOOP('',(#138,#139,#140,#141));
#106=EDGE_LOOP('',(#142,#143,#144,#145));
#107=EDGE_LOOP('',(#146));
#108=EDGE_LOOP('',(#147,#148));
#109=EDGE_LOOP('',(#149));
#110=EDGE_LOOP('',(#150));
#111=EDGE_LOOP('',(#151));
#112=EDGE_LOOP('',(#152,#153));
#113=EDGE_LOOP('',(#154,#155));
#114=EDGE_LOOP('',(#156,#157,#158,#159,#160,#161));
#115=EDGE_LOOP('',(#162,#163));
#116=EDGE_LOOP('',(#164,#165,#166,#167));
#117=EDGE_LOOP('',(#168,#169,#170,#171));
#118=ORIENTED_EDGE('',*,*,#192,.F.);
#119=ORIENTED_EDGE('',*,*,#193,.F.);
#120=ORIENTED_EDGE('',*,*,#194,.F.);
#121=ORIENTED_EDGE('',*,*,#192,.T.);
#122=ORIENTED_EDGE('',*,*,#195,.T.);
#123=ORIENTED_EDGE('',*,*,#196,.F.);
#124=ORIENTED_EDGE('',*,*,#195,.F.);
#125=ORIENTED_EDGE('',*,*,#193,.T.);
#126=ORIENTED_EDGE('',*,*,#194,.T.);
#127=ORIENTED_EDGE('',*,*,#197,.F.);
#128=ORIENTED_EDGE('',*,*,#198,.T.);
#129=ORIENTED_EDGE('',*,*,#199,.T.);
#130=ORIENTED_EDGE('',*,*,#200,.F.);
#131=ORIENTED_EDGE('',*,*,#200,.T.);
#132=ORIENTED_EDGE('',*,*,#201,.F.);
#133=ORIENTED_EDGE('',*,*,#198,.F.);
#134=ORIENTED_EDGE('',*,*,#197,.T.);
#135=ORIENTED_EDGE('',*,*,#202,.T.);
#136=ORIENTED_EDGE('',*,*,#202,.F.);
#137=ORIENTED_EDGE('',*,*,#196,.T.);
#138=ORIENTED_EDGE('',*,*,#203,.T.);
#139=ORIENTED_EDGE('',*,*,#204,.F.);
#140=ORIENTED_EDGE('',*,*,#201,.T.);
#141=ORIENTED_EDGE('',*,*,#205,.T.);
#142=ORIENTED_EDGE('',*,*,#204,.T.);
#143=ORIENTED_EDGE('',*,*,#206,.T.);
#144=ORIENTED_EDGE('',*,*,#205,.F.);
#145=ORIENTED_EDGE('',*,*,#199,.F.);
#146=ORIENTED_EDGE('',*,*,#207,.F.);
#147=ORIENTED_EDGE('',*,*,#206,.F.);
#148=ORIENTED_EDGE('',*,*,#203,.F.);
#149=ORIENTED_EDGE('',*,*,#207,.T.);
#150=ORIENTED_EDGE('',*,*,#208,.F.);
#151=ORIENTED_EDGE('',*,*,#208,.T.);
#152=ORIENTED_EDGE('',*,*,#209,.T.);
#153=ORIENTED_EDGE('',*,*,#210,.T.);
#154=ORIENTED_EDGE('',*,*,#211,.F.);
#155=ORIENTED_EDGE('',*,*,#212,.F.);
#156=ORIENTED_EDGE('',*,*,#213,.F.);
#157=ORIENTED_EDGE('',*,*,#210,.F.);
#158=ORIENTED_EDGE('',*,*,#214,.T.);
#159=ORIENTED_EDGE('',*,*,#214,.F.);
#160=ORIENTED_EDGE('',*,*,#209,.F.);
#161=ORIENTED_EDGE('',*,*,#213,.T.);
#162=ORIENTED_EDGE('',*,*,#215,.T.);
#163=ORIENTED_EDGE('',*,*,#216,.T.);
#164=ORIENTED_EDGE('',*,*,#217,.F.);
#165=ORIENTED_EDGE('',*,*,#211,.T.);
#166=ORIENTED_EDGE('',*,*,#218,.T.);
#167=ORIENTED_EDGE('',*,*,#216,.F.);
#168=ORIENTED_EDGE('',*,*,#218,.F.);
#169=ORIENTED_EDGE('',*,*,#212,.T.);
#170=ORIENTED_EDGE('',*,*,#217,.T.);
#171=ORIENTED_EDGE('',*,*,#215,.F.);
#172=VERTEX_POINT('',#377);
#173=VERTEX_POINT('',#378);
#174=VERTEX_POINT('',#382);
#175=VERTEX_POINT('',#384);
#176=VERTEX_POINT('',#390);
#177=VERTEX_POINT('',#392);
#178=VERTEX_POINT('',#394);
#179=VERTEX_POINT('',#397);
#180=VERTEX_POINT('',#400);
#181=VERTEX_POINT('',#401);
#182=VERTEX_POINT('',#408);
#183=VERTEX_POINT('',#411);
#184=VERTEX_POINT('',#414);
#185=VERTEX_POINT('',#415);
#186=VERTEX_POINT('',#419);
#187=VERTEX_POINT('',#420);
#188=VERTEX_POINT('',#423);
#189=VERTEX_POINT('',#425);
#190=VERTEX_POINT('',#428);
#191=VERTEX_POINT('',#429);
#192=EDGE_CURVE('',#172,#173,#219,.T.);
#193=EDGE_CURVE('',#173,#172,#220,.T.);
#194=EDGE_CURVE('',#172,#174,#57,.T.);
#195=EDGE_CURVE('',#173,#175,#58,.T.);
#196=EDGE_CURVE('',#174,#175,#221,.T.);
#197=EDGE_CURVE('',#175,#174,#222,.T.);
#198=EDGE_CURVE('',#175,#176,#59,.T.);
#199=EDGE_CURVE('',#176,#177,#223,.T.);
#200=EDGE_CURVE('',#178,#177,#60,.T.);
#201=EDGE_CURVE('',#176,#177,#224,.T.);
#202=EDGE_CURVE('',#174,#179,#61,.T.);
#203=EDGE_CURVE('',#180,#181,#225,.T.);
#204=EDGE_CURVE('',#176,#181,#226,.T.);
#205=EDGE_CURVE('',#177,#180,#227,.T.);
#206=EDGE_CURVE('',#181,#180,#228,.T.);
#207=EDGE_CURVE('',#182,#182,#229,.T.);
#208=EDGE_CURVE('',#183,#183,#230,.T.);
#209=EDGE_CURVE('',#184,#185,#231,.T.);
#210=EDGE_CURVE('',#185,#184,#232,.T.);
#211=EDGE_CURVE('',#186,#187,#233,.T.);
#212=EDGE_CURVE('',#187,#186,#234,.T.);
#213=EDGE_CURVE('',#184,#188,#62,.T.);
#214=EDGE_CURVE('',#185,#189,#63,.T.);
#215=EDGE_CURVE('',#190,#191,#235,.T.);
#216=EDGE_CURVE('',#191,#190,#236,.T.);
#217=EDGE_CURVE('',#186,#191,#64,.T.);
#218=EDGE_CURVE('',#187,#190,#65,.T.);
#219=CIRCLE('',#262,15.0000000000043);
#220=CIRCLE('',#263,15.0000000000043);
#221=CIRCLE('',#265,21.);
#222=CIRCLE('',#267,21.);
#223=CIRCLE('',#269,21.);
#224=CIRCLE('',#270,21.);
#225=CIRCLE('',#272,25.);
#226=CIRCLE('',#273,4.);
#227=CIRCLE('',#274,4.);
#228=CIRCLE('',#276,25.);
#229=CIRCLE('',#278,31.5);
#230=CIRCLE('',#280,31.5);
#231=CIRCLE('',#282,22.4583320508297);
#232=CIRCLE('',#283,22.4583320508297);
#233=CIRCLE('',#285,12.5);
#234=CIRCLE('',#286,12.5);
#235=CIRCLE('',#288,12.5);
#236=CIRCLE('',#289,12.5);
#237=INVISIBILITY((#238,#239,#240));
#238=PRESENTATION_LAYER_ASSIGNMENT('100','Layer 100',(#259));
#239=PRESENTATION_LAYER_ASSIGNMENT('101','Layer 101',(#260));
#240=PRESENTATION_LAYER_ASSIGNMENT('102','Layer 102',(#261));
#241=PRESENTATION_LAYER_ASSIGNMENT('98','Layer 98',(#38));
#242=STYLED_ITEM('',(#246),#259);
#243=STYLED_ITEM('',(#247),#260);
#244=STYLED_ITEM('',(#248),#261);
#245=STYLED_ITEM('',(#249),#38);
#246=PRESENTATION_STYLE_ASSIGNMENT((#250));
#247=PRESENTATION_STYLE_ASSIGNMENT((#251));
#248=PRESENTATION_STYLE_ASSIGNMENT((#252));
#249=PRESENTATION_STYLE_ASSIGNMENT((#33));
#250=CURVE_STYLE('',#255,POSITIVE_LENGTH_MEASURE(0.7),#253);
#251=CURVE_STYLE('',#256,POSITIVE_LENGTH_MEASURE(0.7),#253);
#252=CURVE_STYLE('',#257,POSITIVE_LENGTH_MEASURE(0.7),#253);
#253=COLOUR_RGB('Medium Maroon',0.6,0.4,0.4);
#254=COLOUR_RGB('Medium Gray',0.490196078431373,0.490196078431373,0.490196078431373);
#255=DRAUGHTING_PRE_DEFINED_CURVE_FONT('continuous');
#256=DRAUGHTING_PRE_DEFINED_CURVE_FONT('continuous');
#257=DRAUGHTING_PRE_DEFINED_CURVE_FONT('continuous');
#258=AXIS2_PLACEMENT_3D('',#372,#293,#294);
#259=AXIS2_PLACEMENT_3D('PCS',#373,#295,#296);
#260=AXIS2_PLACEMENT_3D('CSW',#374,#297,#298);
#261=AXIS2_PLACEMENT_3D('MCS',#375,#299,#300);
#262=AXIS2_PLACEMENT_3D('',#376,#301,#302);
#263=AXIS2_PLACEMENT_3D('',#379,#303,#304);
#264=AXIS2_PLACEMENT_3D('',#380,#305,#306);
#265=AXIS2_PLACEMENT_3D('',#385,#309,#310);
#266=AXIS2_PLACEMENT_3D('',#386,#311,#312);
#267=AXIS2_PLACEMENT_3D('',#387,#313,#314);
#268=AXIS2_PLACEMENT_3D('',#388,#315,#316);
#269=AXIS2_PLACEMENT_3D('',#391,#318,#319);
#270=AXIS2_PLACEMENT_3D('',#395,#321,#322);
#271=AXIS2_PLACEMENT_3D('',#398,#324,#325);
#272=AXIS2_PLACEMENT_3D('',#399,#326,#327);
#273=AXIS2_PLACEMENT_3D('',#402,#328,#329);
#274=AXIS2_PLACEMENT_3D('',#403,#330,#331);
#275=AXIS2_PLACEMENT_3D('',#404,#332,#333);
#276=AXIS2_PLACEMENT_3D('',#405,#334,#335);
#277=AXIS2_PLACEMENT_3D('',#406,#336,#337);
#278=AXIS2_PLACEMENT_3D('',#407,#338,#339);
#279=AXIS2_PLACEMENT_3D('',#409,#340,#341);
#280=AXIS2_PLACEMENT_3D('',#410,#342,#343);
#281=AXIS2_PLACEMENT_3D('',#412,#344,#345);
#282=AXIS2_PLACEMENT_3D('',#413,#346,#347);
#283=AXIS2_PLACEMENT_3D('',#416,#348,#349);
#284=AXIS2_PLACEMENT_3D('',#417,#350,#351);
#285=AXIS2_PLACEMENT_3D('',#418,#352,#353);
#286=AXIS2_PLACEMENT_3D('',#421,#354,#355);
#287=AXIS2_PLACEMENT_3D('',#426,#358,#359);
#288=AXIS2_PLACEMENT_3D('',#427,#360,#361);
#289=AXIS2_PLACEMENT_3D('',#430,#362,#363);
#290=AXIS2_PLACEMENT_3D('',#431,#364,#365);
#291=AXIS2_PLACEMENT_3D('',#434,#368,#369);
#292=AXIS2_PLACEMENT_3D('',#435,#370,#371);
#293=DIRECTION('',(0.,0.,1.));
#294=DIRECTION('',(1.,0.,0.));
#295=DIRECTION('',(0.,0.,1.));
#296=DIRECTION('',(1.,0.,0.));
#297=DIRECTION('',(0.,0.,1.));
#298=DIRECTION('',(1.,0.,0.));
#299=DIRECTION('',(0.,0.,1.));
#300=DIRECTION('',(1.,0.,0.));
#301=DIRECTION('',(0.,0.,1.));
#302=DIRECTION('',(-1.,0.,0.));
#303=DIRECTION('',(0.,0.,1.));
#304=DIRECTION('',(-1.,0.,0.));
#305=DIRECTION('',(0.,0.,-1.));
#306=DIRECTION('',(0.,1.,0.));
#307=DIRECTION('',(8.7429565626966E-13,-0.422618261740681,0.906307787036659));
#308=DIRECTION('',(-8.7383431409756E-13,0.422618261740681,0.906307787036659));
#309=DIRECTION('',(0.,0.,1.));
#310=DIRECTION('',(1.,0.,0.));
#311=DIRECTION('',(0.,0.,1.));
#312=DIRECTION('',(0.,-1.,-5.72890358570435E-17));
#313=DIRECTION('',(0.,0.,1.));
#314=DIRECTION('',(1.,0.,0.));
#315=DIRECTION('',(0.,0.,1.));
#316=DIRECTION('',(0.,-1.,-5.72890358570435E-17));
#317=DIRECTION('',(6.237220195606E-13,0.,1.));
#318=DIRECTION('',(0.,0.,-1.));
#319=DIRECTION('',(0.,1.,0.));
#320=DIRECTION('',(0.,0.,1.));
#321=DIRECTION('',(0.,0.,1.));
#322=DIRECTION('',(0.,1.,0.));
#323=DIRECTION('',(-7.901272457914E-12,0.,1.));
#324=DIRECTION('',(0.,0.,-1.));
#325=DIRECTION('',(0.,1.,0.));
#326=DIRECTION('',(0.,0.,-1.));
#327=DIRECTION('',(0.,-1.,0.));
#328=DIRECTION('',(-1.,0.,0.));
#329=DIRECTION('',(0.,-1.,0.));
#330=DIRECTION('',(1.,0.,0.));
#331=DIRECTION('',(0.,1.,0.));
#332=DIRECTION('',(0.,0.,-1.));
#333=DIRECTION('',(0.,1.,0.));
#334=DIRECTION('',(0.,0.,-1.));
#335=DIRECTION('',(0.94673966854674,-0.322000000000014,0.));
#336=DIRECTION('',(0.,0.,-1.));
#337=DIRECTION('',(0.,1.,0.));
#338=DIRECTION('',(0.,0.,1.));
#339=DIRECTION('',(-1.,0.,0.));
#340=DIRECTION('',(0.,0.,-1.));
#341=DIRECTION('',(0.,1.,0.));
#342=DIRECTION('',(0.,0.,1.));
#343=DIRECTION('',(-1.,0.,0.));
#344=DIRECTION('',(0.,0.,-1.));
#345=DIRECTION('',(0.,1.,0.));
#346=DIRECTION('',(0.,0.,-1.));
#347=DIRECTION('',(-1.,0.,0.));
#348=DIRECTION('',(0.,0.,-1.));
#349=DIRECTION('',(-1.,0.,0.));
#350=DIRECTION('',(0.,0.,-1.));
#351=DIRECTION('',(0.,1.,0.));
#352=DIRECTION('',(0.,0.,1.));
#353=DIRECTION('',(-1.,0.,0.));
#354=DIRECTION('',(0.,0.,1.));
#355=DIRECTION('',(-1.,0.,0.));
#356=DIRECTION('',(0.,-0.144306116415197,0.989533094325381));
#357=DIRECTION('',(0.,0.144306116415197,0.989533094325381));
#358=DIRECTION('',(0.,0.,-1.));
#359=DIRECTION('',(0.,1.,2.55013198898809E-16));
#360=DIRECTION('',(0.,0.,1.));
#361=DIRECTION('',(-1.,0.,0.));
#362=DIRECTION('',(0.,0.,1.));
#363=DIRECTION('',(-1.,0.,0.));
#364=DIRECTION('',(0.,0.,-1.));
#365=DIRECTION('',(0.,1.,0.));
#366=DIRECTION('',(2.114908338869E-13,0.,1.));
#367=DIRECTION('',(-2.114902063601E-13,0.,1.));
#368=DIRECTION('',(0.,0.,-1.));
#369=DIRECTION('',(0.,1.,0.));
#370=DIRECTION('',(0.,0.,-1.));
#371=DIRECTION('',(0.,1.,0.));
#372=CARTESIAN_POINT('',(0.,0.,0.));
#373=CARTESIAN_POINT('',(0.,0.,0.));
#374=CARTESIAN_POINT('',(0.,0.,-50.));
#375=CARTESIAN_POINT('',(0.,0.,0.));
#376=CARTESIAN_POINT('',(0.,0.,-50.));
#377=CARTESIAN_POINT('',(-9.83077992559174E-13,-15.0000000000011,-50.));
#378=CARTESIAN_POINT('',(9.85463099480271E-13,15.0000000000011,-50.));
#379=CARTESIAN_POINT('',(0.,0.,-50.));
#380=CARTESIAN_POINT('',(0.,0.,-50.));
#381=CARTESIAN_POINT('',(1.308975309673E-13,-15.53847505246,-48.84523652348));
#382=CARTESIAN_POINT('',(8.32704311049581E-12,-21.,-37.1329584769447));
#383=CARTESIAN_POINT('',(-1.279246092904E-13,15.53847505246,-48.84523652348));
#384=CARTESIAN_POINT('',(-6.71400429004132E-12,21.,-37.1329584769447));
#385=CARTESIAN_POINT('',(0.,0.,-37.1329584769519));
#386=CARTESIAN_POINT('',(0.,0.,-43.19002109931));
#387=CARTESIAN_POINT('',(0.,0.,-37.1329584769519));
#388=CARTESIAN_POINT('',(0.,0.,-43.19002109931));
#389=CARTESIAN_POINT('',(-1.315145689466E-11,21.,-36.68956915166));
#390=CARTESIAN_POINT('',(0.,21.,-15.6));
#391=CARTESIAN_POINT('',(0.,0.,-15.6));
#392=CARTESIAN_POINT('',(0.,-21.,-15.6));
#393=CARTESIAN_POINT('',(0.,-21.,-19.975));
#394=CARTESIAN_POINT('',(0.,-21.,-19.975));
#395=CARTESIAN_POINT('',(0.,0.,-15.6));
#396=CARTESIAN_POINT('',(1.315074635693E-11,-21.,-36.68956915166));
#397=CARTESIAN_POINT('',(-3.67008843612142E-16,-21.,-35.025));
#398=CARTESIAN_POINT('',(0.,0.,-9.68));
#399=CARTESIAN_POINT('',(0.,0.,-11.6));
#400=CARTESIAN_POINT('',(0.,-25.,-11.6));
#401=CARTESIAN_POINT('',(0.,25.,-11.6));
#402=CARTESIAN_POINT('',(0.,25.,-15.6));
#403=CARTESIAN_POINT('',(0.,-25.,-15.6));
#404=CARTESIAN_POINT('',(0.,0.,-15.6));
#405=CARTESIAN_POINT('',(0.,0.,-11.6));
#406=CARTESIAN_POINT('',(0.,0.,-15.6));
#407=CARTESIAN_POINT('',(0.,0.,-11.6));
#408=CARTESIAN_POINT('',(-31.5,0.,-11.6));
#409=CARTESIAN_POINT('',(0.,0.,-11.6));
#410=CARTESIAN_POINT('',(0.,0.,-1.6));
#411=CARTESIAN_POINT('',(-31.5,0.,-1.6));
#412=CARTESIAN_POINT('',(0.,0.,98.65));
#413=CARTESIAN_POINT('',(0.,0.,-1.6));
#414=CARTESIAN_POINT('',(0.,22.4583320508297,-1.6));
#415=CARTESIAN_POINT('',(2.7503524460237E-15,-22.4583320508297,-1.6));
#416=CARTESIAN_POINT('',(0.,0.,-1.6));
#417=CARTESIAN_POINT('',(0.,0.,-1.6));
#418=CARTESIAN_POINT('',(0.,0.,66.686080821567));
#419=CARTESIAN_POINT('',(0.,12.5,66.686080821567));
#420=CARTESIAN_POINT('',(7.65404249467096E-16,-12.5,66.686080821567));
#421=CARTESIAN_POINT('',(0.,0.,66.686080821567));
#422=CARTESIAN_POINT('',(0.,22.16666698729,0.400000000000001));
#423=CARTESIAN_POINT('',(0.,12.68755242227,65.4));
#424=CARTESIAN_POINT('',(0.,-22.16666698729,0.400000000000001));
#425=CARTESIAN_POINT('',(0.,-12.68755242227,65.4));
#426=CARTESIAN_POINT('',(0.,0.,32.9));
#427=CARTESIAN_POINT('',(0.,0.,93.4));
#428=CARTESIAN_POINT('',(-2.19180783021279E-12,-12.5,93.4));
#429=CARTESIAN_POINT('',(2.19181433367306E-12,12.5,93.4));
#430=CARTESIAN_POINT('',(0.,0.,93.4));
#431=CARTESIAN_POINT('',(0.,0.,93.4));
#432=CARTESIAN_POINT('',(0.,12.5,83.03636251562));
#433=CARTESIAN_POINT('',(0.,-12.5,83.03636251562));
#434=CARTESIAN_POINT('',(0.,0.,98.65));
#435=CARTESIAN_POINT('',(0.,0.,98.65));
#436=MECHANICAL_DESIGN_GEOMETRIC_PRESENTATION_REPRESENTATION('',(#242,#243,
#244,#245),#437);
#437=(
GEOMETRIC_REPRESENTATION_CONTEXT(3)
GLOBAL_UNCERTAINTY_ASSIGNED_CONTEXT((#438))
GLOBAL_UNIT_ASSIGNED_CONTEXT((#444,#440,#439))
REPRESENTATION_CONTEXT('2080.40-W.12','TOP_LEVEL_ASSEMBLY_PART')
);
#438=UNCERTAINTY_MEASURE_WITH_UNIT(LENGTH_MEASURE(2.E-5),#444,
'DISTANCE_ACCURACY_VALUE','Maximum Tolerance applied to model');
#439=(
NAMED_UNIT(*)
SI_UNIT($,.STERADIAN.)
SOLID_ANGLE_UNIT()
);
#440=(
CONVERSION_BASED_UNIT('DEGREE',#442)
NAMED_UNIT(#441)
PLANE_ANGLE_UNIT()
);
#441=DIMENSIONAL_EXPONENTS(0.,0.,0.,0.,0.,0.,0.);
#442=PLANE_ANGLE_MEASURE_WITH_UNIT(PLANE_ANGLE_MEASURE(0.0174532925),#443);
#443=(
NAMED_UNIT(*)
PLANE_ANGLE_UNIT()
SI_UNIT($,.RADIAN.)
);
#444=(
LENGTH_UNIT()
NAMED_UNIT(*)
SI_UNIT(.MILLI.,.METRE.)
);
ENDSEC;
END-ISO-10303-21;
