ISO-10303-21;
HEADER;
/* Generated by software containing ST-Developer
 * from STEP Tools, Inc. (www.steptools.com) 
 */
/* OPTION: using custom schema-name function */

FILE_DESCRIPTION(
/* description */ (''),
/* implementation_level */ '2;1');

FILE_NAME(
/* name */ '2080.40-QTCC.M5.M22.stp',
/* time_stamp */ '2024-06-21T17:53:48+02:00',
/* author */ (''),
/* organization */ (''),
/* preprocessor_version */ 'ST-DEVELOPER v16.7',
/* originating_system */ 'SIEMENS PLM Software NX 12.0',
/* authorisation */ '');

FILE_SCHEMA (('AUTOMOTIVE_DESIGN { 1 0 10303 214 3 1 1 1 }'));
ENDSEC;

DATA;
#10=CONSTRUCTIVE_GEOMETRY_REPRESENTATION_RELATIONSHIP(
'supplemental geometry','',#32,#11);
#11=CONSTRUCTIVE_GEOMETRY_REPRESENTATION('supplemental geometry',(#289,
#290,#291),#486);
#12=PROPERTY_DEFINITION_REPRESENTATION(#16,#14);
#13=PROPERTY_DEFINITION_REPRESENTATION(#17,#15);
#14=REPRESENTATION('',(#18),#486);
#15=REPRESENTATION('',(#19),#486);
#16=PROPERTY_DEFINITION('pmi validation property','',#23);
#17=PROPERTY_DEFINITION('pmi validation property','',#23);
#18=VALUE_REPRESENTATION_ITEM('number of annotations',COUNT_MEASURE(0.));
#19=VALUE_REPRESENTATION_ITEM('number of views',COUNT_MEASURE(0.));
#20=SHAPE_REPRESENTATION_RELATIONSHIP('None',
'relationship between pf660940E230f046-None and pf660940E230f046-None',
#32,#21);
#21=ADVANCED_BREP_SHAPE_REPRESENTATION('pf660940E230f046-None',(#38),#486);
#22=SHAPE_DEFINITION_REPRESENTATION(#23,#32);
#23=PRODUCT_DEFINITION_SHAPE('','',#24);
#24=PRODUCT_DEFINITION(' ','',#26,#25);
#25=PRODUCT_DEFINITION_CONTEXT('part definition',#31,'design');
#26=PRODUCT_DEFINITION_FORMATION_WITH_SPECIFIED_SOURCE(' ',' ',#28,
 .NOT_KNOWN.);
#27=PRODUCT_RELATED_PRODUCT_CATEGORY('part','',(#28));
#28=PRODUCT('pf660940E230f046','pf660940E230f046',' ',(#29));
#29=PRODUCT_CONTEXT(' ',#31,'mechanical');
#30=APPLICATION_PROTOCOL_DEFINITION('international standard',
'automotive_design',2010,#31);
#31=APPLICATION_CONTEXT(
'core data for automotive mechanical design processes');
#32=SHAPE_REPRESENTATION('pf660940E230f046-None',(#288),#486);
#33=SURFACE_STYLE_USAGE(.BOTH.,#34);
#34=SURFACE_SIDE_STYLE('',(#35));
#35=SURFACE_STYLE_FILL_AREA(#36);
#36=FILL_AREA_STYLE('',(#37));
#37=FILL_AREA_STYLE_COLOUR('',#284);
#38=BREP_WITH_VOIDS('',#40,(#39));
#39=ORIENTED_CLOSED_SHELL('',*,#41,.F.);
#40=CLOSED_SHELL('',(#78,#79,#80,#81,#82,#83,#84,#85,#86,#87,#88,#89));
#41=CLOSED_SHELL('',(#90,#91,#92));
#42=CONICAL_SURFACE('',#308,17.42710970478,8.2971);
#43=LINE('',#436,#53);
#44=LINE('',#440,#54);
#45=LINE('',#444,#55);
#46=LINE('',#446,#56);
#47=LINE('',#454,#57);
#48=LINE('',#458,#58);
#49=LINE('',#467,#59);
#50=LINE('',#469,#60);
#51=LINE('',#471,#61);
#52=LINE('',#473,#62);
#53=VECTOR('',#358,1.);
#54=VECTOR('',#361,1.);
#55=VECTOR('',#368,1.);
#56=VECTOR('',#369,1.);
#57=VECTOR('',#378,1.);
#58=VECTOR('',#381,1.);
#59=VECTOR('',#394,1.);
#60=VECTOR('',#395,1.);
#61=VECTOR('',#396,1.);
#62=VECTOR('',#397,1.);
#63=FACE_OUTER_BOUND('',#120,.T.);
#64=FACE_OUTER_BOUND('',#121,.T.);
#65=FACE_OUTER_BOUND('',#122,.T.);
#66=FACE_OUTER_BOUND('',#125,.T.);
#67=FACE_OUTER_BOUND('',#126,.T.);
#68=FACE_OUTER_BOUND('',#127,.T.);
#69=FACE_OUTER_BOUND('',#134,.F.);
#70=FACE_OUTER_BOUND('',#135,.F.);
#71=CYLINDRICAL_SURFACE('',#300,31.5);
#72=CYLINDRICAL_SURFACE('',#305,12.5);
#73=CYLINDRICAL_SURFACE('',#307,12.5);
#74=CYLINDRICAL_SURFACE('',#313,27.);
#75=CYLINDRICAL_SURFACE('',#315,27.);
#76=CYLINDRICAL_SURFACE('',#319,25.);
#77=CYLINDRICAL_SURFACE('',#323,25.05);
#78=ADVANCED_FACE('',(#100,#101),#93,.F.);
#79=ADVANCED_FACE('',(#102,#103),#94,.T.);
#80=ADVANCED_FACE('',(#104,#105),#71,.T.);
#81=ADVANCED_FACE('',(#63),#95,.F.);
#82=ADVANCED_FACE('',(#64),#72,.T.);
#83=ADVANCED_FACE('',(#65),#73,.T.);
#84=ADVANCED_FACE('',(#106,#107),#42,.T.);
#85=ADVANCED_FACE('',(#66),#96,.T.);
#86=ADVANCED_FACE('',(#67),#74,.T.);
#87=ADVANCED_FACE('',(#68),#75,.T.);
#88=ADVANCED_FACE('',(#108,#109),#97,.F.);
#89=ADVANCED_FACE('',(#110,#111),#76,.T.);
#90=ADVANCED_FACE('',(#112,#113),#77,.T.);
#91=ADVANCED_FACE('',(#69),#98,.F.);
#92=ADVANCED_FACE('',(#70),#99,.T.);
#93=PLANE('',#295);
#94=PLANE('',#299);
#95=PLANE('',#303);
#96=PLANE('',#311);
#97=PLANE('',#318);
#98=PLANE('',#324);
#99=PLANE('',#325);
#100=FACE_BOUND('',#114,.T.);
#101=FACE_BOUND('',#115,.T.);
#102=FACE_BOUND('',#116,.T.);
#103=FACE_BOUND('',#117,.T.);
#104=FACE_BOUND('',#118,.T.);
#105=FACE_BOUND('',#119,.T.);
#106=FACE_BOUND('',#123,.T.);
#107=FACE_BOUND('',#124,.T.);
#108=FACE_BOUND('',#128,.T.);
#109=FACE_BOUND('',#129,.T.);
#110=FACE_BOUND('',#130,.T.);
#111=FACE_BOUND('',#131,.T.);
#112=FACE_BOUND('',#132,.F.);
#113=FACE_BOUND('',#133,.F.);
#114=EDGE_LOOP('',(#136));
#115=EDGE_LOOP('',(#137,#138));
#116=EDGE_LOOP('',(#139,#140));
#117=EDGE_LOOP('',(#141));
#118=EDGE_LOOP('',(#142));
#119=EDGE_LOOP('',(#143));
#120=EDGE_LOOP('',(#144,#145));
#121=EDGE_LOOP('',(#146,#147,#148,#149));
#122=EDGE_LOOP('',(#150,#151,#152,#153));
#123=EDGE_LOOP('',(#154,#155));
#124=EDGE_LOOP('',(#156,#157,#158,#159,#160,#161));
#125=EDGE_LOOP('',(#162,#163));
#126=EDGE_LOOP('',(#164,#165,#166,#167));
#127=EDGE_LOOP('',(#168,#169,#170,#171));
#128=EDGE_LOOP('',(#172,#173));
#129=EDGE_LOOP('',(#174,#175));
#130=EDGE_LOOP('',(#176,#177,#178,#179,#180,#181));
#131=EDGE_LOOP('',(#182,#183,#184,#185,#186,#187));
#132=EDGE_LOOP('',(#188));
#133=EDGE_LOOP('',(#189,#190));
#134=EDGE_LOOP('',(#191,#192));
#135=EDGE_LOOP('',(#193));
#136=ORIENTED_EDGE('',*,*,#219,.F.);
#137=ORIENTED_EDGE('',*,*,#220,.T.);
#138=ORIENTED_EDGE('',*,*,#221,.T.);
#139=ORIENTED_EDGE('',*,*,#222,.F.);
#140=ORIENTED_EDGE('',*,*,#223,.F.);
#141=ORIENTED_EDGE('',*,*,#224,.T.);
#142=ORIENTED_EDGE('',*,*,#219,.T.);
#143=ORIENTED_EDGE('',*,*,#224,.F.);
#144=ORIENTED_EDGE('',*,*,#225,.T.);
#145=ORIENTED_EDGE('',*,*,#226,.T.);
#146=ORIENTED_EDGE('',*,*,#227,.F.);
#147=ORIENTED_EDGE('',*,*,#228,.T.);
#148=ORIENTED_EDGE('',*,*,#229,.T.);
#149=ORIENTED_EDGE('',*,*,#225,.F.);
#150=ORIENTED_EDGE('',*,*,#229,.F.);
#151=ORIENTED_EDGE('',*,*,#230,.T.);
#152=ORIENTED_EDGE('',*,*,#227,.T.);
#153=ORIENTED_EDGE('',*,*,#226,.F.);
#154=ORIENTED_EDGE('',*,*,#230,.F.);
#155=ORIENTED_EDGE('',*,*,#228,.F.);
#156=ORIENTED_EDGE('',*,*,#231,.T.);
#157=ORIENTED_EDGE('',*,*,#231,.F.);
#158=ORIENTED_EDGE('',*,*,#221,.F.);
#159=ORIENTED_EDGE('',*,*,#232,.T.);
#160=ORIENTED_EDGE('',*,*,#232,.F.);
#161=ORIENTED_EDGE('',*,*,#220,.F.);
#162=ORIENTED_EDGE('',*,*,#233,.T.);
#163=ORIENTED_EDGE('',*,*,#234,.T.);
#164=ORIENTED_EDGE('',*,*,#233,.F.);
#165=ORIENTED_EDGE('',*,*,#235,.T.);
#166=ORIENTED_EDGE('',*,*,#236,.F.);
#167=ORIENTED_EDGE('',*,*,#237,.F.);
#168=ORIENTED_EDGE('',*,*,#234,.F.);
#169=ORIENTED_EDGE('',*,*,#237,.T.);
#170=ORIENTED_EDGE('',*,*,#238,.F.);
#171=ORIENTED_EDGE('',*,*,#235,.F.);
#172=ORIENTED_EDGE('',*,*,#238,.T.);
#173=ORIENTED_EDGE('',*,*,#236,.T.);
#174=ORIENTED_EDGE('',*,*,#239,.T.);
#175=ORIENTED_EDGE('',*,*,#240,.T.);
#176=ORIENTED_EDGE('',*,*,#241,.T.);
#177=ORIENTED_EDGE('',*,*,#223,.T.);
#178=ORIENTED_EDGE('',*,*,#242,.F.);
#179=ORIENTED_EDGE('',*,*,#242,.T.);
#180=ORIENTED_EDGE('',*,*,#222,.T.);
#181=ORIENTED_EDGE('',*,*,#241,.F.);
#182=ORIENTED_EDGE('',*,*,#243,.T.);
#183=ORIENTED_EDGE('',*,*,#243,.F.);
#184=ORIENTED_EDGE('',*,*,#239,.F.);
#185=ORIENTED_EDGE('',*,*,#244,.T.);
#186=ORIENTED_EDGE('',*,*,#244,.F.);
#187=ORIENTED_EDGE('',*,*,#240,.F.);
#188=ORIENTED_EDGE('',*,*,#245,.F.);
#189=ORIENTED_EDGE('',*,*,#246,.F.);
#190=ORIENTED_EDGE('',*,*,#247,.F.);
#191=ORIENTED_EDGE('',*,*,#247,.T.);
#192=ORIENTED_EDGE('',*,*,#246,.T.);
#193=ORIENTED_EDGE('',*,*,#245,.T.);
#194=VERTEX_POINT('',#417);
#195=VERTEX_POINT('',#419);
#196=VERTEX_POINT('',#420);
#197=VERTEX_POINT('',#424);
#198=VERTEX_POINT('',#425);
#199=VERTEX_POINT('',#428);
#200=VERTEX_POINT('',#432);
#201=VERTEX_POINT('',#433);
#202=VERTEX_POINT('',#437);
#203=VERTEX_POINT('',#439);
#204=VERTEX_POINT('',#445);
#205=VERTEX_POINT('',#447);
#206=VERTEX_POINT('',#450);
#207=VERTEX_POINT('',#451);
#208=VERTEX_POINT('',#455);
#209=VERTEX_POINT('',#457);
#210=VERTEX_POINT('',#463);
#211=VERTEX_POINT('',#464);
#212=VERTEX_POINT('',#468);
#213=VERTEX_POINT('',#470);
#214=VERTEX_POINT('',#472);
#215=VERTEX_POINT('',#474);
#216=VERTEX_POINT('',#477);
#217=VERTEX_POINT('',#479);
#218=VERTEX_POINT('',#480);
#219=EDGE_CURVE('',#194,#194,#248,.T.);
#220=EDGE_CURVE('',#195,#196,#249,.T.);
#221=EDGE_CURVE('',#196,#195,#250,.T.);
#222=EDGE_CURVE('',#197,#198,#251,.T.);
#223=EDGE_CURVE('',#198,#197,#252,.T.);
#224=EDGE_CURVE('',#199,#199,#253,.T.);
#225=EDGE_CURVE('',#200,#201,#254,.T.);
#226=EDGE_CURVE('',#201,#200,#255,.T.);
#227=EDGE_CURVE('',#202,#200,#43,.T.);
#228=EDGE_CURVE('',#202,#203,#256,.T.);
#229=EDGE_CURVE('',#203,#201,#44,.T.);
#230=EDGE_CURVE('',#203,#202,#257,.T.);
#231=EDGE_CURVE('',#195,#204,#45,.T.);
#232=EDGE_CURVE('',#196,#205,#46,.T.);
#233=EDGE_CURVE('',#206,#207,#258,.T.);
#234=EDGE_CURVE('',#207,#206,#259,.T.);
#235=EDGE_CURVE('',#206,#208,#47,.T.);
#236=EDGE_CURVE('',#209,#208,#260,.T.);
#237=EDGE_CURVE('',#207,#209,#48,.T.);
#238=EDGE_CURVE('',#208,#209,#261,.T.);
#239=EDGE_CURVE('',#210,#211,#262,.T.);
#240=EDGE_CURVE('',#211,#210,#263,.T.);
#241=EDGE_CURVE('',#212,#198,#49,.T.);
#242=EDGE_CURVE('',#213,#197,#50,.T.);
#243=EDGE_CURVE('',#211,#214,#51,.T.);
#244=EDGE_CURVE('',#210,#215,#52,.T.);
#245=EDGE_CURVE('',#216,#216,#264,.T.);
#246=EDGE_CURVE('',#217,#218,#265,.T.);
#247=EDGE_CURVE('',#218,#217,#266,.T.);
#248=CIRCLE('',#292,31.5);
#249=CIRCLE('',#293,22.4583320508297);
#250=CIRCLE('',#294,22.4583320508297);
#251=CIRCLE('',#296,25.);
#252=CIRCLE('',#297,25.);
#253=CIRCLE('',#298,31.5);
#254=CIRCLE('',#301,12.5);
#255=CIRCLE('',#302,12.5);
#256=CIRCLE('',#304,12.5);
#257=CIRCLE('',#306,12.5);
#258=CIRCLE('',#309,27.);
#259=CIRCLE('',#310,27.);
#260=CIRCLE('',#312,27.);
#261=CIRCLE('',#314,27.);
#262=CIRCLE('',#316,25.);
#263=CIRCLE('',#317,25.);
#264=CIRCLE('',#320,25.05);
#265=CIRCLE('',#321,25.05);
#266=CIRCLE('',#322,25.05);
#267=INVISIBILITY((#268,#269,#270));
#268=PRESENTATION_LAYER_ASSIGNMENT('100','Layer 100',(#289));
#269=PRESENTATION_LAYER_ASSIGNMENT('101','Layer 101',(#290));
#270=PRESENTATION_LAYER_ASSIGNMENT('102','Layer 102',(#291));
#271=PRESENTATION_LAYER_ASSIGNMENT('98','Layer 98',(#38));
#272=STYLED_ITEM('',(#276),#289);
#273=STYLED_ITEM('',(#277),#290);
#274=STYLED_ITEM('',(#278),#291);
#275=STYLED_ITEM('',(#279),#38);
#276=PRESENTATION_STYLE_ASSIGNMENT((#280));
#277=PRESENTATION_STYLE_ASSIGNMENT((#281));
#278=PRESENTATION_STYLE_ASSIGNMENT((#282));
#279=PRESENTATION_STYLE_ASSIGNMENT((#33));
#280=CURVE_STYLE('',#285,POSITIVE_LENGTH_MEASURE(0.7),#283);
#281=CURVE_STYLE('',#286,POSITIVE_LENGTH_MEASURE(0.7),#283);
#282=CURVE_STYLE('',#287,POSITIVE_LENGTH_MEASURE(0.7),#283);
#283=COLOUR_RGB('Medium Maroon',0.6,0.4,0.4);
#284=COLOUR_RGB('Medium Gray',0.490196078431373,0.490196078431373,0.490196078431373);
#285=DRAUGHTING_PRE_DEFINED_CURVE_FONT('continuous');
#286=DRAUGHTING_PRE_DEFINED_CURVE_FONT('continuous');
#287=DRAUGHTING_PRE_DEFINED_CURVE_FONT('continuous');
#288=AXIS2_PLACEMENT_3D('',#412,#326,#327);
#289=AXIS2_PLACEMENT_3D('PCS',#413,#328,#329);
#290=AXIS2_PLACEMENT_3D('CSW',#414,#330,#331);
#291=AXIS2_PLACEMENT_3D('MCS',#415,#332,#333);
#292=AXIS2_PLACEMENT_3D('',#416,#334,#335);
#293=AXIS2_PLACEMENT_3D('',#418,#336,#337);
#294=AXIS2_PLACEMENT_3D('',#421,#338,#339);
#295=AXIS2_PLACEMENT_3D('',#422,#340,#341);
#296=AXIS2_PLACEMENT_3D('',#423,#342,#343);
#297=AXIS2_PLACEMENT_3D('',#426,#344,#345);
#298=AXIS2_PLACEMENT_3D('',#427,#346,#347);
#299=AXIS2_PLACEMENT_3D('',#429,#348,#349);
#300=AXIS2_PLACEMENT_3D('',#430,#350,#351);
#301=AXIS2_PLACEMENT_3D('',#431,#352,#353);
#302=AXIS2_PLACEMENT_3D('',#434,#354,#355);
#303=AXIS2_PLACEMENT_3D('',#435,#356,#357);
#304=AXIS2_PLACEMENT_3D('',#438,#359,#360);
#305=AXIS2_PLACEMENT_3D('',#441,#362,#363);
#306=AXIS2_PLACEMENT_3D('',#442,#364,#365);
#307=AXIS2_PLACEMENT_3D('',#443,#366,#367);
#308=AXIS2_PLACEMENT_3D('',#448,#370,#371);
#309=AXIS2_PLACEMENT_3D('',#449,#372,#373);
#310=AXIS2_PLACEMENT_3D('',#452,#374,#375);
#311=AXIS2_PLACEMENT_3D('',#453,#376,#377);
#312=AXIS2_PLACEMENT_3D('',#456,#379,#380);
#313=AXIS2_PLACEMENT_3D('',#459,#382,#383);
#314=AXIS2_PLACEMENT_3D('',#460,#384,#385);
#315=AXIS2_PLACEMENT_3D('',#461,#386,#387);
#316=AXIS2_PLACEMENT_3D('',#462,#388,#389);
#317=AXIS2_PLACEMENT_3D('',#465,#390,#391);
#318=AXIS2_PLACEMENT_3D('',#466,#392,#393);
#319=AXIS2_PLACEMENT_3D('',#475,#398,#399);
#320=AXIS2_PLACEMENT_3D('',#476,#400,#401);
#321=AXIS2_PLACEMENT_3D('',#478,#402,#403);
#322=AXIS2_PLACEMENT_3D('',#481,#404,#405);
#323=AXIS2_PLACEMENT_3D('',#482,#406,#407);
#324=AXIS2_PLACEMENT_3D('',#483,#408,#409);
#325=AXIS2_PLACEMENT_3D('',#484,#410,#411);
#326=DIRECTION('',(0.,0.,1.));
#327=DIRECTION('',(1.,0.,0.));
#328=DIRECTION('',(0.,0.,1.));
#329=DIRECTION('',(1.,0.,0.));
#330=DIRECTION('',(0.,0.,1.));
#331=DIRECTION('',(1.,0.,0.));
#332=DIRECTION('',(0.,0.,1.));
#333=DIRECTION('',(1.,0.,0.));
#334=DIRECTION('',(0.,0.,-1.));
#335=DIRECTION('',(-1.,0.,0.));
#336=DIRECTION('',(0.,0.,-1.));
#337=DIRECTION('',(-1.,0.,0.));
#338=DIRECTION('',(0.,0.,-1.));
#339=DIRECTION('',(-1.,0.,0.));
#340=DIRECTION('',(0.,0.,-1.));
#341=DIRECTION('',(0.,1.,0.));
#342=DIRECTION('',(0.,0.,-1.));
#343=DIRECTION('',(-1.,0.,0.));
#344=DIRECTION('',(0.,0.,-1.));
#345=DIRECTION('',(-1.,0.,0.));
#346=DIRECTION('',(0.,0.,-1.));
#347=DIRECTION('',(-1.,0.,0.));
#348=DIRECTION('',(0.,0.,-1.));
#349=DIRECTION('',(0.,1.,0.));
#350=DIRECTION('',(0.,0.,-1.));
#351=DIRECTION('',(0.,1.,0.));
#352=DIRECTION('',(0.,0.,1.));
#353=DIRECTION('',(-1.,0.,0.));
#354=DIRECTION('',(0.,0.,1.));
#355=DIRECTION('',(-1.,0.,0.));
#356=DIRECTION('',(0.,0.,-1.));
#357=DIRECTION('',(0.,1.,0.));
#358=DIRECTION('',(-2.114902063601E-13,0.,1.));
#359=DIRECTION('',(0.,0.,1.));
#360=DIRECTION('',(-1.,0.,0.));
#361=DIRECTION('',(2.114908338869E-13,0.,1.));
#362=DIRECTION('',(0.,0.,-1.));
#363=DIRECTION('',(0.,1.,0.));
#364=DIRECTION('',(0.,0.,1.));
#365=DIRECTION('',(-1.,0.,0.));
#366=DIRECTION('',(0.,0.,-1.));
#367=DIRECTION('',(0.,1.,0.));
#368=DIRECTION('',(0.,-0.144306116415197,0.989533094325381));
#369=DIRECTION('',(0.,0.144306116415197,0.989533094325381));
#370=DIRECTION('',(0.,0.,-1.));
#371=DIRECTION('',(0.,1.,2.55013198898809E-16));
#372=DIRECTION('',(0.,0.,-1.));
#373=DIRECTION('',(-1.,0.,0.));
#374=DIRECTION('',(0.,0.,-1.));
#375=DIRECTION('',(-1.,0.,0.));
#376=DIRECTION('',(0.,0.,-1.));
#377=DIRECTION('',(0.,1.,0.));
#378=DIRECTION('',(-3.056241138831E-11,-1.991457503949E-12,1.));
#379=DIRECTION('',(0.,0.,1.));
#380=DIRECTION('',(-1.,0.,0.));
#381=DIRECTION('',(3.056305676989E-11,1.991457503949E-12,1.));
#382=DIRECTION('',(0.,0.,-1.));
#383=DIRECTION('',(0.,1.,0.));
#384=DIRECTION('',(0.,0.,1.));
#385=DIRECTION('',(-1.,0.,0.));
#386=DIRECTION('',(0.,0.,-1.));
#387=DIRECTION('',(0.,1.,0.));
#388=DIRECTION('',(0.,0.,-1.));
#389=DIRECTION('',(0.,-1.,0.));
#390=DIRECTION('',(0.,0.,-1.));
#391=DIRECTION('',(0.,1.,0.));
#392=DIRECTION('',(0.,0.,-1.));
#393=DIRECTION('',(0.,1.,0.));
#394=DIRECTION('',(0.,0.,1.));
#395=DIRECTION('',(0.,0.,1.));
#396=DIRECTION('',(0.,0.,1.));
#397=DIRECTION('',(0.,0.,1.));
#398=DIRECTION('',(0.,0.,-1.));
#399=DIRECTION('',(0.,1.,0.));
#400=DIRECTION('',(0.,0.,1.));
#401=DIRECTION('',(0.,1.,0.));
#402=DIRECTION('',(0.,0.,-1.));
#403=DIRECTION('',(0.,1.,0.));
#404=DIRECTION('',(0.,0.,-1.));
#405=DIRECTION('',(0.,1.,0.));
#406=DIRECTION('',(0.,0.,1.));
#407=DIRECTION('',(1.,0.,0.));
#408=DIRECTION('',(0.,0.,-1.));
#409=DIRECTION('',(0.,1.,0.));
#410=DIRECTION('',(0.,0.,-1.));
#411=DIRECTION('',(0.,1.,0.));
#412=CARTESIAN_POINT('',(0.,0.,0.));
#413=CARTESIAN_POINT('',(0.,0.,0.));
#414=CARTESIAN_POINT('',(0.,0.,-86.));
#415=CARTESIAN_POINT('',(0.,0.,0.));
#416=CARTESIAN_POINT('',(0.,0.,-1.6));
#417=CARTESIAN_POINT('',(-31.5,0.,-1.6));
#418=CARTESIAN_POINT('',(0.,0.,-1.6));
#419=CARTESIAN_POINT('',(0.,22.4583320508297,-1.6));
#420=CARTESIAN_POINT('',(2.7503524460237E-15,-22.4583320508297,-1.6));
#421=CARTESIAN_POINT('',(0.,0.,-1.6));
#422=CARTESIAN_POINT('',(0.,0.,-1.6));
#423=CARTESIAN_POINT('',(0.,0.,-11.6));
#424=CARTESIAN_POINT('',(0.,25.,-11.6));
#425=CARTESIAN_POINT('',(1.53080849893419E-15,-25.,-11.6));
#426=CARTESIAN_POINT('',(0.,0.,-11.6));
#427=CARTESIAN_POINT('',(0.,0.,-11.6));
#428=CARTESIAN_POINT('',(-31.5,0.,-11.6));
#429=CARTESIAN_POINT('',(0.,0.,-11.6));
#430=CARTESIAN_POINT('',(0.,0.,98.65));
#431=CARTESIAN_POINT('',(0.,0.,93.4));
#432=CARTESIAN_POINT('',(-2.19180783021279E-12,-12.5,93.4));
#433=CARTESIAN_POINT('',(2.19181433367306E-12,12.5,93.4));
#434=CARTESIAN_POINT('',(0.,0.,93.4));
#435=CARTESIAN_POINT('',(0.,0.,93.4));
#436=CARTESIAN_POINT('',(0.,-12.5,83.03636251562));
#437=CARTESIAN_POINT('',(1.72849973066366E-13,-12.5,66.686080821567));
#438=CARTESIAN_POINT('',(0.,0.,66.686080821567));
#439=CARTESIAN_POINT('',(0.,12.5,66.686080821567));
#440=CARTESIAN_POINT('',(0.,12.5,83.03636251562));
#441=CARTESIAN_POINT('',(0.,0.,98.65));
#442=CARTESIAN_POINT('',(0.,0.,66.686080821567));
#443=CARTESIAN_POINT('',(0.,0.,98.65));
#444=CARTESIAN_POINT('',(0.,22.16666698729,0.400000000000001));
#445=CARTESIAN_POINT('',(0.,12.68755242227,65.4));
#446=CARTESIAN_POINT('',(0.,-22.16666698729,0.400000000000001));
#447=CARTESIAN_POINT('',(0.,-12.68755242227,65.4));
#448=CARTESIAN_POINT('',(0.,0.,32.9));
#449=CARTESIAN_POINT('',(0.,0.,-86.));
#450=CARTESIAN_POINT('',(-1.91164549892058E-10,-27.,-86.));
#451=CARTESIAN_POINT('',(1.58214095917185E-13,27.,-86.));
#452=CARTESIAN_POINT('',(0.,0.,-86.));
#453=CARTESIAN_POINT('',(0.,0.,-86.));
#454=CARTESIAN_POINT('',(3.361843209278E-10,-26.99999999998,-85.00000000002));
#455=CARTESIAN_POINT('',(-3.05995824586095E-13,-27.,-38.));
#456=CARTESIAN_POINT('',(0.,0.,-38.));
#457=CARTESIAN_POINT('',(3.1642819183437E-13,27.,-38.));
#458=CARTESIAN_POINT('',(-3.361914200853E-10,26.99999999998,-85.00000000002));
#459=CARTESIAN_POINT('',(0.,0.,-35.6));
#460=CARTESIAN_POINT('',(0.,0.,-38.));
#461=CARTESIAN_POINT('',(0.,0.,-35.6));
#462=CARTESIAN_POINT('',(0.,0.,-38.));
#463=CARTESIAN_POINT('',(0.,-25.,-38.));
#464=CARTESIAN_POINT('',(0.,25.,-38.));
#465=CARTESIAN_POINT('',(0.,0.,-38.));
#466=CARTESIAN_POINT('',(0.,0.,-38.));
#467=CARTESIAN_POINT('',(0.,-25.,-22.2));
#468=CARTESIAN_POINT('',(0.,-25.,-22.2));
#469=CARTESIAN_POINT('',(0.,25.,-22.2));
#470=CARTESIAN_POINT('',(0.,25.,-22.2));
#471=CARTESIAN_POINT('',(0.,25.,-38.));
#472=CARTESIAN_POINT('',(0.,25.,-27.2));
#473=CARTESIAN_POINT('',(0.,-25.,-38.));
#474=CARTESIAN_POINT('',(-5.13170824337702E-46,-25.,-27.2));
#475=CARTESIAN_POINT('',(0.,0.,-8.63));
#476=CARTESIAN_POINT('',(0.,0.,-82.));
#477=CARTESIAN_POINT('',(0.,25.05,-82.));
#478=CARTESIAN_POINT('',(0.,0.,-46.));
#479=CARTESIAN_POINT('',(0.,-25.05,-46.));
#480=CARTESIAN_POINT('',(0.,25.05,-46.));
#481=CARTESIAN_POINT('',(0.,0.,-46.));
#482=CARTESIAN_POINT('',(0.,0.,-64.));
#483=CARTESIAN_POINT('',(0.,0.,-46.));
#484=CARTESIAN_POINT('',(0.,0.,-82.));
#485=MECHANICAL_DESIGN_GEOMETRIC_PRESENTATION_REPRESENTATION('',(#272,#273,
#274,#275),#486);
#486=(
GEOMETRIC_REPRESENTATION_CONTEXT(3)
GLOBAL_UNCERTAINTY_ASSIGNED_CONTEXT((#487))
GLOBAL_UNIT_ASSIGNED_CONTEXT((#493,#489,#488))
REPRESENTATION_CONTEXT('2080.40-QTCC.M5','TOP_LEVEL_ASSEMBLY_PART')
);
#487=UNCERTAINTY_MEASURE_WITH_UNIT(LENGTH_MEASURE(2.E-5),#493,
'DISTANCE_ACCURACY_VALUE','Maximum Tolerance applied to model');
#488=(
NAMED_UNIT(*)
SI_UNIT($,.STERADIAN.)
SOLID_ANGLE_UNIT()
);
#489=(
CONVERSION_BASED_UNIT('DEGREE',#491)
NAMED_UNIT(#490)
PLANE_ANGLE_UNIT()
);
#490=DIMENSIONAL_EXPONENTS(0.,0.,0.,0.,0.,0.,0.);
#491=PLANE_ANGLE_MEASURE_WITH_UNIT(PLANE_ANGLE_MEASURE(0.0174532925),#492);
#492=(
NAMED_UNIT(*)
PLANE_ANGLE_UNIT()
SI_UNIT($,.RADIAN.)
);
#493=(
LENGTH_UNIT()
NAMED_UNIT(*)
SI_UNIT(.MILLI.,.METRE.)
);
ENDSEC;
END-ISO-10303-21;
