ISO-10303-21;
HEADER;
/* Generated by software containing ST-Developer
 * from STEP Tools, Inc. (www.steptools.com) 
 */
/* OPTION: using custom schema-name function */

FILE_DESCRIPTION(
/* description */ (''),
/* implementation_level */ '2;1');

FILE_NAME(
/* name */ '2080.40-QTCC.M3.M14.stp',
/* time_stamp */ '2024-06-21T17:52:43+02:00',
/* author */ (''),
/* organization */ (''),
/* preprocessor_version */ 'ST-DEVELOPER v16.7',
/* originating_system */ 'SIEMENS PLM Software NX 12.0',
/* authorisation */ '');

FILE_SCHEMA (('AUTOMOTIVE_DESIGN { 1 0 10303 214 3 1 1 1 }'));
ENDSEC;

DATA;
#10=CONSTRUCTIVE_GEOMETRY_REPRESENTATION_RELATIONSHIP(
'supplemental geometry','',#32,#11);
#11=CONSTRUCTIVE_GEOMETRY_REPRESENTATION('supplemental geometry',(#258,
#259,#260),#428);
#12=PROPERTY_DEFINITION_REPRESENTATION(#16,#14);
#13=PROPERTY_DEFINITION_REPRESENTATION(#17,#15);
#14=REPRESENTATION('',(#18),#428);
#15=REPRESENTATION('',(#19),#428);
#16=PROPERTY_DEFINITION('pmi validation property','',#23);
#17=PROPERTY_DEFINITION('pmi validation property','',#23);
#18=VALUE_REPRESENTATION_ITEM('number of annotations',COUNT_MEASURE(0.));
#19=VALUE_REPRESENTATION_ITEM('number of views',COUNT_MEASURE(0.));
#20=SHAPE_REPRESENTATION_RELATIONSHIP('None',
'relationship between pf660940E230f03y-None and pf660940E230f03y-None',
#32,#21);
#21=ADVANCED_BREP_SHAPE_REPRESENTATION('pf660940E230f03y-None',(#38),#428);
#22=SHAPE_DEFINITION_REPRESENTATION(#23,#32);
#23=PRODUCT_DEFINITION_SHAPE('','',#24);
#24=PRODUCT_DEFINITION(' ','',#26,#25);
#25=PRODUCT_DEFINITION_CONTEXT('part definition',#31,'design');
#26=PRODUCT_DEFINITION_FORMATION_WITH_SPECIFIED_SOURCE(' ',' ',#28,
 .NOT_KNOWN.);
#27=PRODUCT_RELATED_PRODUCT_CATEGORY('part','',(#28));
#28=PRODUCT('pf660940E230f03y','pf660940E230f03y',' ',(#29));
#29=PRODUCT_CONTEXT(' ',#31,'mechanical');
#30=APPLICATION_PROTOCOL_DEFINITION('international standard',
'automotive_design',2010,#31);
#31=APPLICATION_CONTEXT(
'core data for automotive mechanical design processes');
#32=SHAPE_REPRESENTATION('pf660940E230f03y-None',(#257),#428);
#33=SURFACE_STYLE_USAGE(.BOTH.,#34);
#34=SURFACE_SIDE_STYLE('',(#35));
#35=SURFACE_STYLE_FILL_AREA(#36);
#36=FILL_AREA_STYLE('',(#37));
#37=FILL_AREA_STYLE_COLOUR('',#253);
#38=MANIFOLD_SOLID_BREP('',#39);
#39=CLOSED_SHELL('',(#73,#74,#75,#76,#77,#78,#79,#80,#81,#82,#83,#84));
#40=CONICAL_SURFACE('',#283,17.42710970478,8.2971);
#41=LINE('',#387,#51);
#42=LINE('',#391,#52);
#43=LINE('',#400,#53);
#44=LINE('',#402,#54);
#45=LINE('',#404,#55);
#46=LINE('',#406,#56);
#47=LINE('',#413,#57);
#48=LINE('',#415,#58);
#49=LINE('',#423,#59);
#50=LINE('',#424,#60);
#51=VECTOR('',#321,1.);
#52=VECTOR('',#324,1.);
#53=VECTOR('',#337,1.);
#54=VECTOR('',#338,1.);
#55=VECTOR('',#339,1.);
#56=VECTOR('',#340,1.);
#57=VECTOR('',#347,1.);
#58=VECTOR('',#348,1.);
#59=VECTOR('',#357,1.);
#60=VECTOR('',#358,1.);
#61=FACE_OUTER_BOUND('',#108,.T.);
#62=FACE_OUTER_BOUND('',#109,.T.);
#63=FACE_OUTER_BOUND('',#110,.T.);
#64=FACE_OUTER_BOUND('',#117,.T.);
#65=FACE_OUTER_BOUND('',#118,.T.);
#66=FACE_OUTER_BOUND('',#119,.T.);
#67=CYLINDRICAL_SURFACE('',#269,31.5);
#68=CYLINDRICAL_SURFACE('',#274,19.25);
#69=CYLINDRICAL_SURFACE('',#276,19.25);
#70=CYLINDRICAL_SURFACE('',#280,17.5);
#71=CYLINDRICAL_SURFACE('',#287,12.5);
#72=CYLINDRICAL_SURFACE('',#288,12.5);
#73=ADVANCED_FACE('',(#90,#91),#85,.F.);
#74=ADVANCED_FACE('',(#92,#93),#86,.T.);
#75=ADVANCED_FACE('',(#94,#95),#67,.T.);
#76=ADVANCED_FACE('',(#61),#87,.T.);
#77=ADVANCED_FACE('',(#62),#68,.T.);
#78=ADVANCED_FACE('',(#63),#69,.T.);
#79=ADVANCED_FACE('',(#96,#97),#88,.F.);
#80=ADVANCED_FACE('',(#98,#99),#70,.T.);
#81=ADVANCED_FACE('',(#100,#101),#40,.T.);
#82=ADVANCED_FACE('',(#64),#89,.F.);
#83=ADVANCED_FACE('',(#65),#71,.T.);
#84=ADVANCED_FACE('',(#66),#72,.T.);
#85=PLANE('',#264);
#86=PLANE('',#268);
#87=PLANE('',#272);
#88=PLANE('',#279);
#89=PLANE('',#286);
#90=FACE_BOUND('',#102,.T.);
#91=FACE_BOUND('',#103,.T.);
#92=FACE_BOUND('',#104,.T.);
#93=FACE_BOUND('',#105,.T.);
#94=FACE_BOUND('',#106,.T.);
#95=FACE_BOUND('',#107,.T.);
#96=FACE_BOUND('',#111,.T.);
#97=FACE_BOUND('',#112,.T.);
#98=FACE_BOUND('',#113,.T.);
#99=FACE_BOUND('',#114,.T.);
#100=FACE_BOUND('',#115,.T.);
#101=FACE_BOUND('',#116,.T.);
#102=EDGE_LOOP('',(#120));
#103=EDGE_LOOP('',(#121,#122));
#104=EDGE_LOOP('',(#123));
#105=EDGE_LOOP('',(#124,#125));
#106=EDGE_LOOP('',(#126));
#107=EDGE_LOOP('',(#127));
#108=EDGE_LOOP('',(#128,#129));
#109=EDGE_LOOP('',(#130,#131,#132,#133));
#110=EDGE_LOOP('',(#134,#135,#136,#137));
#111=EDGE_LOOP('',(#138,#139));
#112=EDGE_LOOP('',(#140,#141));
#113=EDGE_LOOP('',(#142,#143,#144,#145,#146,#147));
#114=EDGE_LOOP('',(#148,#149,#150,#151,#152,#153));
#115=EDGE_LOOP('',(#154,#155));
#116=EDGE_LOOP('',(#156,#157,#158,#159,#160,#161));
#117=EDGE_LOOP('',(#162,#163));
#118=EDGE_LOOP('',(#164,#165,#166,#167));
#119=EDGE_LOOP('',(#168,#169,#170,#171));
#120=ORIENTED_EDGE('',*,*,#194,.T.);
#121=ORIENTED_EDGE('',*,*,#195,.T.);
#122=ORIENTED_EDGE('',*,*,#196,.T.);
#123=ORIENTED_EDGE('',*,*,#197,.F.);
#124=ORIENTED_EDGE('',*,*,#198,.F.);
#125=ORIENTED_EDGE('',*,*,#199,.F.);
#126=ORIENTED_EDGE('',*,*,#197,.T.);
#127=ORIENTED_EDGE('',*,*,#194,.F.);
#128=ORIENTED_EDGE('',*,*,#200,.T.);
#129=ORIENTED_EDGE('',*,*,#201,.T.);
#130=ORIENTED_EDGE('',*,*,#200,.F.);
#131=ORIENTED_EDGE('',*,*,#202,.T.);
#132=ORIENTED_EDGE('',*,*,#203,.F.);
#133=ORIENTED_EDGE('',*,*,#204,.F.);
#134=ORIENTED_EDGE('',*,*,#201,.F.);
#135=ORIENTED_EDGE('',*,*,#204,.T.);
#136=ORIENTED_EDGE('',*,*,#205,.F.);
#137=ORIENTED_EDGE('',*,*,#202,.F.);
#138=ORIENTED_EDGE('',*,*,#205,.T.);
#139=ORIENTED_EDGE('',*,*,#203,.T.);
#140=ORIENTED_EDGE('',*,*,#206,.T.);
#141=ORIENTED_EDGE('',*,*,#207,.T.);
#142=ORIENTED_EDGE('',*,*,#208,.F.);
#143=ORIENTED_EDGE('',*,*,#208,.T.);
#144=ORIENTED_EDGE('',*,*,#207,.F.);
#145=ORIENTED_EDGE('',*,*,#209,.F.);
#146=ORIENTED_EDGE('',*,*,#209,.T.);
#147=ORIENTED_EDGE('',*,*,#206,.F.);
#148=ORIENTED_EDGE('',*,*,#210,.T.);
#149=ORIENTED_EDGE('',*,*,#210,.F.);
#150=ORIENTED_EDGE('',*,*,#199,.T.);
#151=ORIENTED_EDGE('',*,*,#211,.T.);
#152=ORIENTED_EDGE('',*,*,#211,.F.);
#153=ORIENTED_EDGE('',*,*,#198,.T.);
#154=ORIENTED_EDGE('',*,*,#212,.F.);
#155=ORIENTED_EDGE('',*,*,#213,.F.);
#156=ORIENTED_EDGE('',*,*,#214,.T.);
#157=ORIENTED_EDGE('',*,*,#214,.F.);
#158=ORIENTED_EDGE('',*,*,#196,.F.);
#159=ORIENTED_EDGE('',*,*,#215,.T.);
#160=ORIENTED_EDGE('',*,*,#215,.F.);
#161=ORIENTED_EDGE('',*,*,#195,.F.);
#162=ORIENTED_EDGE('',*,*,#216,.T.);
#163=ORIENTED_EDGE('',*,*,#217,.T.);
#164=ORIENTED_EDGE('',*,*,#218,.F.);
#165=ORIENTED_EDGE('',*,*,#213,.T.);
#166=ORIENTED_EDGE('',*,*,#219,.T.);
#167=ORIENTED_EDGE('',*,*,#216,.F.);
#168=ORIENTED_EDGE('',*,*,#219,.F.);
#169=ORIENTED_EDGE('',*,*,#212,.T.);
#170=ORIENTED_EDGE('',*,*,#218,.T.);
#171=ORIENTED_EDGE('',*,*,#217,.F.);
#172=VERTEX_POINT('',#368);
#173=VERTEX_POINT('',#370);
#174=VERTEX_POINT('',#371);
#175=VERTEX_POINT('',#375);
#176=VERTEX_POINT('',#377);
#177=VERTEX_POINT('',#378);
#178=VERTEX_POINT('',#383);
#179=VERTEX_POINT('',#384);
#180=VERTEX_POINT('',#388);
#181=VERTEX_POINT('',#390);
#182=VERTEX_POINT('',#396);
#183=VERTEX_POINT('',#397);
#184=VERTEX_POINT('',#401);
#185=VERTEX_POINT('',#403);
#186=VERTEX_POINT('',#405);
#187=VERTEX_POINT('',#407);
#188=VERTEX_POINT('',#410);
#189=VERTEX_POINT('',#411);
#190=VERTEX_POINT('',#414);
#191=VERTEX_POINT('',#416);
#192=VERTEX_POINT('',#419);
#193=VERTEX_POINT('',#420);
#194=EDGE_CURVE('',#172,#172,#220,.T.);
#195=EDGE_CURVE('',#173,#174,#221,.T.);
#196=EDGE_CURVE('',#174,#173,#222,.T.);
#197=EDGE_CURVE('',#175,#175,#223,.T.);
#198=EDGE_CURVE('',#176,#177,#224,.T.);
#199=EDGE_CURVE('',#177,#176,#225,.T.);
#200=EDGE_CURVE('',#178,#179,#226,.T.);
#201=EDGE_CURVE('',#179,#178,#227,.T.);
#202=EDGE_CURVE('',#178,#180,#41,.T.);
#203=EDGE_CURVE('',#181,#180,#228,.T.);
#204=EDGE_CURVE('',#179,#181,#42,.T.);
#205=EDGE_CURVE('',#180,#181,#229,.T.);
#206=EDGE_CURVE('',#182,#183,#230,.T.);
#207=EDGE_CURVE('',#183,#182,#231,.T.);
#208=EDGE_CURVE('',#184,#182,#43,.T.);
#209=EDGE_CURVE('',#185,#183,#44,.T.);
#210=EDGE_CURVE('',#177,#186,#45,.T.);
#211=EDGE_CURVE('',#176,#187,#46,.T.);
#212=EDGE_CURVE('',#188,#189,#232,.T.);
#213=EDGE_CURVE('',#189,#188,#233,.T.);
#214=EDGE_CURVE('',#173,#190,#47,.T.);
#215=EDGE_CURVE('',#174,#191,#48,.T.);
#216=EDGE_CURVE('',#192,#193,#234,.T.);
#217=EDGE_CURVE('',#193,#192,#235,.T.);
#218=EDGE_CURVE('',#189,#192,#49,.T.);
#219=EDGE_CURVE('',#188,#193,#50,.T.);
#220=CIRCLE('',#261,31.5);
#221=CIRCLE('',#262,22.4583320508297);
#222=CIRCLE('',#263,22.4583320508297);
#223=CIRCLE('',#265,31.5);
#224=CIRCLE('',#266,17.5);
#225=CIRCLE('',#267,17.5);
#226=CIRCLE('',#270,19.25);
#227=CIRCLE('',#271,19.25);
#228=CIRCLE('',#273,19.25);
#229=CIRCLE('',#275,19.25);
#230=CIRCLE('',#277,17.5);
#231=CIRCLE('',#278,17.5);
#232=CIRCLE('',#281,12.5);
#233=CIRCLE('',#282,12.5);
#234=CIRCLE('',#284,12.5);
#235=CIRCLE('',#285,12.5);
#236=INVISIBILITY((#237,#238,#239));
#237=PRESENTATION_LAYER_ASSIGNMENT('100','Layer 100',(#258));
#238=PRESENTATION_LAYER_ASSIGNMENT('101','Layer 101',(#259));
#239=PRESENTATION_LAYER_ASSIGNMENT('102','Layer 102',(#260));
#240=PRESENTATION_LAYER_ASSIGNMENT('98','Layer 98',(#38));
#241=STYLED_ITEM('',(#245),#258);
#242=STYLED_ITEM('',(#246),#259);
#243=STYLED_ITEM('',(#247),#260);
#244=STYLED_ITEM('',(#248),#38);
#245=PRESENTATION_STYLE_ASSIGNMENT((#249));
#246=PRESENTATION_STYLE_ASSIGNMENT((#250));
#247=PRESENTATION_STYLE_ASSIGNMENT((#251));
#248=PRESENTATION_STYLE_ASSIGNMENT((#33));
#249=CURVE_STYLE('',#254,POSITIVE_LENGTH_MEASURE(0.7),#252);
#250=CURVE_STYLE('',#255,POSITIVE_LENGTH_MEASURE(0.7),#252);
#251=CURVE_STYLE('',#256,POSITIVE_LENGTH_MEASURE(0.7),#252);
#252=COLOUR_RGB('Medium Maroon',0.6,0.4,0.4);
#253=COLOUR_RGB('Medium Gray',0.490196078431373,0.490196078431373,0.490196078431373);
#254=DRAUGHTING_PRE_DEFINED_CURVE_FONT('continuous');
#255=DRAUGHTING_PRE_DEFINED_CURVE_FONT('continuous');
#256=DRAUGHTING_PRE_DEFINED_CURVE_FONT('continuous');
#257=AXIS2_PLACEMENT_3D('',#363,#289,#290);
#258=AXIS2_PLACEMENT_3D('PCS',#364,#291,#292);
#259=AXIS2_PLACEMENT_3D('CSW',#365,#293,#294);
#260=AXIS2_PLACEMENT_3D('MCS',#366,#295,#296);
#261=AXIS2_PLACEMENT_3D('',#367,#297,#298);
#262=AXIS2_PLACEMENT_3D('',#369,#299,#300);
#263=AXIS2_PLACEMENT_3D('',#372,#301,#302);
#264=AXIS2_PLACEMENT_3D('',#373,#303,#304);
#265=AXIS2_PLACEMENT_3D('',#374,#305,#306);
#266=AXIS2_PLACEMENT_3D('',#376,#307,#308);
#267=AXIS2_PLACEMENT_3D('',#379,#309,#310);
#268=AXIS2_PLACEMENT_3D('',#380,#311,#312);
#269=AXIS2_PLACEMENT_3D('',#381,#313,#314);
#270=AXIS2_PLACEMENT_3D('',#382,#315,#316);
#271=AXIS2_PLACEMENT_3D('',#385,#317,#318);
#272=AXIS2_PLACEMENT_3D('',#386,#319,#320);
#273=AXIS2_PLACEMENT_3D('',#389,#322,#323);
#274=AXIS2_PLACEMENT_3D('',#392,#325,#326);
#275=AXIS2_PLACEMENT_3D('',#393,#327,#328);
#276=AXIS2_PLACEMENT_3D('',#394,#329,#330);
#277=AXIS2_PLACEMENT_3D('',#395,#331,#332);
#278=AXIS2_PLACEMENT_3D('',#398,#333,#334);
#279=AXIS2_PLACEMENT_3D('',#399,#335,#336);
#280=AXIS2_PLACEMENT_3D('',#408,#341,#342);
#281=AXIS2_PLACEMENT_3D('',#409,#343,#344);
#282=AXIS2_PLACEMENT_3D('',#412,#345,#346);
#283=AXIS2_PLACEMENT_3D('',#417,#349,#350);
#284=AXIS2_PLACEMENT_3D('',#418,#351,#352);
#285=AXIS2_PLACEMENT_3D('',#421,#353,#354);
#286=AXIS2_PLACEMENT_3D('',#422,#355,#356);
#287=AXIS2_PLACEMENT_3D('',#425,#359,#360);
#288=AXIS2_PLACEMENT_3D('',#426,#361,#362);
#289=DIRECTION('',(0.,0.,1.));
#290=DIRECTION('',(1.,0.,0.));
#291=DIRECTION('',(0.,0.,1.));
#292=DIRECTION('',(1.,0.,0.));
#293=DIRECTION('',(0.,0.,1.));
#294=DIRECTION('',(1.,0.,0.));
#295=DIRECTION('',(0.,0.,1.));
#296=DIRECTION('',(1.,0.,0.));
#297=DIRECTION('',(0.,0.,1.));
#298=DIRECTION('',(-1.,0.,0.));
#299=DIRECTION('',(0.,0.,-1.));
#300=DIRECTION('',(-1.,0.,0.));
#301=DIRECTION('',(0.,0.,-1.));
#302=DIRECTION('',(-1.,0.,0.));
#303=DIRECTION('',(0.,0.,-1.));
#304=DIRECTION('',(0.,1.,0.));
#305=DIRECTION('',(0.,0.,1.));
#306=DIRECTION('',(-1.,0.,0.));
#307=DIRECTION('',(0.,0.,-1.));
#308=DIRECTION('',(-1.,0.,0.));
#309=DIRECTION('',(0.,0.,-1.));
#310=DIRECTION('',(-1.,0.,0.));
#311=DIRECTION('',(0.,0.,-1.));
#312=DIRECTION('',(0.,1.,0.));
#313=DIRECTION('',(0.,0.,-1.));
#314=DIRECTION('',(0.,1.,0.));
#315=DIRECTION('',(0.,0.,-1.));
#316=DIRECTION('',(-1.,0.,0.));
#317=DIRECTION('',(0.,0.,-1.));
#318=DIRECTION('',(-1.,0.,0.));
#319=DIRECTION('',(0.,0.,-1.));
#320=DIRECTION('',(0.,1.,0.));
#321=DIRECTION('',(-8.090630674045E-13,0.,1.));
#322=DIRECTION('',(0.,0.,1.));
#323=DIRECTION('',(-1.,0.,0.));
#324=DIRECTION('',(8.090530665439E-13,0.,1.));
#325=DIRECTION('',(0.,0.,-1.));
#326=DIRECTION('',(0.,1.,0.));
#327=DIRECTION('',(0.,0.,1.));
#328=DIRECTION('',(-1.,0.,0.));
#329=DIRECTION('',(0.,0.,-1.));
#330=DIRECTION('',(0.,1.,0.));
#331=DIRECTION('',(0.,0.,-1.));
#332=DIRECTION('',(0.,-1.,0.));
#333=DIRECTION('',(0.,0.,-1.));
#334=DIRECTION('',(0.,1.,0.));
#335=DIRECTION('',(0.,0.,-1.));
#336=DIRECTION('',(0.,1.,0.));
#337=DIRECTION('',(0.,0.,-1.));
#338=DIRECTION('',(0.,0.,-1.));
#339=DIRECTION('',(0.,0.,-1.));
#340=DIRECTION('',(0.,0.,-1.));
#341=DIRECTION('',(0.,0.,-1.));
#342=DIRECTION('',(0.,1.,0.));
#343=DIRECTION('',(0.,0.,1.));
#344=DIRECTION('',(-1.,0.,0.));
#345=DIRECTION('',(0.,0.,1.));
#346=DIRECTION('',(-1.,0.,0.));
#347=DIRECTION('',(0.,-0.144306116415197,0.989533094325381));
#348=DIRECTION('',(0.,0.144306116415197,0.989533094325381));
#349=DIRECTION('',(0.,0.,-1.));
#350=DIRECTION('',(0.,1.,2.55013198898809E-16));
#351=DIRECTION('',(0.,0.,1.));
#352=DIRECTION('',(-1.,0.,0.));
#353=DIRECTION('',(0.,0.,1.));
#354=DIRECTION('',(-1.,0.,0.));
#355=DIRECTION('',(0.,0.,-1.));
#356=DIRECTION('',(0.,1.,0.));
#357=DIRECTION('',(-2.114902063601E-13,0.,1.));
#358=DIRECTION('',(2.114908338869E-13,0.,1.));
#359=DIRECTION('',(0.,0.,-1.));
#360=DIRECTION('',(0.,1.,0.));
#361=DIRECTION('',(0.,0.,-1.));
#362=DIRECTION('',(0.,1.,0.));
#363=CARTESIAN_POINT('',(0.,0.,0.));
#364=CARTESIAN_POINT('',(0.,0.,0.));
#365=CARTESIAN_POINT('',(0.,0.,-55.));
#366=CARTESIAN_POINT('',(0.,0.,0.));
#367=CARTESIAN_POINT('',(0.,0.,-1.6));
#368=CARTESIAN_POINT('',(-31.5,0.,-1.6));
#369=CARTESIAN_POINT('',(0.,0.,-1.6));
#370=CARTESIAN_POINT('',(0.,22.4583320508297,-1.6));
#371=CARTESIAN_POINT('',(2.7503524460237E-15,-22.4583320508297,-1.6));
#372=CARTESIAN_POINT('',(0.,0.,-1.6));
#373=CARTESIAN_POINT('',(0.,0.,-1.6));
#374=CARTESIAN_POINT('',(0.,0.,-11.6));
#375=CARTESIAN_POINT('',(-31.5,0.,-11.6));
#376=CARTESIAN_POINT('',(0.,0.,-11.6));
#377=CARTESIAN_POINT('',(0.,17.5,-11.6));
#378=CARTESIAN_POINT('',(1.07156594925393E-15,-17.5,-11.6));
#379=CARTESIAN_POINT('',(0.,0.,-11.6));
#380=CARTESIAN_POINT('',(0.,0.,-11.6));
#381=CARTESIAN_POINT('',(0.,0.,98.65));
#382=CARTESIAN_POINT('',(0.,0.,-55.));
#383=CARTESIAN_POINT('',(4.4529412660656E-13,-19.25,-55.));
#384=CARTESIAN_POINT('',(2.71032777292207E-12,19.25,-55.));
#385=CARTESIAN_POINT('',(0.,0.,-55.));
#386=CARTESIAN_POINT('',(0.,0.,-55.));
#387=CARTESIAN_POINT('',(0.,-19.25,-31.7));
#388=CARTESIAN_POINT('',(-5.42072255161015E-12,-19.25,-25.));
#389=CARTESIAN_POINT('',(0.,0.,-25.));
#390=CARTESIAN_POINT('',(5.42065554584413E-12,19.25,-25.));
#391=CARTESIAN_POINT('',(0.,19.25,-31.7));
#392=CARTESIAN_POINT('',(0.,0.,-23.5));
#393=CARTESIAN_POINT('',(0.,0.,-25.));
#394=CARTESIAN_POINT('',(0.,0.,-23.5));
#395=CARTESIAN_POINT('',(0.,0.,-25.));
#396=CARTESIAN_POINT('',(0.,-17.5,-25.));
#397=CARTESIAN_POINT('',(0.,17.5,-25.));
#398=CARTESIAN_POINT('',(0.,0.,-25.));
#399=CARTESIAN_POINT('',(0.,0.,-25.));
#400=CARTESIAN_POINT('',(0.,-17.5,-25.));
#401=CARTESIAN_POINT('',(0.,-17.5,-18.2));
#402=CARTESIAN_POINT('',(0.,17.5,-25.));
#403=CARTESIAN_POINT('',(2.56585412168851E-46,17.5,-18.2));
#404=CARTESIAN_POINT('',(0.,-17.5,-14.1));
#405=CARTESIAN_POINT('',(0.,-17.5,-14.1));
#406=CARTESIAN_POINT('',(0.,17.5,-14.1));
#407=CARTESIAN_POINT('',(0.,17.5,-14.1));
#408=CARTESIAN_POINT('',(0.,0.,-10.005));
#409=CARTESIAN_POINT('',(0.,0.,66.686080821567));
#410=CARTESIAN_POINT('',(0.,12.5,66.686080821567));
#411=CARTESIAN_POINT('',(1.20114379396671E-13,-12.5,66.686080821567));
#412=CARTESIAN_POINT('',(0.,0.,66.686080821567));
#413=CARTESIAN_POINT('',(0.,22.16666698729,0.400000000000001));
#414=CARTESIAN_POINT('',(0.,12.68755242227,65.4));
#415=CARTESIAN_POINT('',(0.,-22.16666698729,0.400000000000001));
#416=CARTESIAN_POINT('',(0.,-12.68755242227,65.4));
#417=CARTESIAN_POINT('',(0.,0.,32.9));
#418=CARTESIAN_POINT('',(0.,0.,93.4));
#419=CARTESIAN_POINT('',(-2.19180783021279E-12,-12.5,93.4));
#420=CARTESIAN_POINT('',(2.19181433367306E-12,12.5,93.4));
#421=CARTESIAN_POINT('',(0.,0.,93.4));
#422=CARTESIAN_POINT('',(0.,0.,93.4));
#423=CARTESIAN_POINT('',(0.,-12.5,83.03636251562));
#424=CARTESIAN_POINT('',(0.,12.5,83.03636251562));
#425=CARTESIAN_POINT('',(0.,0.,98.65));
#426=CARTESIAN_POINT('',(0.,0.,98.65));
#427=MECHANICAL_DESIGN_GEOMETRIC_PRESENTATION_REPRESENTATION('',(#241,#242,
#243,#244),#428);
#428=(
GEOMETRIC_REPRESENTATION_CONTEXT(3)
GLOBAL_UNCERTAINTY_ASSIGNED_CONTEXT((#429))
GLOBAL_UNIT_ASSIGNED_CONTEXT((#435,#431,#430))
REPRESENTATION_CONTEXT('2080.40-QTCC.M3','TOP_LEVEL_ASSEMBLY_PART')
);
#429=UNCERTAINTY_MEASURE_WITH_UNIT(LENGTH_MEASURE(2.E-5),#435,
'DISTANCE_ACCURACY_VALUE','Maximum Tolerance applied to model');
#430=(
NAMED_UNIT(*)
SI_UNIT($,.STERADIAN.)
SOLID_ANGLE_UNIT()
);
#431=(
CONVERSION_BASED_UNIT('DEGREE',#433)
NAMED_UNIT(#432)
PLANE_ANGLE_UNIT()
);
#432=DIMENSIONAL_EXPONENTS(0.,0.,0.,0.,0.,0.,0.);
#433=PLANE_ANGLE_MEASURE_WITH_UNIT(PLANE_ANGLE_MEASURE(0.0174532925),#434);
#434=(
NAMED_UNIT(*)
PLANE_ANGLE_UNIT()
SI_UNIT($,.RADIAN.)
);
#435=(
LENGTH_UNIT()
NAMED_UNIT(*)
SI_UNIT(.MILLI.,.METRE.)
);
ENDSEC;
END-ISO-10303-21;
