ISO-10303-21;
HEADER;
/* Generated by software containing ST-Developer
 * from STEP Tools, Inc. (www.steptools.com) 
 */
/* OPTION: using custom schema-name function */

FILE_DESCRIPTION(
/* description */ (''),
/* implementation_level */ '2;1');

FILE_NAME(
/* name */ '2080.40-QTCC.M14.M36.stp',
/* time_stamp */ '2024-06-21T17:55:51+02:00',
/* author */ (''),
/* organization */ (''),
/* preprocessor_version */ 'ST-DEVELOPER v16.7',
/* originating_system */ 'SIEMENS PLM Software NX 12.0',
/* authorisation */ '');

FILE_SCHEMA (('AUTOMOTIVE_DESIGN { 1 0 10303 214 3 1 1 1 }'));
ENDSEC;

DATA;
#10=CONSTRUCTIVE_GEOMETRY_REPRESENTATION_RELATIONSHIP(
'supplemental geometry','',#32,#11);
#11=CONSTRUCTIVE_GEOMETRY_REPRESENTATION('supplemental geometry',(#334,
#335,#336),#570);
#12=PROPERTY_DEFINITION_REPRESENTATION(#16,#14);
#13=PROPERTY_DEFINITION_REPRESENTATION(#17,#15);
#14=REPRESENTATION('',(#18),#570);
#15=REPRESENTATION('',(#19),#570);
#16=PROPERTY_DEFINITION('pmi validation property','',#23);
#17=PROPERTY_DEFINITION('pmi validation property','',#23);
#18=VALUE_REPRESENTATION_ITEM('number of annotations',COUNT_MEASURE(0.));
#19=VALUE_REPRESENTATION_ITEM('number of views',COUNT_MEASURE(0.));
#20=SHAPE_REPRESENTATION_RELATIONSHIP('None',
'relationship between pf660940E230f04e-None and pf660940E230f04e-None',
#32,#21);
#21=ADVANCED_BREP_SHAPE_REPRESENTATION('pf660940E230f04e-None',(#38),#570);
#22=SHAPE_DEFINITION_REPRESENTATION(#23,#32);
#23=PRODUCT_DEFINITION_SHAPE('','',#24);
#24=PRODUCT_DEFINITION(' ','',#26,#25);
#25=PRODUCT_DEFINITION_CONTEXT('part definition',#31,'design');
#26=PRODUCT_DEFINITION_FORMATION_WITH_SPECIFIED_SOURCE(' ',' ',#28,
 .NOT_KNOWN.);
#27=PRODUCT_RELATED_PRODUCT_CATEGORY('part','',(#28));
#28=PRODUCT('pf660940E230f04e','pf660940E230f04e',' ',(#29));
#29=PRODUCT_CONTEXT(' ',#31,'mechanical');
#30=APPLICATION_PROTOCOL_DEFINITION('international standard',
'automotive_design',2010,#31);
#31=APPLICATION_CONTEXT(
'core data for automotive mechanical design processes');
#32=SHAPE_REPRESENTATION('pf660940E230f04e-None',(#333),#570);
#33=SURFACE_STYLE_USAGE(.BOTH.,#34);
#34=SURFACE_SIDE_STYLE('',(#35));
#35=SURFACE_STYLE_FILL_AREA(#36);
#36=FILL_AREA_STYLE('',(#37));
#37=FILL_AREA_STYLE_COLOUR('',#329);
#38=MANIFOLD_SOLID_BREP('',#39);
#39=CLOSED_SHELL('',(#87,#88,#89,#90,#91,#92,#93,#94,#95,#96,#97,#98,#99,
#100,#101,#102,#103,#104));
#40=CONICAL_SURFACE('',#367,30.47071067812,45.);
#41=CONICAL_SURFACE('',#369,30.47071067812,45.);
#42=CONICAL_SURFACE('',#378,17.42710970478,8.2971);
#43=TOROIDAL_SURFACE('',#356,25.8,0.8);
#44=TOROIDAL_SURFACE('',#363,25.8,0.8);
#45=TOROIDAL_SURFACE('',#365,25.8,0.8);
#46=CYLINDRICAL_SURFACE('',#349,39.05);
#47=CYLINDRICAL_SURFACE('',#350,39.05);
#48=CYLINDRICAL_SURFACE('',#354,31.5);
#49=CYLINDRICAL_SURFACE('',#359,25.);
#50=CYLINDRICAL_SURFACE('',#370,36.);
#51=CYLINDRICAL_SURFACE('',#375,12.5);
#52=CYLINDRICAL_SURFACE('',#377,12.5);
#53=LINE('',#508,#65);
#54=LINE('',#509,#66);
#55=LINE('',#534,#67);
#56=LINE('',#536,#68);
#57=LINE('',#542,#69);
#58=LINE('',#544,#70);
#59=LINE('',#546,#71);
#60=LINE('',#548,#72);
#61=LINE('',#556,#73);
#62=LINE('',#560,#74);
#63=LINE('',#564,#75);
#64=LINE('',#566,#76);
#65=VECTOR('',#411,1.);
#66=VECTOR('',#412,1.);
#67=VECTOR('',#447,1.);
#68=VECTOR('',#448,1.);
#69=VECTOR('',#457,1.);
#70=VECTOR('',#458,1.);
#71=VECTOR('',#459,1.);
#72=VECTOR('',#460,1.);
#73=VECTOR('',#469,1.);
#74=VECTOR('',#472,1.);
#75=VECTOR('',#479,1.);
#76=VECTOR('',#480,1.);
#77=FACE_OUTER_BOUND('',#130,.T.);
#78=FACE_OUTER_BOUND('',#131,.T.);
#79=FACE_OUTER_BOUND('',#132,.T.);
#80=FACE_OUTER_BOUND('',#141,.T.);
#81=FACE_OUTER_BOUND('',#142,.T.);
#82=FACE_OUTER_BOUND('',#143,.T.);
#83=FACE_OUTER_BOUND('',#144,.T.);
#84=FACE_OUTER_BOUND('',#147,.T.);
#85=FACE_OUTER_BOUND('',#148,.T.);
#86=FACE_OUTER_BOUND('',#149,.T.);
#87=ADVANCED_FACE('',(#110,#111),#105,.F.);
#88=ADVANCED_FACE('',(#112,#113),#106,.F.);
#89=ADVANCED_FACE('',(#77),#107,.T.);
#90=ADVANCED_FACE('',(#78),#46,.T.);
#91=ADVANCED_FACE('',(#79),#47,.T.);
#92=ADVANCED_FACE('',(#114,#115),#108,.T.);
#93=ADVANCED_FACE('',(#116,#117),#48,.T.);
#94=ADVANCED_FACE('',(#118,#119),#43,.F.);
#95=ADVANCED_FACE('',(#120,#121),#49,.T.);
#96=ADVANCED_FACE('',(#80),#44,.F.);
#97=ADVANCED_FACE('',(#81),#45,.F.);
#98=ADVANCED_FACE('',(#82),#40,.T.);
#99=ADVANCED_FACE('',(#83),#41,.T.);
#100=ADVANCED_FACE('',(#122,#123),#50,.T.);
#101=ADVANCED_FACE('',(#84),#109,.F.);
#102=ADVANCED_FACE('',(#85),#51,.T.);
#103=ADVANCED_FACE('',(#86),#52,.T.);
#104=ADVANCED_FACE('',(#124,#125),#42,.T.);
#105=PLANE('',#340);
#106=PLANE('',#345);
#107=PLANE('',#348);
#108=PLANE('',#353);
#109=PLANE('',#373);
#110=FACE_BOUND('',#126,.T.);
#111=FACE_BOUND('',#127,.T.);
#112=FACE_BOUND('',#128,.T.);
#113=FACE_BOUND('',#129,.T.);
#114=FACE_BOUND('',#133,.T.);
#115=FACE_BOUND('',#134,.T.);
#116=FACE_BOUND('',#135,.T.);
#117=FACE_BOUND('',#136,.T.);
#118=FACE_BOUND('',#137,.T.);
#119=FACE_BOUND('',#138,.T.);
#120=FACE_BOUND('',#139,.T.);
#121=FACE_BOUND('',#140,.T.);
#122=FACE_BOUND('',#145,.T.);
#123=FACE_BOUND('',#146,.T.);
#124=FACE_BOUND('',#150,.T.);
#125=FACE_BOUND('',#151,.T.);
#126=EDGE_LOOP('',(#152));
#127=EDGE_LOOP('',(#153,#154));
#128=EDGE_LOOP('',(#155,#156));
#129=EDGE_LOOP('',(#157,#158));
#130=EDGE_LOOP('',(#159,#160));
#131=EDGE_LOOP('',(#161,#162,#163,#164));
#132=EDGE_LOOP('',(#165,#166,#167,#168));
#133=EDGE_LOOP('',(#169));
#134=EDGE_LOOP('',(#170));
#135=EDGE_LOOP('',(#171));
#136=EDGE_LOOP('',(#172));
#137=EDGE_LOOP('',(#173));
#138=EDGE_LOOP('',(#174));
#139=EDGE_LOOP('',(#175));
#140=EDGE_LOOP('',(#176,#177));
#141=EDGE_LOOP('',(#178,#179,#180,#181));
#142=EDGE_LOOP('',(#182,#183,#184,#185));
#143=EDGE_LOOP('',(#186,#187,#188,#189));
#144=EDGE_LOOP('',(#190,#191,#192,#193));
#145=EDGE_LOOP('',(#194,#195,#196,#197,#198,#199));
#146=EDGE_LOOP('',(#200,#201,#202,#203,#204,#205));
#147=EDGE_LOOP('',(#206,#207));
#148=EDGE_LOOP('',(#208,#209,#210,#211));
#149=EDGE_LOOP('',(#212,#213,#214,#215));
#150=EDGE_LOOP('',(#216,#217));
#151=EDGE_LOOP('',(#218,#219,#220,#221,#222,#223));
#152=ORIENTED_EDGE('',*,*,#252,.F.);
#153=ORIENTED_EDGE('',*,*,#253,.T.);
#154=ORIENTED_EDGE('',*,*,#254,.T.);
#155=ORIENTED_EDGE('',*,*,#255,.T.);
#156=ORIENTED_EDGE('',*,*,#256,.T.);
#157=ORIENTED_EDGE('',*,*,#257,.T.);
#158=ORIENTED_EDGE('',*,*,#258,.T.);
#159=ORIENTED_EDGE('',*,*,#259,.T.);
#160=ORIENTED_EDGE('',*,*,#260,.T.);
#161=ORIENTED_EDGE('',*,*,#257,.F.);
#162=ORIENTED_EDGE('',*,*,#261,.F.);
#163=ORIENTED_EDGE('',*,*,#259,.F.);
#164=ORIENTED_EDGE('',*,*,#262,.T.);
#165=ORIENTED_EDGE('',*,*,#258,.F.);
#166=ORIENTED_EDGE('',*,*,#262,.F.);
#167=ORIENTED_EDGE('',*,*,#260,.F.);
#168=ORIENTED_EDGE('',*,*,#261,.T.);
#169=ORIENTED_EDGE('',*,*,#263,.T.);
#170=ORIENTED_EDGE('',*,*,#264,.T.);
#171=ORIENTED_EDGE('',*,*,#252,.T.);
#172=ORIENTED_EDGE('',*,*,#263,.F.);
#173=ORIENTED_EDGE('',*,*,#264,.F.);
#174=ORIENTED_EDGE('',*,*,#265,.F.);
#175=ORIENTED_EDGE('',*,*,#265,.T.);
#176=ORIENTED_EDGE('',*,*,#266,.F.);
#177=ORIENTED_EDGE('',*,*,#267,.F.);
#178=ORIENTED_EDGE('',*,*,#266,.T.);
#179=ORIENTED_EDGE('',*,*,#268,.T.);
#180=ORIENTED_EDGE('',*,*,#269,.F.);
#181=ORIENTED_EDGE('',*,*,#270,.F.);
#182=ORIENTED_EDGE('',*,*,#267,.T.);
#183=ORIENTED_EDGE('',*,*,#270,.T.);
#184=ORIENTED_EDGE('',*,*,#271,.F.);
#185=ORIENTED_EDGE('',*,*,#268,.F.);
#186=ORIENTED_EDGE('',*,*,#272,.T.);
#187=ORIENTED_EDGE('',*,*,#271,.T.);
#188=ORIENTED_EDGE('',*,*,#273,.F.);
#189=ORIENTED_EDGE('',*,*,#274,.T.);
#190=ORIENTED_EDGE('',*,*,#273,.T.);
#191=ORIENTED_EDGE('',*,*,#269,.T.);
#192=ORIENTED_EDGE('',*,*,#272,.F.);
#193=ORIENTED_EDGE('',*,*,#275,.T.);
#194=ORIENTED_EDGE('',*,*,#276,.T.);
#195=ORIENTED_EDGE('',*,*,#276,.F.);
#196=ORIENTED_EDGE('',*,*,#255,.F.);
#197=ORIENTED_EDGE('',*,*,#277,.T.);
#198=ORIENTED_EDGE('',*,*,#277,.F.);
#199=ORIENTED_EDGE('',*,*,#256,.F.);
#200=ORIENTED_EDGE('',*,*,#278,.F.);
#201=ORIENTED_EDGE('',*,*,#278,.T.);
#202=ORIENTED_EDGE('',*,*,#274,.F.);
#203=ORIENTED_EDGE('',*,*,#279,.F.);
#204=ORIENTED_EDGE('',*,*,#279,.T.);
#205=ORIENTED_EDGE('',*,*,#275,.F.);
#206=ORIENTED_EDGE('',*,*,#280,.T.);
#207=ORIENTED_EDGE('',*,*,#281,.T.);
#208=ORIENTED_EDGE('',*,*,#282,.F.);
#209=ORIENTED_EDGE('',*,*,#283,.T.);
#210=ORIENTED_EDGE('',*,*,#284,.T.);
#211=ORIENTED_EDGE('',*,*,#280,.F.);
#212=ORIENTED_EDGE('',*,*,#284,.F.);
#213=ORIENTED_EDGE('',*,*,#285,.T.);
#214=ORIENTED_EDGE('',*,*,#282,.T.);
#215=ORIENTED_EDGE('',*,*,#281,.F.);
#216=ORIENTED_EDGE('',*,*,#285,.F.);
#217=ORIENTED_EDGE('',*,*,#283,.F.);
#218=ORIENTED_EDGE('',*,*,#286,.T.);
#219=ORIENTED_EDGE('',*,*,#286,.F.);
#220=ORIENTED_EDGE('',*,*,#254,.F.);
#221=ORIENTED_EDGE('',*,*,#287,.T.);
#222=ORIENTED_EDGE('',*,*,#287,.F.);
#223=ORIENTED_EDGE('',*,*,#253,.F.);
#224=VERTEX_POINT('',#488);
#225=VERTEX_POINT('',#490);
#226=VERTEX_POINT('',#491);
#227=VERTEX_POINT('',#495);
#228=VERTEX_POINT('',#496);
#229=VERTEX_POINT('',#499);
#230=VERTEX_POINT('',#500);
#231=VERTEX_POINT('',#504);
#232=VERTEX_POINT('',#505);
#233=VERTEX_POINT('',#513);
#234=VERTEX_POINT('',#515);
#235=VERTEX_POINT('',#519);
#236=VERTEX_POINT('',#522);
#237=VERTEX_POINT('',#523);
#238=VERTEX_POINT('',#527);
#239=VERTEX_POINT('',#529);
#240=VERTEX_POINT('',#535);
#241=VERTEX_POINT('',#537);
#242=VERTEX_POINT('',#543);
#243=VERTEX_POINT('',#545);
#244=VERTEX_POINT('',#547);
#245=VERTEX_POINT('',#549);
#246=VERTEX_POINT('',#552);
#247=VERTEX_POINT('',#553);
#248=VERTEX_POINT('',#557);
#249=VERTEX_POINT('',#559);
#250=VERTEX_POINT('',#565);
#251=VERTEX_POINT('',#567);
#252=EDGE_CURVE('',#224,#224,#288,.T.);
#253=EDGE_CURVE('',#225,#226,#289,.T.);
#254=EDGE_CURVE('',#226,#225,#290,.T.);
#255=EDGE_CURVE('',#227,#228,#291,.T.);
#256=EDGE_CURVE('',#228,#227,#292,.T.);
#257=EDGE_CURVE('',#229,#230,#293,.T.);
#258=EDGE_CURVE('',#230,#229,#294,.T.);
#259=EDGE_CURVE('',#231,#232,#295,.T.);
#260=EDGE_CURVE('',#232,#231,#296,.T.);
#261=EDGE_CURVE('',#232,#229,#53,.T.);
#262=EDGE_CURVE('',#231,#230,#54,.T.);
#263=EDGE_CURVE('',#233,#233,#297,.T.);
#264=EDGE_CURVE('',#234,#234,#298,.T.);
#265=EDGE_CURVE('',#235,#235,#299,.T.);
#266=EDGE_CURVE('',#236,#237,#300,.T.);
#267=EDGE_CURVE('',#237,#236,#301,.T.);
#268=EDGE_CURVE('',#237,#238,#302,.T.);
#269=EDGE_CURVE('',#239,#238,#303,.T.);
#270=EDGE_CURVE('',#236,#239,#304,.T.);
#271=EDGE_CURVE('',#238,#239,#305,.T.);
#272=EDGE_CURVE('',#240,#238,#55,.T.);
#273=EDGE_CURVE('',#241,#239,#56,.T.);
#274=EDGE_CURVE('',#241,#240,#306,.T.);
#275=EDGE_CURVE('',#240,#241,#307,.T.);
#276=EDGE_CURVE('',#228,#242,#57,.T.);
#277=EDGE_CURVE('',#227,#243,#58,.T.);
#278=EDGE_CURVE('',#244,#240,#59,.T.);
#279=EDGE_CURVE('',#245,#241,#60,.T.);
#280=EDGE_CURVE('',#246,#247,#308,.T.);
#281=EDGE_CURVE('',#247,#246,#309,.T.);
#282=EDGE_CURVE('',#248,#246,#61,.T.);
#283=EDGE_CURVE('',#248,#249,#310,.T.);
#284=EDGE_CURVE('',#249,#247,#62,.T.);
#285=EDGE_CURVE('',#249,#248,#311,.T.);
#286=EDGE_CURVE('',#225,#250,#63,.T.);
#287=EDGE_CURVE('',#226,#251,#64,.T.);
#288=CIRCLE('',#337,31.5);
#289=CIRCLE('',#338,22.4583320508297);
#290=CIRCLE('',#339,22.4583320508297);
#291=CIRCLE('',#341,36.);
#292=CIRCLE('',#342,36.);
#293=CIRCLE('',#343,39.05);
#294=CIRCLE('',#344,39.05);
#295=CIRCLE('',#346,39.05);
#296=CIRCLE('',#347,39.05);
#297=CIRCLE('',#351,31.5);
#298=CIRCLE('',#352,25.8);
#299=CIRCLE('',#355,25.);
#300=CIRCLE('',#357,25.);
#301=CIRCLE('',#358,25.);
#302=CIRCLE('',#360,0.8);
#303=CIRCLE('',#361,25.23431457505);
#304=CIRCLE('',#362,0.8);
#305=CIRCLE('',#364,25.23431457505);
#306=CIRCLE('',#366,36.);
#307=CIRCLE('',#368,36.);
#308=CIRCLE('',#371,12.5);
#309=CIRCLE('',#372,12.5);
#310=CIRCLE('',#374,12.5);
#311=CIRCLE('',#376,12.5);
#312=INVISIBILITY((#313,#314,#315));
#313=PRESENTATION_LAYER_ASSIGNMENT('100','Layer 100',(#334));
#314=PRESENTATION_LAYER_ASSIGNMENT('101','Layer 101',(#335));
#315=PRESENTATION_LAYER_ASSIGNMENT('102','Layer 102',(#336));
#316=PRESENTATION_LAYER_ASSIGNMENT('98','Layer 98',(#38));
#317=STYLED_ITEM('',(#321),#334);
#318=STYLED_ITEM('',(#322),#335);
#319=STYLED_ITEM('',(#323),#336);
#320=STYLED_ITEM('',(#324),#38);
#321=PRESENTATION_STYLE_ASSIGNMENT((#325));
#322=PRESENTATION_STYLE_ASSIGNMENT((#326));
#323=PRESENTATION_STYLE_ASSIGNMENT((#327));
#324=PRESENTATION_STYLE_ASSIGNMENT((#33));
#325=CURVE_STYLE('',#330,POSITIVE_LENGTH_MEASURE(0.7),#328);
#326=CURVE_STYLE('',#331,POSITIVE_LENGTH_MEASURE(0.7),#328);
#327=CURVE_STYLE('',#332,POSITIVE_LENGTH_MEASURE(0.7),#328);
#328=COLOUR_RGB('Medium Maroon',0.6,0.4,0.4);
#329=COLOUR_RGB('Medium Gray',0.490196078431373,0.490196078431373,0.490196078431373);
#330=DRAUGHTING_PRE_DEFINED_CURVE_FONT('continuous');
#331=DRAUGHTING_PRE_DEFINED_CURVE_FONT('continuous');
#332=DRAUGHTING_PRE_DEFINED_CURVE_FONT('continuous');
#333=AXIS2_PLACEMENT_3D('',#483,#379,#380);
#334=AXIS2_PLACEMENT_3D('PCS',#484,#381,#382);
#335=AXIS2_PLACEMENT_3D('CSW',#485,#383,#384);
#336=AXIS2_PLACEMENT_3D('MCS',#486,#385,#386);
#337=AXIS2_PLACEMENT_3D('',#487,#387,#388);
#338=AXIS2_PLACEMENT_3D('',#489,#389,#390);
#339=AXIS2_PLACEMENT_3D('',#492,#391,#392);
#340=AXIS2_PLACEMENT_3D('',#493,#393,#394);
#341=AXIS2_PLACEMENT_3D('',#494,#395,#396);
#342=AXIS2_PLACEMENT_3D('',#497,#397,#398);
#343=AXIS2_PLACEMENT_3D('',#498,#399,#400);
#344=AXIS2_PLACEMENT_3D('',#501,#401,#402);
#345=AXIS2_PLACEMENT_3D('',#502,#403,#404);
#346=AXIS2_PLACEMENT_3D('',#503,#405,#406);
#347=AXIS2_PLACEMENT_3D('',#506,#407,#408);
#348=AXIS2_PLACEMENT_3D('',#507,#409,#410);
#349=AXIS2_PLACEMENT_3D('',#510,#413,#414);
#350=AXIS2_PLACEMENT_3D('',#511,#415,#416);
#351=AXIS2_PLACEMENT_3D('',#512,#417,#418);
#352=AXIS2_PLACEMENT_3D('',#514,#419,#420);
#353=AXIS2_PLACEMENT_3D('',#516,#421,#422);
#354=AXIS2_PLACEMENT_3D('',#517,#423,#424);
#355=AXIS2_PLACEMENT_3D('',#518,#425,#426);
#356=AXIS2_PLACEMENT_3D('',#520,#427,#428);
#357=AXIS2_PLACEMENT_3D('',#521,#429,#430);
#358=AXIS2_PLACEMENT_3D('',#524,#431,#432);
#359=AXIS2_PLACEMENT_3D('',#525,#433,#434);
#360=AXIS2_PLACEMENT_3D('',#526,#435,#436);
#361=AXIS2_PLACEMENT_3D('',#528,#437,#438);
#362=AXIS2_PLACEMENT_3D('',#530,#439,#440);
#363=AXIS2_PLACEMENT_3D('',#531,#441,#442);
#364=AXIS2_PLACEMENT_3D('',#532,#443,#444);
#365=AXIS2_PLACEMENT_3D('',#533,#445,#446);
#366=AXIS2_PLACEMENT_3D('',#538,#449,#450);
#367=AXIS2_PLACEMENT_3D('',#539,#451,#452);
#368=AXIS2_PLACEMENT_3D('',#540,#453,#454);
#369=AXIS2_PLACEMENT_3D('',#541,#455,#456);
#370=AXIS2_PLACEMENT_3D('',#550,#461,#462);
#371=AXIS2_PLACEMENT_3D('',#551,#463,#464);
#372=AXIS2_PLACEMENT_3D('',#554,#465,#466);
#373=AXIS2_PLACEMENT_3D('',#555,#467,#468);
#374=AXIS2_PLACEMENT_3D('',#558,#470,#471);
#375=AXIS2_PLACEMENT_3D('',#561,#473,#474);
#376=AXIS2_PLACEMENT_3D('',#562,#475,#476);
#377=AXIS2_PLACEMENT_3D('',#563,#477,#478);
#378=AXIS2_PLACEMENT_3D('',#568,#481,#482);
#379=DIRECTION('',(0.,0.,1.));
#380=DIRECTION('',(1.,0.,0.));
#381=DIRECTION('',(0.,0.,1.));
#382=DIRECTION('',(1.,0.,0.));
#383=DIRECTION('',(0.,0.,1.));
#384=DIRECTION('',(1.,0.,0.));
#385=DIRECTION('',(0.,0.,1.));
#386=DIRECTION('',(1.,0.,0.));
#387=DIRECTION('',(0.,0.,-1.));
#388=DIRECTION('',(-1.,0.,0.));
#389=DIRECTION('',(0.,0.,-1.));
#390=DIRECTION('',(-1.,0.,0.));
#391=DIRECTION('',(0.,0.,-1.));
#392=DIRECTION('',(-1.,0.,0.));
#393=DIRECTION('',(0.,0.,-1.));
#394=DIRECTION('',(0.,1.,0.));
#395=DIRECTION('',(0.,0.,-1.));
#396=DIRECTION('',(0.,-1.,0.));
#397=DIRECTION('',(0.,0.,-1.));
#398=DIRECTION('',(0.,1.,0.));
#399=DIRECTION('',(0.,0.,1.));
#400=DIRECTION('',(-1.,0.,0.));
#401=DIRECTION('',(0.,0.,1.));
#402=DIRECTION('',(-1.,0.,0.));
#403=DIRECTION('',(0.,0.,-1.));
#404=DIRECTION('',(0.,1.,0.));
#405=DIRECTION('',(0.,0.,-1.));
#406=DIRECTION('',(-1.,0.,0.));
#407=DIRECTION('',(0.,0.,-1.));
#408=DIRECTION('',(-1.,0.,0.));
#409=DIRECTION('',(0.,0.,-1.));
#410=DIRECTION('',(0.,1.,0.));
#411=DIRECTION('',(-4.034087890266E-11,5.532432749467E-13,1.));
#412=DIRECTION('',(4.034088711266E-11,-5.527532454738E-13,1.));
#413=DIRECTION('',(0.,0.,-1.));
#414=DIRECTION('',(0.,1.,0.));
#415=DIRECTION('',(0.,0.,-1.));
#416=DIRECTION('',(0.,1.,0.));
#417=DIRECTION('',(0.,0.,-1.));
#418=DIRECTION('',(-1.,0.,0.));
#419=DIRECTION('',(0.,0.,1.));
#420=DIRECTION('',(-0.950077010216016,-0.312015503876005,0.));
#421=DIRECTION('',(0.,0.,-1.));
#422=DIRECTION('',(0.,1.,0.));
#423=DIRECTION('',(0.,0.,-1.));
#424=DIRECTION('',(0.,1.,0.));
#425=DIRECTION('',(0.,0.,-1.));
#426=DIRECTION('',(-0.94673966854674,0.322000000000014,0.));
#427=DIRECTION('',(0.,0.,-1.));
#428=DIRECTION('',(0.,1.,0.));
#429=DIRECTION('',(0.,0.,-1.));
#430=DIRECTION('',(-0.995811014967636,0.0914353458413433,0.));
#431=DIRECTION('',(0.,0.,-1.));
#432=DIRECTION('',(0.,1.,0.));
#433=DIRECTION('',(0.,0.,-1.));
#434=DIRECTION('',(0.,1.,0.));
#435=DIRECTION('',(1.,1.64278313175E-14,0.));
#436=DIRECTION('',(1.64278313175E-14,-0.999999999999998,0.));
#437=DIRECTION('',(0.,0.,-1.));
#438=DIRECTION('',(0.,-1.,0.));
#439=DIRECTION('',(-1.,-1.631160484461E-14,0.));
#440=DIRECTION('',(-1.631160484461E-14,0.999999999999998,0.));
#441=DIRECTION('',(0.,0.,-1.));
#442=DIRECTION('',(-0.0036382889025431,0.999993381405028,0.));
#443=DIRECTION('',(0.,0.,-1.));
#444=DIRECTION('',(0.,1.,0.));
#445=DIRECTION('',(0.,0.,-1.));
#446=DIRECTION('',(0.0036382889025421,-0.999993381405028,0.));
#447=DIRECTION('',(0.,-0.707106781186547,0.707106781186547));
#448=DIRECTION('',(0.,0.707106781186547,0.707106781186547));
#449=DIRECTION('',(0.,0.,1.));
#450=DIRECTION('',(-1.,0.,0.));
#451=DIRECTION('',(0.,0.,-1.));
#452=DIRECTION('',(0.,1.,5.38697030939654E-17));
#453=DIRECTION('',(0.,0.,1.));
#454=DIRECTION('',(-1.,0.,0.));
#455=DIRECTION('',(0.,0.,-1.));
#456=DIRECTION('',(0.,1.,5.38697030939654E-17));
#457=DIRECTION('',(0.,0.,1.));
#458=DIRECTION('',(0.,0.,1.));
#459=DIRECTION('',(0.,0.,1.));
#460=DIRECTION('',(0.,0.,1.));
#461=DIRECTION('',(0.,0.,-1.));
#462=DIRECTION('',(0.,1.,0.));
#463=DIRECTION('',(0.,0.,1.));
#464=DIRECTION('',(-1.,0.,0.));
#465=DIRECTION('',(0.,0.,1.));
#466=DIRECTION('',(-1.,0.,0.));
#467=DIRECTION('',(0.,0.,-1.));
#468=DIRECTION('',(0.,1.,0.));
#469=DIRECTION('',(-2.114902063601E-13,0.,1.));
#470=DIRECTION('',(0.,0.,1.));
#471=DIRECTION('',(-1.,0.,0.));
#472=DIRECTION('',(2.114908338869E-13,0.,1.));
#473=DIRECTION('',(0.,0.,-1.));
#474=DIRECTION('',(0.,1.,0.));
#475=DIRECTION('',(0.,0.,1.));
#476=DIRECTION('',(-1.,0.,0.));
#477=DIRECTION('',(0.,0.,-1.));
#478=DIRECTION('',(0.,1.,0.));
#479=DIRECTION('',(0.,-0.144306116415197,0.989533094325381));
#480=DIRECTION('',(0.,0.144306116415197,0.989533094325381));
#481=DIRECTION('',(0.,0.,-1.));
#482=DIRECTION('',(0.,1.,2.55013198898809E-16));
#483=CARTESIAN_POINT('',(0.,0.,0.));
#484=CARTESIAN_POINT('',(0.,0.,0.));
#485=CARTESIAN_POINT('',(0.,0.,-132.));
#486=CARTESIAN_POINT('',(0.,0.,0.));
#487=CARTESIAN_POINT('',(0.,0.,-1.6));
#488=CARTESIAN_POINT('',(-31.5,0.,-1.6));
#489=CARTESIAN_POINT('',(0.,0.,-1.6));
#490=CARTESIAN_POINT('',(0.,22.4583320508297,-1.6));
#491=CARTESIAN_POINT('',(2.7503524460237E-15,-22.4583320508297,-1.6));
#492=CARTESIAN_POINT('',(0.,0.,-1.6));
#493=CARTESIAN_POINT('',(0.,0.,-1.6));
#494=CARTESIAN_POINT('',(0.,0.,-61.));
#495=CARTESIAN_POINT('',(1.59872215546E-14,-36.,-61.));
#496=CARTESIAN_POINT('',(-1.157847307767E-14,36.,-61.));
#497=CARTESIAN_POINT('',(0.,0.,-61.));
#498=CARTESIAN_POINT('',(0.,0.,-61.));
#499=CARTESIAN_POINT('',(-6.25283622991231E-10,-39.0499999999914,-61.));
#500=CARTESIAN_POINT('',(6.2528375024623E-10,39.0499999999914,-61.));
#501=CARTESIAN_POINT('',(0.,0.,-61.));
#502=CARTESIAN_POINT('',(0.,0.,-61.));
#503=CARTESIAN_POINT('',(0.,0.,-132.));
#504=CARTESIAN_POINT('',(0.,39.05,-132.));
#505=CARTESIAN_POINT('',(2.2095696086153E-11,-39.05,-132.));
#506=CARTESIAN_POINT('',(0.,0.,-132.));
#507=CARTESIAN_POINT('',(0.,0.,-132.));
#508=CARTESIAN_POINT('',(0.,-39.05,-76.5));
#509=CARTESIAN_POINT('',(0.,39.05,-76.5));
#510=CARTESIAN_POINT('',(0.,0.,-57.45));
#511=CARTESIAN_POINT('',(0.,0.,-57.45));
#512=CARTESIAN_POINT('',(0.,0.,-11.6));
#513=CARTESIAN_POINT('',(-31.5,0.,-11.6));
#514=CARTESIAN_POINT('',(0.,0.,-11.6));
#515=CARTESIAN_POINT('',(-24.5119868635732,-8.05000000000093,-11.6));
#516=CARTESIAN_POINT('',(0.,0.,-11.6));
#517=CARTESIAN_POINT('',(0.,0.,98.65));
#518=CARTESIAN_POINT('',(0.,0.,-12.4));
#519=CARTESIAN_POINT('',(-23.6684917136685,8.05000000000034,-12.4));
#520=CARTESIAN_POINT('',(0.,0.,-12.4));
#521=CARTESIAN_POINT('',(0.,0.,-22.2686291501));
#522=CARTESIAN_POINT('',(4.077807636085E-13,-25.,-22.2686291501));
#523=CARTESIAN_POINT('',(-4.106853645967E-13,25.,-22.2686291501));
#524=CARTESIAN_POINT('',(0.,0.,-22.2686291501));
#525=CARTESIAN_POINT('',(0.,0.,-6.815));
#526=CARTESIAN_POINT('',(-4.238276296507E-13,25.8,-22.2686291501));
#527=CARTESIAN_POINT('',(0.,25.23431457505,-22.83431457505));
#528=CARTESIAN_POINT('',(0.,0.,-22.83431457505));
#529=CARTESIAN_POINT('',(0.,-25.23431457505,-22.83431457505));
#530=CARTESIAN_POINT('',(4.208300474842E-13,-25.8,-22.2686291501));
#531=CARTESIAN_POINT('',(0.,0.,-22.2686291501));
#532=CARTESIAN_POINT('',(0.,0.,-22.83431457505));
#533=CARTESIAN_POINT('',(0.,0.,-22.2686291501));
#534=CARTESIAN_POINT('',(1.421848173069E-14,35.70710678119,-33.30710678119));
#535=CARTESIAN_POINT('',(7.109240865345E-15,36.,-33.6000000000021));
#536=CARTESIAN_POINT('',(-1.532654768356E-14,-35.70710678119,-33.30710678119));
#537=CARTESIAN_POINT('',(-7.66327384178E-15,-36.,-33.6000000000021));
#538=CARTESIAN_POINT('',(0.,0.,-33.6));
#539=CARTESIAN_POINT('',(0.,0.,-28.07071067812));
#540=CARTESIAN_POINT('',(0.,0.,-33.6));
#541=CARTESIAN_POINT('',(0.,0.,-28.07071067812));
#542=CARTESIAN_POINT('',(0.,36.,-61.));
#543=CARTESIAN_POINT('',(0.,36.,-44.1));
#544=CARTESIAN_POINT('',(0.,-36.,-61.));
#545=CARTESIAN_POINT('',(-3.42113882891801E-45,-36.,-44.1));
#546=CARTESIAN_POINT('',(0.,36.,-37.3));
#547=CARTESIAN_POINT('',(0.,36.,-37.3));
#548=CARTESIAN_POINT('',(0.,-36.,-37.3));
#549=CARTESIAN_POINT('',(0.,-36.,-37.3));
#550=CARTESIAN_POINT('',(0.,0.,-6.815));
#551=CARTESIAN_POINT('',(0.,0.,93.4));
#552=CARTESIAN_POINT('',(-2.19180783021279E-12,-12.5,93.4));
#553=CARTESIAN_POINT('',(2.19181433367306E-12,12.5,93.4));
#554=CARTESIAN_POINT('',(0.,0.,93.4));
#555=CARTESIAN_POINT('',(0.,0.,93.4));
#556=CARTESIAN_POINT('',(0.,-12.5,83.03636251562));
#557=CARTESIAN_POINT('',(7.65404249467096E-16,-12.5,66.686080821567));
#558=CARTESIAN_POINT('',(0.,0.,66.686080821567));
#559=CARTESIAN_POINT('',(0.,12.5,66.686080821567));
#560=CARTESIAN_POINT('',(0.,12.5,83.03636251562));
#561=CARTESIAN_POINT('',(0.,0.,98.65));
#562=CARTESIAN_POINT('',(0.,0.,66.686080821567));
#563=CARTESIAN_POINT('',(0.,0.,98.65));
#564=CARTESIAN_POINT('',(0.,22.16666698729,0.399999999999999));
#565=CARTESIAN_POINT('',(0.,12.68755242227,65.4));
#566=CARTESIAN_POINT('',(0.,-22.16666698729,0.399999999999999));
#567=CARTESIAN_POINT('',(0.,-12.68755242227,65.4));
#568=CARTESIAN_POINT('',(0.,0.,32.9));
#569=MECHANICAL_DESIGN_GEOMETRIC_PRESENTATION_REPRESENTATION('',(#317,#318,
#319,#320),#570);
#570=(
GEOMETRIC_REPRESENTATION_CONTEXT(3)
GLOBAL_UNCERTAINTY_ASSIGNED_CONTEXT((#571))
GLOBAL_UNIT_ASSIGNED_CONTEXT((#577,#573,#572))
REPRESENTATION_CONTEXT('2080.40-QTCC.M14','TOP_LEVEL_ASSEMBLY_PART')
);
#571=UNCERTAINTY_MEASURE_WITH_UNIT(LENGTH_MEASURE(2.E-5),#577,
'DISTANCE_ACCURACY_VALUE','Maximum Tolerance applied to model');
#572=(
NAMED_UNIT(*)
SI_UNIT($,.STERADIAN.)
SOLID_ANGLE_UNIT()
);
#573=(
CONVERSION_BASED_UNIT('DEGREE',#575)
NAMED_UNIT(#574)
PLANE_ANGLE_UNIT()
);
#574=DIMENSIONAL_EXPONENTS(0.,0.,0.,0.,0.,0.,0.);
#575=PLANE_ANGLE_MEASURE_WITH_UNIT(PLANE_ANGLE_MEASURE(0.0174532925),#576);
#576=(
NAMED_UNIT(*)
PLANE_ANGLE_UNIT()
SI_UNIT($,.RADIAN.)
);
#577=(
LENGTH_UNIT()
NAMED_UNIT(*)
SI_UNIT(.MILLI.,.METRE.)
);
ENDSEC;
END-ISO-10303-21;
