ISO-10303-21;
HEADER;
/* Generated by software containing ST-Developer
 * from STEP Tools, Inc. (www.steptools.com) 
 */
/* OPTION: using custom schema-name function */

FILE_DESCRIPTION(
/* description */ (''),
/* implementation_level */ '2;1');

FILE_NAME(
/* name */ '2080.40-MTS.4.095.stp',
/* time_stamp */ '2024-06-23T16:11:09+02:00',
/* author */ (''),
/* organization */ (''),
/* preprocessor_version */ 'ST-DEVELOPER v16.7',
/* originating_system */ 'SIEMENS PLM Software NX 12.0',
/* authorisation */ '');

FILE_SCHEMA (('AUTOMOTIVE_DESIGN { 1 0 10303 214 3 1 1 1 }'));
ENDSEC;

DATA;
#10=CONSTRUCTIVE_GEOMETRY_REPRESENTATION_RELATIONSHIP(
'supplemental geometry','',#32,#11);
#11=CONSTRUCTIVE_GEOMETRY_REPRESENTATION('supplemental geometry',(#293,
#294,#295),#496);
#12=PROPERTY_DEFINITION_REPRESENTATION(#16,#14);
#13=PROPERTY_DEFINITION_REPRESENTATION(#17,#15);
#14=REPRESENTATION('',(#18),#496);
#15=REPRESENTATION('',(#19),#496);
#16=PROPERTY_DEFINITION('pmi validation property','',#23);
#17=PROPERTY_DEFINITION('pmi validation property','',#23);
#18=VALUE_REPRESENTATION_ITEM('number of annotations',COUNT_MEASURE(0.));
#19=VALUE_REPRESENTATION_ITEM('number of views',COUNT_MEASURE(0.));
#20=SHAPE_REPRESENTATION_RELATIONSHIP('None',
'relationship between pf660F5CA0AEj82b-None and pf660F5CA0AEj82b-None',
#32,#21);
#21=ADVANCED_BREP_SHAPE_REPRESENTATION('pf660F5CA0AEj82b-None',(#38),#496);
#22=SHAPE_DEFINITION_REPRESENTATION(#23,#32);
#23=PRODUCT_DEFINITION_SHAPE('','',#24);
#24=PRODUCT_DEFINITION(' ','',#26,#25);
#25=PRODUCT_DEFINITION_CONTEXT('part definition',#31,'design');
#26=PRODUCT_DEFINITION_FORMATION_WITH_SPECIFIED_SOURCE(' ',' ',#28,
 .NOT_KNOWN.);
#27=PRODUCT_RELATED_PRODUCT_CATEGORY('part','',(#28));
#28=PRODUCT('pf660F5CA0AEj82b','pf660F5CA0AEj82b',' ',(#29));
#29=PRODUCT_CONTEXT(' ',#31,'mechanical');
#30=APPLICATION_PROTOCOL_DEFINITION('international standard',
'automotive_design',2010,#31);
#31=APPLICATION_CONTEXT(
'core data for automotive mechanical design processes');
#32=SHAPE_REPRESENTATION('pf660F5CA0AEj82b-None',(#292),#496);
#33=SURFACE_STYLE_USAGE(.BOTH.,#34);
#34=SURFACE_SIDE_STYLE('',(#35));
#35=SURFACE_STYLE_FILL_AREA(#36);
#36=FILL_AREA_STYLE('',(#37));
#37=FILL_AREA_STYLE_COLOUR('',#288);
#38=BREP_WITH_VOIDS('',#41,(#39,#40));
#39=ORIENTED_CLOSED_SHELL('',*,#42,.F.);
#40=ORIENTED_CLOSED_SHELL('',*,#43,.F.);
#41=CLOSED_SHELL('',(#85,#86,#87,#88,#89,#90,#91,#92,#93,#94,#95));
#42=CLOSED_SHELL('',(#96,#97));
#43=CLOSED_SHELL('',(#98,#99,#100,#101));
#44=CONICAL_SURFACE('',#314,17.42710970478,8.2971);
#45=CONICAL_SURFACE('',#322,10.15,45.00000093692);
#46=CONICAL_SURFACE('',#323,10.2,45.);
#47=TOROIDAL_SURFACE('',#304,25.,1.);
#48=FACE_BOUND('',#123,.T.);
#49=FACE_BOUND('',#124,.T.);
#50=FACE_BOUND('',#125,.T.);
#51=FACE_BOUND('',#126,.T.);
#52=FACE_BOUND('',#127,.T.);
#53=FACE_BOUND('',#128,.T.);
#54=FACE_BOUND('',#129,.T.);
#55=FACE_BOUND('',#130,.T.);
#56=FACE_BOUND('',#131,.T.);
#57=FACE_BOUND('',#132,.T.);
#58=CYLINDRICAL_SURFACE('',#300,24.);
#59=CYLINDRICAL_SURFACE('',#302,24.);
#60=CYLINDRICAL_SURFACE('',#308,31.5);
#61=CYLINDRICAL_SURFACE('',#318,12.5);
#62=CYLINDRICAL_SURFACE('',#319,12.5);
#63=CYLINDRICAL_SURFACE('',#330,0.005);
#64=CYLINDRICAL_SURFACE('',#331,0.005);
#65=LINE('',#434,#75);
#66=LINE('',#435,#76);
#67=LINE('',#457,#77);
#68=LINE('',#459,#78);
#69=LINE('',#467,#79);
#70=LINE('',#468,#80);
#71=LINE('',#474,#81);
#72=LINE('',#478,#82);
#73=LINE('',#491,#83);
#74=LINE('',#492,#84);
#75=VECTOR('',#348,1.);
#76=VECTOR('',#349,1.);
#77=VECTOR('',#378,1.);
#78=VECTOR('',#379,1.);
#79=VECTOR('',#388,1.);
#80=VECTOR('',#389,1.);
#81=VECTOR('',#396,1.);
#82=VECTOR('',#399,1.);
#83=VECTOR('',#416,1.);
#84=VECTOR('',#417,1.);
#85=ADVANCED_FACE('',(#108),#102,.T.);
#86=ADVANCED_FACE('',(#109),#58,.T.);
#87=ADVANCED_FACE('',(#110),#59,.T.);
#88=ADVANCED_FACE('',(#48,#49),#47,.F.);
#89=ADVANCED_FACE('',(#50,#51),#103,.T.);
#90=ADVANCED_FACE('',(#52,#53),#60,.T.);
#91=ADVANCED_FACE('',(#54,#55),#104,.F.);
#92=ADVANCED_FACE('',(#56,#57),#44,.T.);
#93=ADVANCED_FACE('',(#111),#105,.F.);
#94=ADVANCED_FACE('',(#112),#61,.T.);
#95=ADVANCED_FACE('',(#113),#62,.T.);
#96=ADVANCED_FACE('',(#114),#45,.T.);
#97=ADVANCED_FACE('',(#115),#46,.F.);
#98=ADVANCED_FACE('',(#116),#106,.F.);
#99=ADVANCED_FACE('',(#117),#107,.T.);
#100=ADVANCED_FACE('',(#118),#63,.T.);
#101=ADVANCED_FACE('',(#119),#64,.T.);
#102=PLANE('',#298);
#103=PLANE('',#306);
#104=PLANE('',#311);
#105=PLANE('',#317);
#106=PLANE('',#326);
#107=PLANE('',#329);
#108=FACE_OUTER_BOUND('',#120,.T.);
#109=FACE_OUTER_BOUND('',#121,.T.);
#110=FACE_OUTER_BOUND('',#122,.T.);
#111=FACE_OUTER_BOUND('',#133,.T.);
#112=FACE_OUTER_BOUND('',#134,.T.);
#113=FACE_OUTER_BOUND('',#135,.T.);
#114=FACE_OUTER_BOUND('',#136,.F.);
#115=FACE_OUTER_BOUND('',#137,.F.);
#116=FACE_OUTER_BOUND('',#138,.F.);
#117=FACE_OUTER_BOUND('',#139,.F.);
#118=FACE_OUTER_BOUND('',#140,.F.);
#119=FACE_OUTER_BOUND('',#141,.F.);
#120=EDGE_LOOP('',(#142,#143));
#121=EDGE_LOOP('',(#144,#145,#146,#147));
#122=EDGE_LOOP('',(#148,#149,#150,#151));
#123=EDGE_LOOP('',(#152));
#124=EDGE_LOOP('',(#153,#154));
#125=EDGE_LOOP('',(#155));
#126=EDGE_LOOP('',(#156));
#127=EDGE_LOOP('',(#157));
#128=EDGE_LOOP('',(#158));
#129=EDGE_LOOP('',(#159));
#130=EDGE_LOOP('',(#160,#161));
#131=EDGE_LOOP('',(#162,#163));
#132=EDGE_LOOP('',(#164,#165,#166,#167,#168,#169));
#133=EDGE_LOOP('',(#170,#171));
#134=EDGE_LOOP('',(#172,#173,#174,#175));
#135=EDGE_LOOP('',(#176,#177,#178,#179));
#136=EDGE_LOOP('',(#180,#181,#182,#183));
#137=EDGE_LOOP('',(#184,#185,#186,#187));
#138=EDGE_LOOP('',(#188,#189));
#139=EDGE_LOOP('',(#190,#191));
#140=EDGE_LOOP('',(#192,#193,#194,#195));
#141=EDGE_LOOP('',(#196,#197,#198,#199));
#142=ORIENTED_EDGE('',*,*,#223,.F.);
#143=ORIENTED_EDGE('',*,*,#224,.F.);
#144=ORIENTED_EDGE('',*,*,#225,.T.);
#145=ORIENTED_EDGE('',*,*,#226,.F.);
#146=ORIENTED_EDGE('',*,*,#223,.T.);
#147=ORIENTED_EDGE('',*,*,#227,.T.);
#148=ORIENTED_EDGE('',*,*,#226,.T.);
#149=ORIENTED_EDGE('',*,*,#228,.F.);
#150=ORIENTED_EDGE('',*,*,#227,.F.);
#151=ORIENTED_EDGE('',*,*,#224,.T.);
#152=ORIENTED_EDGE('',*,*,#229,.F.);
#153=ORIENTED_EDGE('',*,*,#228,.T.);
#154=ORIENTED_EDGE('',*,*,#225,.F.);
#155=ORIENTED_EDGE('',*,*,#230,.T.);
#156=ORIENTED_EDGE('',*,*,#229,.T.);
#157=ORIENTED_EDGE('',*,*,#231,.T.);
#158=ORIENTED_EDGE('',*,*,#230,.F.);
#159=ORIENTED_EDGE('',*,*,#231,.F.);
#160=ORIENTED_EDGE('',*,*,#232,.T.);
#161=ORIENTED_EDGE('',*,*,#233,.T.);
#162=ORIENTED_EDGE('',*,*,#234,.F.);
#163=ORIENTED_EDGE('',*,*,#235,.F.);
#164=ORIENTED_EDGE('',*,*,#236,.T.);
#165=ORIENTED_EDGE('',*,*,#236,.F.);
#166=ORIENTED_EDGE('',*,*,#233,.F.);
#167=ORIENTED_EDGE('',*,*,#237,.T.);
#168=ORIENTED_EDGE('',*,*,#237,.F.);
#169=ORIENTED_EDGE('',*,*,#232,.F.);
#170=ORIENTED_EDGE('',*,*,#238,.T.);
#171=ORIENTED_EDGE('',*,*,#239,.T.);
#172=ORIENTED_EDGE('',*,*,#240,.F.);
#173=ORIENTED_EDGE('',*,*,#235,.T.);
#174=ORIENTED_EDGE('',*,*,#241,.T.);
#175=ORIENTED_EDGE('',*,*,#238,.F.);
#176=ORIENTED_EDGE('',*,*,#241,.F.);
#177=ORIENTED_EDGE('',*,*,#234,.T.);
#178=ORIENTED_EDGE('',*,*,#240,.T.);
#179=ORIENTED_EDGE('',*,*,#239,.F.);
#180=ORIENTED_EDGE('',*,*,#242,.T.);
#181=ORIENTED_EDGE('',*,*,#243,.T.);
#182=ORIENTED_EDGE('',*,*,#244,.T.);
#183=ORIENTED_EDGE('',*,*,#245,.T.);
#184=ORIENTED_EDGE('',*,*,#245,.F.);
#185=ORIENTED_EDGE('',*,*,#244,.F.);
#186=ORIENTED_EDGE('',*,*,#243,.F.);
#187=ORIENTED_EDGE('',*,*,#242,.F.);
#188=ORIENTED_EDGE('',*,*,#246,.T.);
#189=ORIENTED_EDGE('',*,*,#247,.F.);
#190=ORIENTED_EDGE('',*,*,#248,.F.);
#191=ORIENTED_EDGE('',*,*,#249,.T.);
#192=ORIENTED_EDGE('',*,*,#250,.T.);
#193=ORIENTED_EDGE('',*,*,#249,.F.);
#194=ORIENTED_EDGE('',*,*,#251,.F.);
#195=ORIENTED_EDGE('',*,*,#246,.F.);
#196=ORIENTED_EDGE('',*,*,#251,.T.);
#197=ORIENTED_EDGE('',*,*,#248,.T.);
#198=ORIENTED_EDGE('',*,*,#250,.F.);
#199=ORIENTED_EDGE('',*,*,#247,.T.);
#200=VERTEX_POINT('',#427);
#201=VERTEX_POINT('',#428);
#202=VERTEX_POINT('',#432);
#203=VERTEX_POINT('',#433);
#204=VERTEX_POINT('',#440);
#205=VERTEX_POINT('',#443);
#206=VERTEX_POINT('',#446);
#207=VERTEX_POINT('',#449);
#208=VERTEX_POINT('',#450);
#209=VERTEX_POINT('',#454);
#210=VERTEX_POINT('',#455);
#211=VERTEX_POINT('',#458);
#212=VERTEX_POINT('',#460);
#213=VERTEX_POINT('',#463);
#214=VERTEX_POINT('',#464);
#215=VERTEX_POINT('',#472);
#216=VERTEX_POINT('',#473);
#217=VERTEX_POINT('',#475);
#218=VERTEX_POINT('',#477);
#219=VERTEX_POINT('',#482);
#220=VERTEX_POINT('',#483);
#221=VERTEX_POINT('',#487);
#222=VERTEX_POINT('',#488);
#223=EDGE_CURVE('',#200,#201,#252,.T.);
#224=EDGE_CURVE('',#201,#200,#253,.T.);
#225=EDGE_CURVE('',#202,#203,#254,.T.);
#226=EDGE_CURVE('',#200,#203,#65,.T.);
#227=EDGE_CURVE('',#201,#202,#66,.T.);
#228=EDGE_CURVE('',#202,#203,#255,.T.);
#229=EDGE_CURVE('',#204,#204,#256,.T.);
#230=EDGE_CURVE('',#205,#205,#257,.T.);
#231=EDGE_CURVE('',#206,#206,#258,.T.);
#232=EDGE_CURVE('',#207,#208,#259,.T.);
#233=EDGE_CURVE('',#208,#207,#260,.T.);
#234=EDGE_CURVE('',#209,#210,#261,.T.);
#235=EDGE_CURVE('',#210,#209,#262,.T.);
#236=EDGE_CURVE('',#207,#211,#67,.T.);
#237=EDGE_CURVE('',#208,#212,#68,.T.);
#238=EDGE_CURVE('',#213,#214,#263,.T.);
#239=EDGE_CURVE('',#214,#213,#264,.T.);
#240=EDGE_CURVE('',#210,#213,#69,.T.);
#241=EDGE_CURVE('',#209,#214,#70,.T.);
#242=EDGE_CURVE('',#215,#216,#265,.T.);
#243=EDGE_CURVE('',#216,#217,#71,.T.);
#244=EDGE_CURVE('',#217,#218,#266,.T.);
#245=EDGE_CURVE('',#218,#215,#72,.T.);
#246=EDGE_CURVE('',#219,#220,#267,.T.);
#247=EDGE_CURVE('',#219,#220,#268,.T.);
#248=EDGE_CURVE('',#221,#222,#269,.T.);
#249=EDGE_CURVE('',#221,#222,#270,.T.);
#250=EDGE_CURVE('',#219,#222,#73,.T.);
#251=EDGE_CURVE('',#220,#221,#74,.T.);
#252=CIRCLE('',#296,24.);
#253=CIRCLE('',#297,24.);
#254=CIRCLE('',#299,24.);
#255=CIRCLE('',#301,24.);
#256=CIRCLE('',#303,25.);
#257=CIRCLE('',#305,31.5);
#258=CIRCLE('',#307,31.5);
#259=CIRCLE('',#309,22.4583320508297);
#260=CIRCLE('',#310,22.4583320508297);
#261=CIRCLE('',#312,12.5);
#262=CIRCLE('',#313,12.5);
#263=CIRCLE('',#315,12.5);
#264=CIRCLE('',#316,12.5);
#265=CIRCLE('',#320,10.15);
#266=CIRCLE('',#321,10.25);
#267=CIRCLE('',#324,0.005);
#268=CIRCLE('',#325,0.005);
#269=CIRCLE('',#327,0.005);
#270=CIRCLE('',#328,0.005);
#271=INVISIBILITY((#272,#273,#274));
#272=PRESENTATION_LAYER_ASSIGNMENT('100','Layer 100',(#293));
#273=PRESENTATION_LAYER_ASSIGNMENT('101','Layer 101',(#294));
#274=PRESENTATION_LAYER_ASSIGNMENT('102','Layer 102',(#295));
#275=PRESENTATION_LAYER_ASSIGNMENT('98','Layer 98',(#38));
#276=STYLED_ITEM('',(#280),#293);
#277=STYLED_ITEM('',(#281),#294);
#278=STYLED_ITEM('',(#282),#295);
#279=STYLED_ITEM('',(#283),#38);
#280=PRESENTATION_STYLE_ASSIGNMENT((#284));
#281=PRESENTATION_STYLE_ASSIGNMENT((#285));
#282=PRESENTATION_STYLE_ASSIGNMENT((#286));
#283=PRESENTATION_STYLE_ASSIGNMENT((#33));
#284=CURVE_STYLE('',#289,POSITIVE_LENGTH_MEASURE(0.7),#287);
#285=CURVE_STYLE('',#290,POSITIVE_LENGTH_MEASURE(0.7),#287);
#286=CURVE_STYLE('',#291,POSITIVE_LENGTH_MEASURE(0.7),#287);
#287=COLOUR_RGB('Medium Maroon',0.6,0.4,0.4);
#288=COLOUR_RGB('Medium Gray',0.490196078431373,0.490196078431373,0.490196078431373);
#289=DRAUGHTING_PRE_DEFINED_CURVE_FONT('continuous');
#290=DRAUGHTING_PRE_DEFINED_CURVE_FONT('continuous');
#291=DRAUGHTING_PRE_DEFINED_CURVE_FONT('continuous');
#292=AXIS2_PLACEMENT_3D('',#422,#332,#333);
#293=AXIS2_PLACEMENT_3D('PCS',#423,#334,#335);
#294=AXIS2_PLACEMENT_3D('CSW',#424,#336,#337);
#295=AXIS2_PLACEMENT_3D('MCS',#425,#338,#339);
#296=AXIS2_PLACEMENT_3D('',#426,#340,#341);
#297=AXIS2_PLACEMENT_3D('',#429,#342,#343);
#298=AXIS2_PLACEMENT_3D('',#430,#344,#345);
#299=AXIS2_PLACEMENT_3D('',#431,#346,#347);
#300=AXIS2_PLACEMENT_3D('',#436,#350,#351);
#301=AXIS2_PLACEMENT_3D('',#437,#352,#353);
#302=AXIS2_PLACEMENT_3D('',#438,#354,#355);
#303=AXIS2_PLACEMENT_3D('',#439,#356,#357);
#304=AXIS2_PLACEMENT_3D('',#441,#358,#359);
#305=AXIS2_PLACEMENT_3D('',#442,#360,#361);
#306=AXIS2_PLACEMENT_3D('',#444,#362,#363);
#307=AXIS2_PLACEMENT_3D('',#445,#364,#365);
#308=AXIS2_PLACEMENT_3D('',#447,#366,#367);
#309=AXIS2_PLACEMENT_3D('',#448,#368,#369);
#310=AXIS2_PLACEMENT_3D('',#451,#370,#371);
#311=AXIS2_PLACEMENT_3D('',#452,#372,#373);
#312=AXIS2_PLACEMENT_3D('',#453,#374,#375);
#313=AXIS2_PLACEMENT_3D('',#456,#376,#377);
#314=AXIS2_PLACEMENT_3D('',#461,#380,#381);
#315=AXIS2_PLACEMENT_3D('',#462,#382,#383);
#316=AXIS2_PLACEMENT_3D('',#465,#384,#385);
#317=AXIS2_PLACEMENT_3D('',#466,#386,#387);
#318=AXIS2_PLACEMENT_3D('',#469,#390,#391);
#319=AXIS2_PLACEMENT_3D('',#470,#392,#393);
#320=AXIS2_PLACEMENT_3D('',#471,#394,#395);
#321=AXIS2_PLACEMENT_3D('',#476,#397,#398);
#322=AXIS2_PLACEMENT_3D('',#479,#400,#401);
#323=AXIS2_PLACEMENT_3D('',#480,#402,#403);
#324=AXIS2_PLACEMENT_3D('',#481,#404,#405);
#325=AXIS2_PLACEMENT_3D('',#484,#406,#407);
#326=AXIS2_PLACEMENT_3D('',#485,#408,#409);
#327=AXIS2_PLACEMENT_3D('',#486,#410,#411);
#328=AXIS2_PLACEMENT_3D('',#489,#412,#413);
#329=AXIS2_PLACEMENT_3D('',#490,#414,#415);
#330=AXIS2_PLACEMENT_3D('',#493,#418,#419);
#331=AXIS2_PLACEMENT_3D('',#494,#420,#421);
#332=DIRECTION('',(0.,0.,1.));
#333=DIRECTION('',(1.,0.,0.));
#334=DIRECTION('',(0.,0.,1.));
#335=DIRECTION('',(1.,0.,0.));
#336=DIRECTION('',(0.,0.,1.));
#337=DIRECTION('',(1.,0.,0.));
#338=DIRECTION('',(0.,0.,1.));
#339=DIRECTION('',(1.,0.,0.));
#340=DIRECTION('',(0.,0.,1.));
#341=DIRECTION('',(-1.,0.,0.));
#342=DIRECTION('',(0.,0.,1.));
#343=DIRECTION('',(-1.,0.,0.));
#344=DIRECTION('',(0.,0.,-1.));
#345=DIRECTION('',(0.,1.,0.));
#346=DIRECTION('',(0.,0.,-1.));
#347=DIRECTION('',(0.,1.,0.));
#348=DIRECTION('',(0.,0.,1.));
#349=DIRECTION('',(0.,0.,1.));
#350=DIRECTION('',(0.,0.,-1.));
#351=DIRECTION('',(0.,1.,0.));
#352=DIRECTION('',(0.,0.,1.));
#353=DIRECTION('',(0.,1.,0.));
#354=DIRECTION('',(0.,0.,-1.));
#355=DIRECTION('',(0.,1.,0.));
#356=DIRECTION('',(0.,0.,1.));
#357=DIRECTION('',(-0.94673966854674,-0.322000000000014,0.));
#358=DIRECTION('',(0.,0.,-1.));
#359=DIRECTION('',(0.,1.,0.));
#360=DIRECTION('',(0.,0.,-1.));
#361=DIRECTION('',(-1.,0.,0.));
#362=DIRECTION('',(0.,0.,-1.));
#363=DIRECTION('',(0.,1.,0.));
#364=DIRECTION('',(0.,0.,-1.));
#365=DIRECTION('',(-1.,0.,0.));
#366=DIRECTION('',(0.,0.,-1.));
#367=DIRECTION('',(0.,1.,0.));
#368=DIRECTION('',(0.,0.,-1.));
#369=DIRECTION('',(-1.,0.,0.));
#370=DIRECTION('',(0.,0.,-1.));
#371=DIRECTION('',(-1.,0.,0.));
#372=DIRECTION('',(0.,0.,-1.));
#373=DIRECTION('',(0.,1.,0.));
#374=DIRECTION('',(0.,0.,1.));
#375=DIRECTION('',(-1.,0.,0.));
#376=DIRECTION('',(0.,0.,1.));
#377=DIRECTION('',(-1.,0.,0.));
#378=DIRECTION('',(0.,-0.144306116415197,0.989533094325381));
#379=DIRECTION('',(0.,0.144306116415197,0.989533094325381));
#380=DIRECTION('',(0.,0.,-1.));
#381=DIRECTION('',(0.,1.,2.55013198898809E-16));
#382=DIRECTION('',(0.,0.,1.));
#383=DIRECTION('',(-1.,0.,0.));
#384=DIRECTION('',(0.,0.,1.));
#385=DIRECTION('',(-1.,0.,0.));
#386=DIRECTION('',(0.,0.,-1.));
#387=DIRECTION('',(0.,1.,0.));
#388=DIRECTION('',(-2.114909474069E-13,0.,1.));
#389=DIRECTION('',(2.113344730051E-13,0.,1.));
#390=DIRECTION('',(0.,0.,-1.));
#391=DIRECTION('',(0.,1.,0.));
#392=DIRECTION('',(0.,0.,-1.));
#393=DIRECTION('',(0.,1.,0.));
#394=DIRECTION('',(0.,0.,-1.));
#395=DIRECTION('',(3.304287816748E-10,-1.,0.));
#396=DIRECTION('',(-1.174090129356E-8,-0.707106792749397,0.707106769623697));
#397=DIRECTION('',(0.,0.,1.));
#398=DIRECTION('',(0.,-1.,0.));
#399=DIRECTION('',(-1.174088718445E-8,-0.707106792749397,-0.707106769623697));
#400=DIRECTION('',(0.,0.,1.));
#401=DIRECTION('',(1.,0.,-8.92992306393024E-17));
#402=DIRECTION('',(0.,0.,1.));
#403=DIRECTION('',(0.,1.,2.06064954580496E-17));
#404=DIRECTION('',(0.,0.,-1.));
#405=DIRECTION('',(0.,-1.,0.));
#406=DIRECTION('',(0.,0.,1.));
#407=DIRECTION('',(0.,1.,0.));
#408=DIRECTION('',(0.,0.,-1.));
#409=DIRECTION('',(-1.,0.,0.));
#410=DIRECTION('',(0.,0.,-1.));
#411=DIRECTION('',(0.,1.,0.));
#412=DIRECTION('',(0.,0.,1.));
#413=DIRECTION('',(0.,1.,0.));
#414=DIRECTION('',(0.,0.,-1.));
#415=DIRECTION('',(-1.,0.,0.));
#416=DIRECTION('',(0.,0.,-1.));
#417=DIRECTION('',(0.,0.,-1.));
#418=DIRECTION('',(0.,0.,-1.));
#419=DIRECTION('',(0.,1.,0.));
#420=DIRECTION('',(0.,0.,-1.));
#421=DIRECTION('',(0.,1.,0.));
#422=CARTESIAN_POINT('',(0.,0.,0.));
#423=CARTESIAN_POINT('',(0.,0.,0.));
#424=CARTESIAN_POINT('',(0.,0.,-95.));
#425=CARTESIAN_POINT('',(0.,0.,0.));
#426=CARTESIAN_POINT('',(0.,0.,-95.));
#427=CARTESIAN_POINT('',(4.544858869411E-13,-24.,-95.));
#428=CARTESIAN_POINT('',(-4.552206550206E-13,24.,-95.));
#429=CARTESIAN_POINT('',(0.,0.,-95.));
#430=CARTESIAN_POINT('',(0.,0.,-95.));
#431=CARTESIAN_POINT('',(0.,0.,-12.6));
#432=CARTESIAN_POINT('',(0.,24.,-12.6));
#433=CARTESIAN_POINT('',(0.,-24.,-12.6));
#434=CARTESIAN_POINT('',(4.544858869411E-13,-24.,-93.));
#435=CARTESIAN_POINT('',(-4.552206550206E-13,24.,-93.));
#436=CARTESIAN_POINT('',(0.,0.,-7.43));
#437=CARTESIAN_POINT('',(0.,0.,-12.6));
#438=CARTESIAN_POINT('',(0.,0.,-7.43));
#439=CARTESIAN_POINT('',(0.,0.,-11.6));
#440=CARTESIAN_POINT('',(-23.6684917136685,-8.05000000000034,-11.6));
#441=CARTESIAN_POINT('',(0.,0.,-12.6));
#442=CARTESIAN_POINT('',(0.,0.,-11.6));
#443=CARTESIAN_POINT('',(-31.5,0.,-11.6));
#444=CARTESIAN_POINT('',(0.,0.,-11.6));
#445=CARTESIAN_POINT('',(0.,0.,-1.6));
#446=CARTESIAN_POINT('',(-31.5,0.,-1.6));
#447=CARTESIAN_POINT('',(0.,0.,98.65));
#448=CARTESIAN_POINT('',(0.,0.,-1.6));
#449=CARTESIAN_POINT('',(0.,22.4583320508297,-1.6));
#450=CARTESIAN_POINT('',(2.7503524460237E-15,-22.4583320508297,-1.6));
#451=CARTESIAN_POINT('',(0.,0.,-1.6));
#452=CARTESIAN_POINT('',(0.,0.,-1.6));
#453=CARTESIAN_POINT('',(0.,0.,66.686080821567));
#454=CARTESIAN_POINT('',(0.,12.5,66.686080821567));
#455=CARTESIAN_POINT('',(7.65404249467096E-16,-12.5,66.686080821567));
#456=CARTESIAN_POINT('',(0.,0.,66.686080821567));
#457=CARTESIAN_POINT('',(0.,22.16666698729,0.399999999999999));
#458=CARTESIAN_POINT('',(0.,12.68755242227,65.4));
#459=CARTESIAN_POINT('',(0.,-22.16666698729,0.399999999999999));
#460=CARTESIAN_POINT('',(0.,-12.68755242227,65.4));
#461=CARTESIAN_POINT('',(0.,0.,32.9));
#462=CARTESIAN_POINT('',(0.,0.,93.4));
#463=CARTESIAN_POINT('',(-2.19181551015319E-12,-12.5,93.4));
#464=CARTESIAN_POINT('',(2.19019386617735E-12,12.5,93.4));
#465=CARTESIAN_POINT('',(0.,0.,93.4));
#466=CARTESIAN_POINT('',(0.,0.,93.4));
#467=CARTESIAN_POINT('',(0.,-12.5,83.03636251562));
#468=CARTESIAN_POINT('',(0.,12.5,83.03636251562));
#469=CARTESIAN_POINT('',(0.,0.,98.65));
#470=CARTESIAN_POINT('',(0.,0.,98.65));
#471=CARTESIAN_POINT('',(0.,0.,27.));
#472=CARTESIAN_POINT('',(-3.353850890973E-9,10.15,27.));
#473=CARTESIAN_POINT('',(3.353852134009E-9,-10.15,27.));
#474=CARTESIAN_POINT('',(1.693469414114E-9,-10.24999999956,27.09999999956));
#475=CARTESIAN_POINT('',(0.,-10.25,27.1));
#476=CARTESIAN_POINT('',(0.,0.,27.1));
#477=CARTESIAN_POINT('',(0.,10.25,27.1));
#478=CARTESIAN_POINT('',(-1.693469707958E-9,10.24999999956,27.09999999956));
#479=CARTESIAN_POINT('',(0.,0.,27.));
#480=CARTESIAN_POINT('',(0.,0.,27.05));
#481=CARTESIAN_POINT('',(0.,0.,29.7));
#482=CARTESIAN_POINT('',(0.,-0.005,29.7));
#483=CARTESIAN_POINT('',(0.,0.005,29.7));
#484=CARTESIAN_POINT('',(0.,0.,29.7));
#485=CARTESIAN_POINT('',(0.,0.,29.7));
#486=CARTESIAN_POINT('',(0.,0.,-18.));
#487=CARTESIAN_POINT('',(0.,0.005,-18.));
#488=CARTESIAN_POINT('',(0.,-0.005,-18.));
#489=CARTESIAN_POINT('',(0.,0.,-18.));
#490=CARTESIAN_POINT('',(0.,0.,-18.));
#491=CARTESIAN_POINT('',(0.,-0.005,29.7));
#492=CARTESIAN_POINT('',(0.,0.005,29.7));
#493=CARTESIAN_POINT('',(0.,0.,38.7));
#494=CARTESIAN_POINT('',(0.,0.,38.7));
#495=MECHANICAL_DESIGN_GEOMETRIC_PRESENTATION_REPRESENTATION('',(#276,#277,
#278,#279),#496);
#496=(
GEOMETRIC_REPRESENTATION_CONTEXT(3)
GLOBAL_UNCERTAINTY_ASSIGNED_CONTEXT((#497))
GLOBAL_UNIT_ASSIGNED_CONTEXT((#503,#499,#498))
REPRESENTATION_CONTEXT('2080.40-MTS.4','TOP_LEVEL_ASSEMBLY_PART')
);
#497=UNCERTAINTY_MEASURE_WITH_UNIT(LENGTH_MEASURE(2.E-5),#503,
'DISTANCE_ACCURACY_VALUE','Maximum Tolerance applied to model');
#498=(
NAMED_UNIT(*)
SI_UNIT($,.STERADIAN.)
SOLID_ANGLE_UNIT()
);
#499=(
CONVERSION_BASED_UNIT('DEGREE',#501)
NAMED_UNIT(#500)
PLANE_ANGLE_UNIT()
);
#500=DIMENSIONAL_EXPONENTS(0.,0.,0.,0.,0.,0.,0.);
#501=PLANE_ANGLE_MEASURE_WITH_UNIT(PLANE_ANGLE_MEASURE(0.0174532925),#502);
#502=(
NAMED_UNIT(*)
PLANE_ANGLE_UNIT()
SI_UNIT($,.RADIAN.)
);
#503=(
LENGTH_UNIT()
NAMED_UNIT(*)
SI_UNIT(.MILLI.,.METRE.)
);
ENDSEC;
END-ISO-10303-21;
