ISO-10303-21;
HEADER;
/* Generated by software containing ST-Developer
 * from STEP Tools, Inc. (www.steptools.com) 
 */
/* OPTION: using custom schema-name function */

FILE_DESCRIPTION(
/* description */ (''),
/* implementation_level */ '2;1');

FILE_NAME(
/* name */ '2080.40-MTS.1.050.stp',
/* time_stamp */ '2024-06-23T16:02:14+02:00',
/* author */ (''),
/* organization */ (''),
/* preprocessor_version */ 'ST-DEVELOPER v16.7',
/* originating_system */ 'SIEMENS PLM Software NX 12.0',
/* authorisation */ '');

FILE_SCHEMA (('AUTOMOTIVE_DESIGN { 1 0 10303 214 3 1 1 1 }'));
ENDSEC;

DATA;
#10=CONSTRUCTIVE_GEOMETRY_REPRESENTATION_RELATIONSHIP(
'supplemental geometry','',#32,#11);
#11=CONSTRUCTIVE_GEOMETRY_REPRESENTATION('supplemental geometry',(#272,
#273,#274),#464);
#12=PROPERTY_DEFINITION_REPRESENTATION(#16,#14);
#13=PROPERTY_DEFINITION_REPRESENTATION(#17,#15);
#14=REPRESENTATION('',(#18),#464);
#15=REPRESENTATION('',(#19),#464);
#16=PROPERTY_DEFINITION('pmi validation property','',#23);
#17=PROPERTY_DEFINITION('pmi validation property','',#23);
#18=VALUE_REPRESENTATION_ITEM('number of annotations',COUNT_MEASURE(0.));
#19=VALUE_REPRESENTATION_ITEM('number of views',COUNT_MEASURE(0.));
#20=SHAPE_REPRESENTATION_RELATIONSHIP('None',
'relationship between pf660F5CA0AEj81f-None and pf660F5CA0AEj81f-None',
#32,#21);
#21=ADVANCED_BREP_SHAPE_REPRESENTATION('pf660F5CA0AEj81f-None',(#38),#464);
#22=SHAPE_DEFINITION_REPRESENTATION(#23,#32);
#23=PRODUCT_DEFINITION_SHAPE('','',#24);
#24=PRODUCT_DEFINITION(' ','',#26,#25);
#25=PRODUCT_DEFINITION_CONTEXT('part definition',#31,'design');
#26=PRODUCT_DEFINITION_FORMATION_WITH_SPECIFIED_SOURCE(' ',' ',#28,
 .NOT_KNOWN.);
#27=PRODUCT_RELATED_PRODUCT_CATEGORY('part','',(#28));
#28=PRODUCT('pf660F5CA0AEj81f','pf660F5CA0AEj81f',' ',(#29));
#29=PRODUCT_CONTEXT(' ',#31,'mechanical');
#30=APPLICATION_PROTOCOL_DEFINITION('international standard',
'automotive_design',2010,#31);
#31=APPLICATION_CONTEXT(
'core data for automotive mechanical design processes');
#32=SHAPE_REPRESENTATION('pf660F5CA0AEj81f-None',(#271),#464);
#33=SURFACE_STYLE_USAGE(.BOTH.,#34);
#34=SURFACE_SIDE_STYLE('',(#35));
#35=SURFACE_STYLE_FILL_AREA(#36);
#36=FILL_AREA_STYLE('',(#37));
#37=FILL_AREA_STYLE_COLOUR('',#267);
#38=MANIFOLD_SOLID_BREP('',#39);
#39=CLOSED_SHELL('',(#76,#77,#78,#79,#80,#81,#82,#83,#84,#85,#86,#87,#88,
#89,#90));
#40=CONICAL_SURFACE('',#297,17.42710970478,8.2971);
#41=FACE_BOUND('',#111,.T.);
#42=FACE_BOUND('',#112,.T.);
#43=FACE_BOUND('',#113,.T.);
#44=FACE_BOUND('',#114,.T.);
#45=FACE_BOUND('',#115,.T.);
#46=FACE_BOUND('',#116,.T.);
#47=FACE_BOUND('',#117,.T.);
#48=FACE_BOUND('',#118,.T.);
#49=FACE_BOUND('',#122,.T.);
#50=FACE_BOUND('',#123,.T.);
#51=TOROIDAL_SURFACE('',#285,17.5,5.);
#52=TOROIDAL_SURFACE('',#287,17.5,5.);
#53=CYLINDRICAL_SURFACE('',#279,12.5);
#54=CYLINDRICAL_SURFACE('',#281,12.5);
#55=CYLINDRICAL_SURFACE('',#291,31.5);
#56=CYLINDRICAL_SURFACE('',#302,0.005);
#57=CYLINDRICAL_SURFACE('',#304,0.005);
#58=CYLINDRICAL_SURFACE('',#308,12.5);
#59=CYLINDRICAL_SURFACE('',#309,12.5);
#60=LINE('',#405,#68);
#61=LINE('',#409,#69);
#62=LINE('',#436,#70);
#63=LINE('',#438,#71);
#64=LINE('',#446,#72);
#65=LINE('',#450,#73);
#66=LINE('',#459,#74);
#67=LINE('',#460,#75);
#68=VECTOR('',#324,1.);
#69=VECTOR('',#327,1.);
#70=VECTOR('',#364,1.);
#71=VECTOR('',#365,1.);
#72=VECTOR('',#374,1.);
#73=VECTOR('',#377,1.);
#74=VECTOR('',#390,1.);
#75=VECTOR('',#391,1.);
#76=ADVANCED_FACE('',(#96),#91,.T.);
#77=ADVANCED_FACE('',(#97),#53,.T.);
#78=ADVANCED_FACE('',(#98),#54,.T.);
#79=ADVANCED_FACE('',(#99),#51,.F.);
#80=ADVANCED_FACE('',(#100),#52,.F.);
#81=ADVANCED_FACE('',(#41,#42),#92,.T.);
#82=ADVANCED_FACE('',(#43,#44),#55,.T.);
#83=ADVANCED_FACE('',(#45,#46),#93,.F.);
#84=ADVANCED_FACE('',(#47,#48),#40,.T.);
#85=ADVANCED_FACE('',(#101),#94,.F.);
#86=ADVANCED_FACE('',(#102),#56,.F.);
#87=ADVANCED_FACE('',(#103),#57,.F.);
#88=ADVANCED_FACE('',(#49,#50),#95,.F.);
#89=ADVANCED_FACE('',(#104),#58,.T.);
#90=ADVANCED_FACE('',(#105),#59,.T.);
#91=PLANE('',#277);
#92=PLANE('',#289);
#93=PLANE('',#294);
#94=PLANE('',#300);
#95=PLANE('',#307);
#96=FACE_OUTER_BOUND('',#106,.T.);
#97=FACE_OUTER_BOUND('',#107,.T.);
#98=FACE_OUTER_BOUND('',#108,.T.);
#99=FACE_OUTER_BOUND('',#109,.T.);
#100=FACE_OUTER_BOUND('',#110,.T.);
#101=FACE_OUTER_BOUND('',#119,.T.);
#102=FACE_OUTER_BOUND('',#120,.T.);
#103=FACE_OUTER_BOUND('',#121,.T.);
#104=FACE_OUTER_BOUND('',#124,.T.);
#105=FACE_OUTER_BOUND('',#125,.T.);
#106=EDGE_LOOP('',(#126,#127));
#107=EDGE_LOOP('',(#128,#129,#130,#131));
#108=EDGE_LOOP('',(#132,#133,#134,#135));
#109=EDGE_LOOP('',(#136,#137,#138,#139));
#110=EDGE_LOOP('',(#140,#141,#142,#143));
#111=EDGE_LOOP('',(#144));
#112=EDGE_LOOP('',(#145,#146));
#113=EDGE_LOOP('',(#147));
#114=EDGE_LOOP('',(#148));
#115=EDGE_LOOP('',(#149));
#116=EDGE_LOOP('',(#150,#151));
#117=EDGE_LOOP('',(#152,#153));
#118=EDGE_LOOP('',(#154,#155,#156,#157,#158,#159));
#119=EDGE_LOOP('',(#160,#161));
#120=EDGE_LOOP('',(#162,#163,#164,#165));
#121=EDGE_LOOP('',(#166,#167,#168,#169));
#122=EDGE_LOOP('',(#170,#171));
#123=EDGE_LOOP('',(#172,#173));
#124=EDGE_LOOP('',(#174,#175,#176,#177));
#125=EDGE_LOOP('',(#178,#179,#180,#181));
#126=ORIENTED_EDGE('',*,*,#202,.F.);
#127=ORIENTED_EDGE('',*,*,#203,.F.);
#128=ORIENTED_EDGE('',*,*,#204,.T.);
#129=ORIENTED_EDGE('',*,*,#205,.T.);
#130=ORIENTED_EDGE('',*,*,#206,.F.);
#131=ORIENTED_EDGE('',*,*,#202,.T.);
#132=ORIENTED_EDGE('',*,*,#206,.T.);
#133=ORIENTED_EDGE('',*,*,#207,.F.);
#134=ORIENTED_EDGE('',*,*,#204,.F.);
#135=ORIENTED_EDGE('',*,*,#203,.T.);
#136=ORIENTED_EDGE('',*,*,#208,.F.);
#137=ORIENTED_EDGE('',*,*,#205,.F.);
#138=ORIENTED_EDGE('',*,*,#209,.T.);
#139=ORIENTED_EDGE('',*,*,#210,.T.);
#140=ORIENTED_EDGE('',*,*,#209,.F.);
#141=ORIENTED_EDGE('',*,*,#207,.T.);
#142=ORIENTED_EDGE('',*,*,#208,.T.);
#143=ORIENTED_EDGE('',*,*,#211,.T.);
#144=ORIENTED_EDGE('',*,*,#212,.F.);
#145=ORIENTED_EDGE('',*,*,#211,.F.);
#146=ORIENTED_EDGE('',*,*,#210,.F.);
#147=ORIENTED_EDGE('',*,*,#212,.T.);
#148=ORIENTED_EDGE('',*,*,#213,.F.);
#149=ORIENTED_EDGE('',*,*,#213,.T.);
#150=ORIENTED_EDGE('',*,*,#214,.T.);
#151=ORIENTED_EDGE('',*,*,#215,.T.);
#152=ORIENTED_EDGE('',*,*,#216,.F.);
#153=ORIENTED_EDGE('',*,*,#217,.F.);
#154=ORIENTED_EDGE('',*,*,#218,.T.);
#155=ORIENTED_EDGE('',*,*,#218,.F.);
#156=ORIENTED_EDGE('',*,*,#215,.F.);
#157=ORIENTED_EDGE('',*,*,#219,.T.);
#158=ORIENTED_EDGE('',*,*,#219,.F.);
#159=ORIENTED_EDGE('',*,*,#214,.F.);
#160=ORIENTED_EDGE('',*,*,#220,.F.);
#161=ORIENTED_EDGE('',*,*,#221,.F.);
#162=ORIENTED_EDGE('',*,*,#222,.F.);
#163=ORIENTED_EDGE('',*,*,#223,.F.);
#164=ORIENTED_EDGE('',*,*,#224,.T.);
#165=ORIENTED_EDGE('',*,*,#221,.T.);
#166=ORIENTED_EDGE('',*,*,#224,.F.);
#167=ORIENTED_EDGE('',*,*,#225,.F.);
#168=ORIENTED_EDGE('',*,*,#222,.T.);
#169=ORIENTED_EDGE('',*,*,#220,.T.);
#170=ORIENTED_EDGE('',*,*,#226,.T.);
#171=ORIENTED_EDGE('',*,*,#227,.T.);
#172=ORIENTED_EDGE('',*,*,#225,.T.);
#173=ORIENTED_EDGE('',*,*,#223,.T.);
#174=ORIENTED_EDGE('',*,*,#228,.F.);
#175=ORIENTED_EDGE('',*,*,#217,.T.);
#176=ORIENTED_EDGE('',*,*,#229,.T.);
#177=ORIENTED_EDGE('',*,*,#226,.F.);
#178=ORIENTED_EDGE('',*,*,#229,.F.);
#179=ORIENTED_EDGE('',*,*,#216,.T.);
#180=ORIENTED_EDGE('',*,*,#228,.T.);
#181=ORIENTED_EDGE('',*,*,#227,.F.);
#182=VERTEX_POINT('',#401);
#183=VERTEX_POINT('',#402);
#184=VERTEX_POINT('',#406);
#185=VERTEX_POINT('',#408);
#186=VERTEX_POINT('',#414);
#187=VERTEX_POINT('',#416);
#188=VERTEX_POINT('',#422);
#189=VERTEX_POINT('',#425);
#190=VERTEX_POINT('',#428);
#191=VERTEX_POINT('',#429);
#192=VERTEX_POINT('',#433);
#193=VERTEX_POINT('',#434);
#194=VERTEX_POINT('',#437);
#195=VERTEX_POINT('',#439);
#196=VERTEX_POINT('',#442);
#197=VERTEX_POINT('',#443);
#198=VERTEX_POINT('',#447);
#199=VERTEX_POINT('',#449);
#200=VERTEX_POINT('',#455);
#201=VERTEX_POINT('',#456);
#202=EDGE_CURVE('',#182,#183,#230,.T.);
#203=EDGE_CURVE('',#183,#182,#231,.T.);
#204=EDGE_CURVE('',#183,#184,#60,.T.);
#205=EDGE_CURVE('',#184,#185,#232,.T.);
#206=EDGE_CURVE('',#182,#185,#61,.T.);
#207=EDGE_CURVE('',#184,#185,#233,.T.);
#208=EDGE_CURVE('',#185,#186,#234,.T.);
#209=EDGE_CURVE('',#184,#187,#235,.T.);
#210=EDGE_CURVE('',#187,#186,#236,.T.);
#211=EDGE_CURVE('',#186,#187,#237,.T.);
#212=EDGE_CURVE('',#188,#188,#238,.T.);
#213=EDGE_CURVE('',#189,#189,#239,.T.);
#214=EDGE_CURVE('',#190,#191,#240,.T.);
#215=EDGE_CURVE('',#191,#190,#241,.T.);
#216=EDGE_CURVE('',#192,#193,#242,.T.);
#217=EDGE_CURVE('',#193,#192,#243,.T.);
#218=EDGE_CURVE('',#190,#194,#62,.T.);
#219=EDGE_CURVE('',#191,#195,#63,.T.);
#220=EDGE_CURVE('',#196,#197,#244,.T.);
#221=EDGE_CURVE('',#197,#196,#245,.T.);
#222=EDGE_CURVE('',#198,#196,#64,.T.);
#223=EDGE_CURVE('',#199,#198,#246,.T.);
#224=EDGE_CURVE('',#199,#197,#65,.T.);
#225=EDGE_CURVE('',#198,#199,#247,.T.);
#226=EDGE_CURVE('',#200,#201,#248,.T.);
#227=EDGE_CURVE('',#201,#200,#249,.T.);
#228=EDGE_CURVE('',#193,#200,#66,.T.);
#229=EDGE_CURVE('',#192,#201,#67,.T.);
#230=CIRCLE('',#275,12.5);
#231=CIRCLE('',#276,12.5);
#232=CIRCLE('',#278,12.5);
#233=CIRCLE('',#280,12.5);
#234=CIRCLE('',#282,5.);
#235=CIRCLE('',#283,5.);
#236=CIRCLE('',#284,17.5);
#237=CIRCLE('',#286,17.5);
#238=CIRCLE('',#288,31.5);
#239=CIRCLE('',#290,31.5);
#240=CIRCLE('',#292,22.4583320508297);
#241=CIRCLE('',#293,22.4583320508297);
#242=CIRCLE('',#295,12.5);
#243=CIRCLE('',#296,12.5);
#244=CIRCLE('',#298,0.005);
#245=CIRCLE('',#299,0.005);
#246=CIRCLE('',#301,0.005);
#247=CIRCLE('',#303,0.005);
#248=CIRCLE('',#305,12.5);
#249=CIRCLE('',#306,12.5);
#250=INVISIBILITY((#251,#252,#253));
#251=PRESENTATION_LAYER_ASSIGNMENT('100','Layer 100',(#272));
#252=PRESENTATION_LAYER_ASSIGNMENT('101','Layer 101',(#273));
#253=PRESENTATION_LAYER_ASSIGNMENT('102','Layer 102',(#274));
#254=PRESENTATION_LAYER_ASSIGNMENT('98','Layer 98',(#38));
#255=STYLED_ITEM('',(#259),#272);
#256=STYLED_ITEM('',(#260),#273);
#257=STYLED_ITEM('',(#261),#274);
#258=STYLED_ITEM('',(#262),#38);
#259=PRESENTATION_STYLE_ASSIGNMENT((#263));
#260=PRESENTATION_STYLE_ASSIGNMENT((#264));
#261=PRESENTATION_STYLE_ASSIGNMENT((#265));
#262=PRESENTATION_STYLE_ASSIGNMENT((#33));
#263=CURVE_STYLE('',#268,POSITIVE_LENGTH_MEASURE(0.7),#266);
#264=CURVE_STYLE('',#269,POSITIVE_LENGTH_MEASURE(0.7),#266);
#265=CURVE_STYLE('',#270,POSITIVE_LENGTH_MEASURE(0.7),#266);
#266=COLOUR_RGB('Medium Maroon',0.6,0.4,0.4);
#267=COLOUR_RGB('Medium Gray',0.490196078431373,0.490196078431373,0.490196078431373);
#268=DRAUGHTING_PRE_DEFINED_CURVE_FONT('continuous');
#269=DRAUGHTING_PRE_DEFINED_CURVE_FONT('continuous');
#270=DRAUGHTING_PRE_DEFINED_CURVE_FONT('continuous');
#271=AXIS2_PLACEMENT_3D('',#396,#310,#311);
#272=AXIS2_PLACEMENT_3D('PCS',#397,#312,#313);
#273=AXIS2_PLACEMENT_3D('CSW',#398,#314,#315);
#274=AXIS2_PLACEMENT_3D('MCS',#399,#316,#317);
#275=AXIS2_PLACEMENT_3D('',#400,#318,#319);
#276=AXIS2_PLACEMENT_3D('',#403,#320,#321);
#277=AXIS2_PLACEMENT_3D('',#404,#322,#323);
#278=AXIS2_PLACEMENT_3D('',#407,#325,#326);
#279=AXIS2_PLACEMENT_3D('',#410,#328,#329);
#280=AXIS2_PLACEMENT_3D('',#411,#330,#331);
#281=AXIS2_PLACEMENT_3D('',#412,#332,#333);
#282=AXIS2_PLACEMENT_3D('',#413,#334,#335);
#283=AXIS2_PLACEMENT_3D('',#415,#336,#337);
#284=AXIS2_PLACEMENT_3D('',#417,#338,#339);
#285=AXIS2_PLACEMENT_3D('',#418,#340,#341);
#286=AXIS2_PLACEMENT_3D('',#419,#342,#343);
#287=AXIS2_PLACEMENT_3D('',#420,#344,#345);
#288=AXIS2_PLACEMENT_3D('',#421,#346,#347);
#289=AXIS2_PLACEMENT_3D('',#423,#348,#349);
#290=AXIS2_PLACEMENT_3D('',#424,#350,#351);
#291=AXIS2_PLACEMENT_3D('',#426,#352,#353);
#292=AXIS2_PLACEMENT_3D('',#427,#354,#355);
#293=AXIS2_PLACEMENT_3D('',#430,#356,#357);
#294=AXIS2_PLACEMENT_3D('',#431,#358,#359);
#295=AXIS2_PLACEMENT_3D('',#432,#360,#361);
#296=AXIS2_PLACEMENT_3D('',#435,#362,#363);
#297=AXIS2_PLACEMENT_3D('',#440,#366,#367);
#298=AXIS2_PLACEMENT_3D('',#441,#368,#369);
#299=AXIS2_PLACEMENT_3D('',#444,#370,#371);
#300=AXIS2_PLACEMENT_3D('',#445,#372,#373);
#301=AXIS2_PLACEMENT_3D('',#448,#375,#376);
#302=AXIS2_PLACEMENT_3D('',#451,#378,#379);
#303=AXIS2_PLACEMENT_3D('',#452,#380,#381);
#304=AXIS2_PLACEMENT_3D('',#453,#382,#383);
#305=AXIS2_PLACEMENT_3D('',#454,#384,#385);
#306=AXIS2_PLACEMENT_3D('',#457,#386,#387);
#307=AXIS2_PLACEMENT_3D('',#458,#388,#389);
#308=AXIS2_PLACEMENT_3D('',#461,#392,#393);
#309=AXIS2_PLACEMENT_3D('',#462,#394,#395);
#310=DIRECTION('',(0.,0.,1.));
#311=DIRECTION('',(1.,0.,0.));
#312=DIRECTION('',(0.,0.,1.));
#313=DIRECTION('',(1.,0.,0.));
#314=DIRECTION('',(0.,0.,1.));
#315=DIRECTION('',(1.,0.,0.));
#316=DIRECTION('',(0.,0.,1.));
#317=DIRECTION('',(1.,0.,0.));
#318=DIRECTION('',(0.,0.,1.));
#319=DIRECTION('',(-1.,0.,0.));
#320=DIRECTION('',(0.,0.,1.));
#321=DIRECTION('',(-1.,0.,0.));
#322=DIRECTION('',(0.,0.,-1.));
#323=DIRECTION('',(0.,1.,0.));
#324=DIRECTION('',(7.453616332983E-14,0.,1.));
#325=DIRECTION('',(0.,0.,-1.));
#326=DIRECTION('',(0.,1.,0.));
#327=DIRECTION('',(-7.44356923031E-14,0.,1.));
#328=DIRECTION('',(0.,0.,-1.));
#329=DIRECTION('',(0.,1.,0.));
#330=DIRECTION('',(0.,0.,1.));
#331=DIRECTION('',(0.,1.,0.));
#332=DIRECTION('',(0.,0.,-1.));
#333=DIRECTION('',(0.,1.,0.));
#334=DIRECTION('',(1.,0.,0.));
#335=DIRECTION('',(0.,1.,0.));
#336=DIRECTION('',(-1.,0.,0.));
#337=DIRECTION('',(0.,-1.,0.));
#338=DIRECTION('',(0.,0.,-1.));
#339=DIRECTION('',(0.,1.,0.));
#340=DIRECTION('',(0.,0.,-1.));
#341=DIRECTION('',(0.,1.,0.));
#342=DIRECTION('',(0.,0.,-1.));
#343=DIRECTION('',(0.,-1.,0.));
#344=DIRECTION('',(0.,0.,-1.));
#345=DIRECTION('',(0.,1.,0.));
#346=DIRECTION('',(0.,0.,1.));
#347=DIRECTION('',(-1.,0.,0.));
#348=DIRECTION('',(0.,0.,-1.));
#349=DIRECTION('',(0.,1.,0.));
#350=DIRECTION('',(0.,0.,1.));
#351=DIRECTION('',(-1.,0.,0.));
#352=DIRECTION('',(0.,0.,-1.));
#353=DIRECTION('',(0.,1.,0.));
#354=DIRECTION('',(0.,0.,-1.));
#355=DIRECTION('',(-1.,0.,0.));
#356=DIRECTION('',(0.,0.,-1.));
#357=DIRECTION('',(-1.,0.,0.));
#358=DIRECTION('',(0.,0.,-1.));
#359=DIRECTION('',(0.,1.,0.));
#360=DIRECTION('',(0.,0.,1.));
#361=DIRECTION('',(-1.,0.,0.));
#362=DIRECTION('',(0.,0.,1.));
#363=DIRECTION('',(-1.,0.,0.));
#364=DIRECTION('',(0.,-0.144306116415197,0.989533094325381));
#365=DIRECTION('',(0.,0.144306116415197,0.989533094325381));
#366=DIRECTION('',(0.,0.,-1.));
#367=DIRECTION('',(0.,1.,2.55013198898809E-16));
#368=DIRECTION('',(0.,0.,-1.));
#369=DIRECTION('',(0.,-1.,0.));
#370=DIRECTION('',(0.,0.,-1.));
#371=DIRECTION('',(0.,1.,0.));
#372=DIRECTION('',(0.,0.,-1.));
#373=DIRECTION('',(0.,1.,0.));
#374=DIRECTION('',(0.,0.,-1.));
#375=DIRECTION('',(0.,0.,-1.));
#376=DIRECTION('',(-1.,0.,0.));
#377=DIRECTION('',(0.,0.,-1.));
#378=DIRECTION('',(0.,0.,-1.));
#379=DIRECTION('',(0.,1.,0.));
#380=DIRECTION('',(0.,0.,-1.));
#381=DIRECTION('',(-1.,0.,0.));
#382=DIRECTION('',(0.,0.,-1.));
#383=DIRECTION('',(0.,1.,0.));
#384=DIRECTION('',(0.,0.,1.));
#385=DIRECTION('',(-1.,0.,0.));
#386=DIRECTION('',(0.,0.,1.));
#387=DIRECTION('',(-1.,0.,0.));
#388=DIRECTION('',(0.,0.,-1.));
#389=DIRECTION('',(0.,1.,0.));
#390=DIRECTION('',(-2.113375507125E-13,0.,1.));
#391=DIRECTION('',(2.114871286528E-13,0.,1.));
#392=DIRECTION('',(0.,0.,-1.));
#393=DIRECTION('',(0.,1.,0.));
#394=DIRECTION('',(0.,0.,-1.));
#395=DIRECTION('',(0.,1.,0.));
#396=CARTESIAN_POINT('',(0.,0.,0.));
#397=CARTESIAN_POINT('',(0.,0.,0.));
#398=CARTESIAN_POINT('',(0.,0.,-50.));
#399=CARTESIAN_POINT('',(0.,0.,0.));
#400=CARTESIAN_POINT('',(0.,0.,-50.));
#401=CARTESIAN_POINT('',(2.4846213244242E-12,-12.5,-50.));
#402=CARTESIAN_POINT('',(-2.48797703671766E-12,12.5,-50.));
#403=CARTESIAN_POINT('',(0.,0.,-50.));
#404=CARTESIAN_POINT('',(0.,0.,-50.));
#405=CARTESIAN_POINT('',(-2.338904710058E-12,12.5,-48.));
#406=CARTESIAN_POINT('',(0.,12.5,-16.6));
#407=CARTESIAN_POINT('',(0.,0.,-16.6));
#408=CARTESIAN_POINT('',(0.,-12.5,-16.6));
#409=CARTESIAN_POINT('',(2.335749939818E-12,-12.5,-48.));
#410=CARTESIAN_POINT('',(0.,0.,-9.68));
#411=CARTESIAN_POINT('',(0.,0.,-16.6));
#412=CARTESIAN_POINT('',(0.,0.,-9.68));
#413=CARTESIAN_POINT('',(0.,-17.5,-16.6));
#414=CARTESIAN_POINT('',(0.,-17.5,-11.6));
#415=CARTESIAN_POINT('',(0.,17.5,-16.6));
#416=CARTESIAN_POINT('',(0.,17.5,-11.6));
#417=CARTESIAN_POINT('',(0.,0.,-11.6));
#418=CARTESIAN_POINT('',(0.,0.,-16.6));
#419=CARTESIAN_POINT('',(0.,0.,-11.6));
#420=CARTESIAN_POINT('',(0.,0.,-16.6));
#421=CARTESIAN_POINT('',(0.,0.,-11.6));
#422=CARTESIAN_POINT('',(-31.5,0.,-11.6));
#423=CARTESIAN_POINT('',(0.,0.,-11.6));
#424=CARTESIAN_POINT('',(0.,0.,-1.6));
#425=CARTESIAN_POINT('',(-31.5,0.,-1.6));
#426=CARTESIAN_POINT('',(0.,0.,98.65));
#427=CARTESIAN_POINT('',(0.,0.,-1.6));
#428=CARTESIAN_POINT('',(0.,22.4583320508297,-1.6));
#429=CARTESIAN_POINT('',(2.7503524460237E-15,-22.4583320508297,-1.6));
#430=CARTESIAN_POINT('',(0.,0.,-1.6));
#431=CARTESIAN_POINT('',(0.,0.,-1.6));
#432=CARTESIAN_POINT('',(0.,0.,66.686080821567));
#433=CARTESIAN_POINT('',(0.,12.5,66.686080821567));
#434=CARTESIAN_POINT('',(7.65404249467096E-16,-12.5,66.686080821567));
#435=CARTESIAN_POINT('',(0.,0.,66.686080821567));
#436=CARTESIAN_POINT('',(0.,22.16666698729,0.400000000000001));
#437=CARTESIAN_POINT('',(0.,12.68755242227,65.4));
#438=CARTESIAN_POINT('',(0.,-22.16666698729,0.400000000000001));
#439=CARTESIAN_POINT('',(0.,-12.68755242227,65.4));
#440=CARTESIAN_POINT('',(0.,0.,32.9));
#441=CARTESIAN_POINT('',(0.,0.,31.4));
#442=CARTESIAN_POINT('',(0.,-0.005,31.4));
#443=CARTESIAN_POINT('',(0.,0.005,31.4));
#444=CARTESIAN_POINT('',(0.,0.,31.4));
#445=CARTESIAN_POINT('',(0.,0.,31.4));
#446=CARTESIAN_POINT('',(0.,-0.005,33.7));
#447=CARTESIAN_POINT('',(6.12323399573677E-19,-0.005,93.4));
#448=CARTESIAN_POINT('',(0.,0.,93.4));
#449=CARTESIAN_POINT('',(0.,0.005,93.4));
#450=CARTESIAN_POINT('',(0.,0.005,33.7));
#451=CARTESIAN_POINT('',(0.,0.,38.95));
#452=CARTESIAN_POINT('',(0.,0.,93.4));
#453=CARTESIAN_POINT('',(0.,0.,38.95));
#454=CARTESIAN_POINT('',(0.,0.,93.4));
#455=CARTESIAN_POINT('',(-2.19022576242112E-12,-12.5,93.4));
#456=CARTESIAN_POINT('',(2.19177593397005E-12,12.5,93.4));
#457=CARTESIAN_POINT('',(0.,0.,93.4));
#458=CARTESIAN_POINT('',(0.,0.,93.4));
#459=CARTESIAN_POINT('',(0.,-12.5,83.03636251562));
#460=CARTESIAN_POINT('',(0.,12.5,83.03636251562));
#461=CARTESIAN_POINT('',(0.,0.,98.65));
#462=CARTESIAN_POINT('',(0.,0.,98.65));
#463=MECHANICAL_DESIGN_GEOMETRIC_PRESENTATION_REPRESENTATION('',(#255,#256,
#257,#258),#464);
#464=(
GEOMETRIC_REPRESENTATION_CONTEXT(3)
GLOBAL_UNCERTAINTY_ASSIGNED_CONTEXT((#465))
GLOBAL_UNIT_ASSIGNED_CONTEXT((#471,#467,#466))
REPRESENTATION_CONTEXT('2080.40-MTS.1','TOP_LEVEL_ASSEMBLY_PART')
);
#465=UNCERTAINTY_MEASURE_WITH_UNIT(LENGTH_MEASURE(2.E-5),#471,
'DISTANCE_ACCURACY_VALUE','Maximum Tolerance applied to model');
#466=(
NAMED_UNIT(*)
SI_UNIT($,.STERADIAN.)
SOLID_ANGLE_UNIT()
);
#467=(
CONVERSION_BASED_UNIT('DEGREE',#469)
NAMED_UNIT(#468)
PLANE_ANGLE_UNIT()
);
#468=DIMENSIONAL_EXPONENTS(0.,0.,0.,0.,0.,0.,0.);
#469=PLANE_ANGLE_MEASURE_WITH_UNIT(PLANE_ANGLE_MEASURE(0.0174532925),#470);
#470=(
NAMED_UNIT(*)
PLANE_ANGLE_UNIT()
SI_UNIT($,.RADIAN.)
);
#471=(
LENGTH_UNIT()
NAMED_UNIT(*)
SI_UNIT(.MILLI.,.METRE.)
);
ENDSEC;
END-ISO-10303-21;
