ISO-10303-21;
HEADER;
/* Generated by software containing ST-Developer
 * from STEP Tools, Inc. (www.steptools.com) 
 */
/* OPTION: using custom schema-name function */

FILE_DESCRIPTION(
/* description */ (''),
/* implementation_level */ '2;1');

FILE_NAME(
/* name */ '2080.40-FMH1.32.030.stp',
/* time_stamp */ '2024-06-20T14:57:13+02:00',
/* author */ (''),
/* organization */ (''),
/* preprocessor_version */ 'ST-DEVELOPER v16.7',
/* originating_system */ 'SIEMENS PLM Software NX 12.0',
/* authorisation */ '');

FILE_SCHEMA (('AUTOMOTIVE_DESIGN { 1 0 10303 214 3 1 1 1 }'));
ENDSEC;

DATA;
#10=CONSTRUCTIVE_GEOMETRY_REPRESENTATION_RELATIONSHIP(
'supplemental geometry','',#32,#11);
#11=CONSTRUCTIVE_GEOMETRY_REPRESENTATION('supplemental geometry',(#443,
#444,#445),#724);
#12=PROPERTY_DEFINITION_REPRESENTATION(#16,#14);
#13=PROPERTY_DEFINITION_REPRESENTATION(#17,#15);
#14=REPRESENTATION('',(#18),#724);
#15=REPRESENTATION('',(#19),#724);
#16=PROPERTY_DEFINITION('pmi validation property','',#23);
#17=PROPERTY_DEFINITION('pmi validation property','',#23);
#18=VALUE_REPRESENTATION_ITEM('number of annotations',COUNT_MEASURE(0.));
#19=VALUE_REPRESENTATION_ITEM('number of views',COUNT_MEASURE(0.));
#20=SHAPE_REPRESENTATION_RELATIONSHIP('None',
'relationship between pf66281C5546dlxz-None and pf66281C5546dlxz-None',
#32,#21);
#21=ADVANCED_BREP_SHAPE_REPRESENTATION('pf66281C5546dlxz-None',(#38),#724);
#22=SHAPE_DEFINITION_REPRESENTATION(#23,#32);
#23=PRODUCT_DEFINITION_SHAPE('','',#24);
#24=PRODUCT_DEFINITION(' ','',#26,#25);
#25=PRODUCT_DEFINITION_CONTEXT('part definition',#31,'design');
#26=PRODUCT_DEFINITION_FORMATION_WITH_SPECIFIED_SOURCE(' ',' ',#28,
 .NOT_KNOWN.);
#27=PRODUCT_RELATED_PRODUCT_CATEGORY('part','',(#28));
#28=PRODUCT('pf66281C5546dlxz','pf66281C5546dlxz',' ',(#29));
#29=PRODUCT_CONTEXT(' ',#31,'mechanical');
#30=APPLICATION_PROTOCOL_DEFINITION('international standard',
'automotive_design',2010,#31);
#31=APPLICATION_CONTEXT(
'core data for automotive mechanical design processes');
#32=SHAPE_REPRESENTATION('pf66281C5546dlxz-None',(#442),#724);
#33=SURFACE_STYLE_USAGE(.BOTH.,#34);
#34=SURFACE_SIDE_STYLE('',(#35));
#35=SURFACE_STYLE_FILL_AREA(#36);
#36=FILL_AREA_STYLE('',(#37));
#37=FILL_AREA_STYLE_COLOUR('',#438);
#38=MANIFOLD_SOLID_BREP('',#39);
#39=CLOSED_SHELL('',(#83,#84,#85,#86,#87,#88,#89,#90,#91,#92,#93,#94,#95,
#96,#97,#98,#99,#100,#101,#102,#103,#104,#105,#106));
#40=CONICAL_SURFACE('',#483,17.42710970478,8.2971);
#41=CYLINDRICAL_SURFACE('',#464,39.);
#42=CYLINDRICAL_SURFACE('',#474,21.);
#43=CYLINDRICAL_SURFACE('',#475,16.);
#44=CYLINDRICAL_SURFACE('',#476,16.);
#45=CYLINDRICAL_SURFACE('',#478,12.5);
#46=CYLINDRICAL_SURFACE('',#480,12.5);
#47=CYLINDRICAL_SURFACE('',#486,31.5);
#48=FACE_BOUND('',#142,.T.);
#49=FACE_BOUND('',#143,.T.);
#50=FACE_BOUND('',#152,.T.);
#51=FACE_BOUND('',#153,.T.);
#52=FACE_BOUND('',#154,.T.);
#53=FACE_BOUND('',#155,.T.);
#54=FACE_BOUND('',#156,.T.);
#55=FACE_BOUND('',#157,.T.);
#56=FACE_BOUND('',#158,.T.);
#57=FACE_BOUND('',#159,.T.);
#58=FACE_BOUND('',#161,.T.);
#59=FACE_BOUND('',#162,.T.);
#60=FACE_BOUND('',#167,.T.);
#61=FACE_BOUND('',#168,.T.);
#62=FACE_BOUND('',#169,.T.);
#63=FACE_BOUND('',#170,.T.);
#64=FACE_BOUND('',#171,.T.);
#65=FACE_BOUND('',#172,.T.);
#66=CIRCLE('',#448,12.5);
#67=CIRCLE('',#449,12.5);
#68=CIRCLE('',#451,39.);
#69=CIRCLE('',#452,39.);
#70=CIRCLE('',#453,31.5);
#71=CIRCLE('',#463,39.);
#72=CIRCLE('',#465,16.);
#73=CIRCLE('',#466,16.);
#74=CIRCLE('',#468,16.);
#75=CIRCLE('',#469,16.);
#76=CIRCLE('',#470,21.);
#77=CIRCLE('',#472,21.);
#78=CIRCLE('',#477,12.5);
#79=CIRCLE('',#479,12.5);
#80=CIRCLE('',#481,22.4583320508297);
#81=CIRCLE('',#482,22.4583320508297);
#82=CIRCLE('',#484,31.5);
#83=ADVANCED_FACE('',(#123),#107,.T.);
#84=ADVANCED_FACE('',(#124),#108,.F.);
#85=ADVANCED_FACE('',(#125),#109,.F.);
#86=ADVANCED_FACE('',(#48,#49),#110,.F.);
#87=ADVANCED_FACE('',(#126),#111,.T.);
#88=ADVANCED_FACE('',(#127),#112,.F.);
#89=ADVANCED_FACE('',(#128),#113,.T.);
#90=ADVANCED_FACE('',(#129),#114,.T.);
#91=ADVANCED_FACE('',(#130),#115,.T.);
#92=ADVANCED_FACE('',(#131),#116,.F.);
#93=ADVANCED_FACE('',(#132),#117,.F.);
#94=ADVANCED_FACE('',(#133),#118,.F.);
#95=ADVANCED_FACE('',(#50,#51),#41,.T.);
#96=ADVANCED_FACE('',(#52,#53,#54,#55),#119,.T.);
#97=ADVANCED_FACE('',(#56,#57),#120,.F.);
#98=ADVANCED_FACE('',(#134),#121,.T.);
#99=ADVANCED_FACE('',(#58,#59),#42,.T.);
#100=ADVANCED_FACE('',(#135),#43,.T.);
#101=ADVANCED_FACE('',(#136),#44,.T.);
#102=ADVANCED_FACE('',(#137),#45,.T.);
#103=ADVANCED_FACE('',(#138),#46,.T.);
#104=ADVANCED_FACE('',(#60,#61),#40,.T.);
#105=ADVANCED_FACE('',(#62,#63),#122,.F.);
#106=ADVANCED_FACE('',(#64,#65),#47,.T.);
#107=PLANE('',#446);
#108=PLANE('',#447);
#109=PLANE('',#450);
#110=PLANE('',#454);
#111=PLANE('',#455);
#112=PLANE('',#456);
#113=PLANE('',#457);
#114=PLANE('',#458);
#115=PLANE('',#459);
#116=PLANE('',#460);
#117=PLANE('',#461);
#118=PLANE('',#462);
#119=PLANE('',#467);
#120=PLANE('',#471);
#121=PLANE('',#473);
#122=PLANE('',#485);
#123=FACE_OUTER_BOUND('',#139,.T.);
#124=FACE_OUTER_BOUND('',#140,.T.);
#125=FACE_OUTER_BOUND('',#141,.T.);
#126=FACE_OUTER_BOUND('',#144,.T.);
#127=FACE_OUTER_BOUND('',#145,.T.);
#128=FACE_OUTER_BOUND('',#146,.T.);
#129=FACE_OUTER_BOUND('',#147,.T.);
#130=FACE_OUTER_BOUND('',#148,.T.);
#131=FACE_OUTER_BOUND('',#149,.T.);
#132=FACE_OUTER_BOUND('',#150,.T.);
#133=FACE_OUTER_BOUND('',#151,.T.);
#134=FACE_OUTER_BOUND('',#160,.T.);
#135=FACE_OUTER_BOUND('',#163,.T.);
#136=FACE_OUTER_BOUND('',#164,.T.);
#137=FACE_OUTER_BOUND('',#165,.T.);
#138=FACE_OUTER_BOUND('',#166,.T.);
#139=EDGE_LOOP('',(#173,#174,#175,#176));
#140=EDGE_LOOP('',(#177,#178,#179,#180));
#141=EDGE_LOOP('',(#181,#182));
#142=EDGE_LOOP('',(#183,#184));
#143=EDGE_LOOP('',(#185));
#144=EDGE_LOOP('',(#186,#187,#188,#189));
#145=EDGE_LOOP('',(#190,#191,#192,#193));
#146=EDGE_LOOP('',(#194,#195,#196,#197));
#147=EDGE_LOOP('',(#198,#199,#200,#201));
#148=EDGE_LOOP('',(#202,#203,#204,#205));
#149=EDGE_LOOP('',(#206,#207,#208,#209));
#150=EDGE_LOOP('',(#210,#211,#212,#213));
#151=EDGE_LOOP('',(#214,#215,#216,#217));
#152=EDGE_LOOP('',(#218));
#153=EDGE_LOOP('',(#219,#220,#221,#222,#223,#224));
#154=EDGE_LOOP('',(#225,#226,#227,#228));
#155=EDGE_LOOP('',(#229,#230,#231,#232));
#156=EDGE_LOOP('',(#233,#234));
#157=EDGE_LOOP('',(#235));
#158=EDGE_LOOP('',(#236,#237));
#159=EDGE_LOOP('',(#238));
#160=EDGE_LOOP('',(#239));
#161=EDGE_LOOP('',(#240));
#162=EDGE_LOOP('',(#241));
#163=EDGE_LOOP('',(#242,#243,#244,#245));
#164=EDGE_LOOP('',(#246,#247,#248,#249));
#165=EDGE_LOOP('',(#250,#251,#252,#253));
#166=EDGE_LOOP('',(#254,#255,#256,#257));
#167=EDGE_LOOP('',(#258,#259));
#168=EDGE_LOOP('',(#260,#261,#262,#263,#264,#265));
#169=EDGE_LOOP('',(#266));
#170=EDGE_LOOP('',(#267,#268));
#171=EDGE_LOOP('',(#269));
#172=EDGE_LOOP('',(#270));
#173=ORIENTED_EDGE('',*,*,#308,.T.);
#174=ORIENTED_EDGE('',*,*,#309,.T.);
#175=ORIENTED_EDGE('',*,*,#310,.T.);
#176=ORIENTED_EDGE('',*,*,#311,.T.);
#177=ORIENTED_EDGE('',*,*,#312,.T.);
#178=ORIENTED_EDGE('',*,*,#313,.T.);
#179=ORIENTED_EDGE('',*,*,#314,.T.);
#180=ORIENTED_EDGE('',*,*,#315,.T.);
#181=ORIENTED_EDGE('',*,*,#316,.T.);
#182=ORIENTED_EDGE('',*,*,#317,.T.);
#183=ORIENTED_EDGE('',*,*,#318,.T.);
#184=ORIENTED_EDGE('',*,*,#319,.T.);
#185=ORIENTED_EDGE('',*,*,#320,.T.);
#186=ORIENTED_EDGE('',*,*,#321,.F.);
#187=ORIENTED_EDGE('',*,*,#309,.F.);
#188=ORIENTED_EDGE('',*,*,#322,.T.);
#189=ORIENTED_EDGE('',*,*,#323,.F.);
#190=ORIENTED_EDGE('',*,*,#324,.F.);
#191=ORIENTED_EDGE('',*,*,#315,.F.);
#192=ORIENTED_EDGE('',*,*,#325,.T.);
#193=ORIENTED_EDGE('',*,*,#326,.F.);
#194=ORIENTED_EDGE('',*,*,#310,.F.);
#195=ORIENTED_EDGE('',*,*,#321,.T.);
#196=ORIENTED_EDGE('',*,*,#327,.T.);
#197=ORIENTED_EDGE('',*,*,#328,.T.);
#198=ORIENTED_EDGE('',*,*,#328,.F.);
#199=ORIENTED_EDGE('',*,*,#329,.T.);
#200=ORIENTED_EDGE('',*,*,#330,.T.);
#201=ORIENTED_EDGE('',*,*,#311,.F.);
#202=ORIENTED_EDGE('',*,*,#330,.F.);
#203=ORIENTED_EDGE('',*,*,#331,.F.);
#204=ORIENTED_EDGE('',*,*,#322,.F.);
#205=ORIENTED_EDGE('',*,*,#308,.F.);
#206=ORIENTED_EDGE('',*,*,#312,.F.);
#207=ORIENTED_EDGE('',*,*,#324,.T.);
#208=ORIENTED_EDGE('',*,*,#332,.T.);
#209=ORIENTED_EDGE('',*,*,#333,.T.);
#210=ORIENTED_EDGE('',*,*,#333,.F.);
#211=ORIENTED_EDGE('',*,*,#334,.F.);
#212=ORIENTED_EDGE('',*,*,#335,.T.);
#213=ORIENTED_EDGE('',*,*,#313,.F.);
#214=ORIENTED_EDGE('',*,*,#335,.F.);
#215=ORIENTED_EDGE('',*,*,#336,.F.);
#216=ORIENTED_EDGE('',*,*,#325,.F.);
#217=ORIENTED_EDGE('',*,*,#314,.F.);
#218=ORIENTED_EDGE('',*,*,#337,.T.);
#219=ORIENTED_EDGE('',*,*,#338,.F.);
#220=ORIENTED_EDGE('',*,*,#338,.T.);
#221=ORIENTED_EDGE('',*,*,#318,.F.);
#222=ORIENTED_EDGE('',*,*,#339,.F.);
#223=ORIENTED_EDGE('',*,*,#339,.T.);
#224=ORIENTED_EDGE('',*,*,#319,.F.);
#225=ORIENTED_EDGE('',*,*,#326,.T.);
#226=ORIENTED_EDGE('',*,*,#336,.T.);
#227=ORIENTED_EDGE('',*,*,#334,.T.);
#228=ORIENTED_EDGE('',*,*,#332,.F.);
#229=ORIENTED_EDGE('',*,*,#323,.T.);
#230=ORIENTED_EDGE('',*,*,#331,.T.);
#231=ORIENTED_EDGE('',*,*,#329,.F.);
#232=ORIENTED_EDGE('',*,*,#327,.F.);
#233=ORIENTED_EDGE('',*,*,#340,.F.);
#234=ORIENTED_EDGE('',*,*,#341,.F.);
#235=ORIENTED_EDGE('',*,*,#337,.F.);
#236=ORIENTED_EDGE('',*,*,#342,.F.);
#237=ORIENTED_EDGE('',*,*,#343,.F.);
#238=ORIENTED_EDGE('',*,*,#344,.T.);
#239=ORIENTED_EDGE('',*,*,#345,.T.);
#240=ORIENTED_EDGE('',*,*,#344,.F.);
#241=ORIENTED_EDGE('',*,*,#345,.F.);
#242=ORIENTED_EDGE('',*,*,#346,.T.);
#243=ORIENTED_EDGE('',*,*,#341,.T.);
#244=ORIENTED_EDGE('',*,*,#347,.F.);
#245=ORIENTED_EDGE('',*,*,#343,.T.);
#246=ORIENTED_EDGE('',*,*,#347,.T.);
#247=ORIENTED_EDGE('',*,*,#340,.T.);
#248=ORIENTED_EDGE('',*,*,#346,.F.);
#249=ORIENTED_EDGE('',*,*,#342,.T.);
#250=ORIENTED_EDGE('',*,*,#348,.T.);
#251=ORIENTED_EDGE('',*,*,#316,.F.);
#252=ORIENTED_EDGE('',*,*,#349,.F.);
#253=ORIENTED_EDGE('',*,*,#350,.T.);
#254=ORIENTED_EDGE('',*,*,#348,.F.);
#255=ORIENTED_EDGE('',*,*,#351,.T.);
#256=ORIENTED_EDGE('',*,*,#349,.T.);
#257=ORIENTED_EDGE('',*,*,#317,.F.);
#258=ORIENTED_EDGE('',*,*,#351,.F.);
#259=ORIENTED_EDGE('',*,*,#350,.F.);
#260=ORIENTED_EDGE('',*,*,#352,.F.);
#261=ORIENTED_EDGE('',*,*,#353,.F.);
#262=ORIENTED_EDGE('',*,*,#354,.T.);
#263=ORIENTED_EDGE('',*,*,#354,.F.);
#264=ORIENTED_EDGE('',*,*,#355,.F.);
#265=ORIENTED_EDGE('',*,*,#352,.T.);
#266=ORIENTED_EDGE('',*,*,#356,.T.);
#267=ORIENTED_EDGE('',*,*,#355,.T.);
#268=ORIENTED_EDGE('',*,*,#353,.T.);
#269=ORIENTED_EDGE('',*,*,#356,.F.);
#270=ORIENTED_EDGE('',*,*,#320,.F.);
#271=VERTEX_POINT('',#614);
#272=VERTEX_POINT('',#615);
#273=VERTEX_POINT('',#617);
#274=VERTEX_POINT('',#619);
#275=VERTEX_POINT('',#623);
#276=VERTEX_POINT('',#624);
#277=VERTEX_POINT('',#626);
#278=VERTEX_POINT('',#628);
#279=VERTEX_POINT('',#632);
#280=VERTEX_POINT('',#633);
#281=VERTEX_POINT('',#637);
#282=VERTEX_POINT('',#638);
#283=VERTEX_POINT('',#641);
#284=VERTEX_POINT('',#644);
#285=VERTEX_POINT('',#646);
#286=VERTEX_POINT('',#650);
#287=VERTEX_POINT('',#652);
#288=VERTEX_POINT('',#656);
#289=VERTEX_POINT('',#660);
#290=VERTEX_POINT('',#666);
#291=VERTEX_POINT('',#670);
#292=VERTEX_POINT('',#676);
#293=VERTEX_POINT('',#678);
#294=VERTEX_POINT('',#680);
#295=VERTEX_POINT('',#683);
#296=VERTEX_POINT('',#684);
#297=VERTEX_POINT('',#688);
#298=VERTEX_POINT('',#689);
#299=VERTEX_POINT('',#692);
#300=VERTEX_POINT('',#695);
#301=VERTEX_POINT('',#703);
#302=VERTEX_POINT('',#705);
#303=VERTEX_POINT('',#711);
#304=VERTEX_POINT('',#712);
#305=VERTEX_POINT('',#714);
#306=VERTEX_POINT('',#716);
#307=VERTEX_POINT('',#720);
#308=EDGE_CURVE('',#271,#272,#357,.T.);
#309=EDGE_CURVE('',#272,#273,#358,.T.);
#310=EDGE_CURVE('',#273,#274,#359,.T.);
#311=EDGE_CURVE('',#274,#271,#360,.T.);
#312=EDGE_CURVE('',#275,#276,#361,.T.);
#313=EDGE_CURVE('',#276,#277,#362,.T.);
#314=EDGE_CURVE('',#277,#278,#363,.T.);
#315=EDGE_CURVE('',#278,#275,#364,.T.);
#316=EDGE_CURVE('',#279,#280,#66,.T.);
#317=EDGE_CURVE('',#280,#279,#67,.T.);
#318=EDGE_CURVE('',#281,#282,#68,.T.);
#319=EDGE_CURVE('',#282,#281,#69,.T.);
#320=EDGE_CURVE('',#283,#283,#70,.T.);
#321=EDGE_CURVE('',#273,#284,#365,.T.);
#322=EDGE_CURVE('',#272,#285,#366,.T.);
#323=EDGE_CURVE('',#284,#285,#367,.T.);
#324=EDGE_CURVE('',#275,#286,#368,.T.);
#325=EDGE_CURVE('',#278,#287,#369,.T.);
#326=EDGE_CURVE('',#286,#287,#370,.T.);
#327=EDGE_CURVE('',#284,#288,#371,.T.);
#328=EDGE_CURVE('',#288,#274,#372,.T.);
#329=EDGE_CURVE('',#288,#289,#373,.T.);
#330=EDGE_CURVE('',#289,#271,#374,.T.);
#331=EDGE_CURVE('',#285,#289,#375,.T.);
#332=EDGE_CURVE('',#286,#290,#376,.T.);
#333=EDGE_CURVE('',#290,#276,#377,.T.);
#334=EDGE_CURVE('',#291,#290,#378,.T.);
#335=EDGE_CURVE('',#291,#277,#379,.T.);
#336=EDGE_CURVE('',#287,#291,#380,.T.);
#337=EDGE_CURVE('',#292,#292,#71,.T.);
#338=EDGE_CURVE('',#293,#282,#381,.T.);
#339=EDGE_CURVE('',#294,#281,#382,.T.);
#340=EDGE_CURVE('',#295,#296,#72,.T.);
#341=EDGE_CURVE('',#296,#295,#73,.T.);
#342=EDGE_CURVE('',#297,#298,#74,.T.);
#343=EDGE_CURVE('',#298,#297,#75,.T.);
#344=EDGE_CURVE('',#299,#299,#76,.T.);
#345=EDGE_CURVE('',#300,#300,#77,.T.);
#346=EDGE_CURVE('',#297,#296,#383,.T.);
#347=EDGE_CURVE('',#298,#295,#384,.T.);
#348=EDGE_CURVE('',#301,#280,#385,.T.);
#349=EDGE_CURVE('',#302,#279,#386,.T.);
#350=EDGE_CURVE('',#302,#301,#78,.T.);
#351=EDGE_CURVE('',#301,#302,#79,.T.);
#352=EDGE_CURVE('',#303,#304,#387,.T.);
#353=EDGE_CURVE('',#305,#303,#80,.T.);
#354=EDGE_CURVE('',#305,#306,#388,.T.);
#355=EDGE_CURVE('',#303,#305,#81,.T.);
#356=EDGE_CURVE('',#307,#307,#82,.T.);
#357=LINE('',#613,#389);
#358=LINE('',#616,#390);
#359=LINE('',#618,#391);
#360=LINE('',#620,#392);
#361=LINE('',#622,#393);
#362=LINE('',#625,#394);
#363=LINE('',#627,#395);
#364=LINE('',#629,#396);
#365=LINE('',#643,#397);
#366=LINE('',#645,#398);
#367=LINE('',#647,#399);
#368=LINE('',#649,#400);
#369=LINE('',#651,#401);
#370=LINE('',#653,#402);
#371=LINE('',#655,#403);
#372=LINE('',#657,#404);
#373=LINE('',#659,#405);
#374=LINE('',#661,#406);
#375=LINE('',#663,#407);
#376=LINE('',#665,#408);
#377=LINE('',#667,#409);
#378=LINE('',#669,#410);
#379=LINE('',#671,#411);
#380=LINE('',#673,#412);
#381=LINE('',#677,#413);
#382=LINE('',#679,#414);
#383=LINE('',#698,#415);
#384=LINE('',#699,#416);
#385=LINE('',#702,#417);
#386=LINE('',#704,#418);
#387=LINE('',#710,#419);
#388=LINE('',#715,#420);
#389=VECTOR('',#495,1.);
#390=VECTOR('',#496,1.);
#391=VECTOR('',#497,1.);
#392=VECTOR('',#498,1.);
#393=VECTOR('',#501,1.);
#394=VECTOR('',#502,1.);
#395=VECTOR('',#503,1.);
#396=VECTOR('',#504,1.);
#397=VECTOR('',#521,1.);
#398=VECTOR('',#522,1.);
#399=VECTOR('',#523,1.);
#400=VECTOR('',#526,1.);
#401=VECTOR('',#527,1.);
#402=VECTOR('',#528,1.);
#403=VECTOR('',#531,1.);
#404=VECTOR('',#532,1.);
#405=VECTOR('',#535,1.);
#406=VECTOR('',#536,1.);
#407=VECTOR('',#539,1.);
#408=VECTOR('',#542,1.);
#409=VECTOR('',#543,1.);
#410=VECTOR('',#546,1.);
#411=VECTOR('',#547,1.);
#412=VECTOR('',#550,1.);
#413=VECTOR('',#555,1.);
#414=VECTOR('',#556,1.);
#415=VECTOR('',#579,1.);
#416=VECTOR('',#580,1.);
#417=VECTOR('',#585,1.);
#418=VECTOR('',#586,1.);
#419=VECTOR('',#595,1.);
#420=VECTOR('',#598,1.);
#421=INVISIBILITY((#422,#423,#424));
#422=PRESENTATION_LAYER_ASSIGNMENT('100','Layer 100',(#443));
#423=PRESENTATION_LAYER_ASSIGNMENT('101','Layer 101',(#444));
#424=PRESENTATION_LAYER_ASSIGNMENT('102','Layer 102',(#445));
#425=PRESENTATION_LAYER_ASSIGNMENT('98','Layer 98',(#38));
#426=STYLED_ITEM('',(#430),#443);
#427=STYLED_ITEM('',(#431),#444);
#428=STYLED_ITEM('',(#432),#445);
#429=STYLED_ITEM('',(#433),#38);
#430=PRESENTATION_STYLE_ASSIGNMENT((#434));
#431=PRESENTATION_STYLE_ASSIGNMENT((#435));
#432=PRESENTATION_STYLE_ASSIGNMENT((#436));
#433=PRESENTATION_STYLE_ASSIGNMENT((#33));
#434=CURVE_STYLE('',#439,POSITIVE_LENGTH_MEASURE(0.7),#437);
#435=CURVE_STYLE('',#440,POSITIVE_LENGTH_MEASURE(0.7),#437);
#436=CURVE_STYLE('',#441,POSITIVE_LENGTH_MEASURE(0.7),#437);
#437=COLOUR_RGB('Medium Maroon',0.6,0.4,0.4);
#438=COLOUR_RGB('Medium Gray',0.490196078431373,0.490196078431373,0.490196078431373);
#439=DRAUGHTING_PRE_DEFINED_CURVE_FONT('continuous');
#440=DRAUGHTING_PRE_DEFINED_CURVE_FONT('continuous');
#441=DRAUGHTING_PRE_DEFINED_CURVE_FONT('continuous');
#442=AXIS2_PLACEMENT_3D('',#609,#487,#488);
#443=AXIS2_PLACEMENT_3D('PCS',#610,#489,#490);
#444=AXIS2_PLACEMENT_3D('CSW',#611,#491,#492);
#445=AXIS2_PLACEMENT_3D('MCS',#612,#493,#494);
#446=AXIS2_PLACEMENT_3D('',#621,#499,#500);
#447=AXIS2_PLACEMENT_3D('',#630,#505,#506);
#448=AXIS2_PLACEMENT_3D('',#631,#507,#508);
#449=AXIS2_PLACEMENT_3D('',#634,#509,#510);
#450=AXIS2_PLACEMENT_3D('',#635,#511,#512);
#451=AXIS2_PLACEMENT_3D('',#636,#513,#514);
#452=AXIS2_PLACEMENT_3D('',#639,#515,#516);
#453=AXIS2_PLACEMENT_3D('',#640,#517,#518);
#454=AXIS2_PLACEMENT_3D('',#642,#519,#520);
#455=AXIS2_PLACEMENT_3D('',#648,#524,#525);
#456=AXIS2_PLACEMENT_3D('',#654,#529,#530);
#457=AXIS2_PLACEMENT_3D('',#658,#533,#534);
#458=AXIS2_PLACEMENT_3D('',#662,#537,#538);
#459=AXIS2_PLACEMENT_3D('',#664,#540,#541);
#460=AXIS2_PLACEMENT_3D('',#668,#544,#545);
#461=AXIS2_PLACEMENT_3D('',#672,#548,#549);
#462=AXIS2_PLACEMENT_3D('',#674,#551,#552);
#463=AXIS2_PLACEMENT_3D('',#675,#553,#554);
#464=AXIS2_PLACEMENT_3D('',#681,#557,#558);
#465=AXIS2_PLACEMENT_3D('',#682,#559,#560);
#466=AXIS2_PLACEMENT_3D('',#685,#561,#562);
#467=AXIS2_PLACEMENT_3D('',#686,#563,#564);
#468=AXIS2_PLACEMENT_3D('',#687,#565,#566);
#469=AXIS2_PLACEMENT_3D('',#690,#567,#568);
#470=AXIS2_PLACEMENT_3D('',#691,#569,#570);
#471=AXIS2_PLACEMENT_3D('',#693,#571,#572);
#472=AXIS2_PLACEMENT_3D('',#694,#573,#574);
#473=AXIS2_PLACEMENT_3D('',#696,#575,#576);
#474=AXIS2_PLACEMENT_3D('',#697,#577,#578);
#475=AXIS2_PLACEMENT_3D('',#700,#581,#582);
#476=AXIS2_PLACEMENT_3D('',#701,#583,#584);
#477=AXIS2_PLACEMENT_3D('',#706,#587,#588);
#478=AXIS2_PLACEMENT_3D('',#707,#589,#590);
#479=AXIS2_PLACEMENT_3D('',#708,#591,#592);
#480=AXIS2_PLACEMENT_3D('',#709,#593,#594);
#481=AXIS2_PLACEMENT_3D('',#713,#596,#597);
#482=AXIS2_PLACEMENT_3D('',#717,#599,#600);
#483=AXIS2_PLACEMENT_3D('',#718,#601,#602);
#484=AXIS2_PLACEMENT_3D('',#719,#603,#604);
#485=AXIS2_PLACEMENT_3D('',#721,#605,#606);
#486=AXIS2_PLACEMENT_3D('',#722,#607,#608);
#487=DIRECTION('',(0.,0.,1.));
#488=DIRECTION('',(1.,0.,0.));
#489=DIRECTION('',(0.,0.,1.));
#490=DIRECTION('',(1.,0.,0.));
#491=DIRECTION('',(0.,0.,1.));
#492=DIRECTION('',(1.,0.,0.));
#493=DIRECTION('',(0.,0.,1.));
#494=DIRECTION('',(1.,0.,0.));
#495=DIRECTION('',(0.,1.,0.));
#496=DIRECTION('',(1.,0.,0.));
#497=DIRECTION('',(0.,-1.,0.));
#498=DIRECTION('',(-1.,0.,0.));
#499=DIRECTION('',(0.,0.,-1.));
#500=DIRECTION('',(1.,0.,0.));
#501=DIRECTION('',(0.,1.,0.));
#502=DIRECTION('',(1.,0.,0.));
#503=DIRECTION('',(0.,-1.,0.));
#504=DIRECTION('',(-1.,0.,0.));
#505=DIRECTION('',(0.,0.,1.));
#506=DIRECTION('',(1.,0.,0.));
#507=DIRECTION('',(0.,0.,1.));
#508=DIRECTION('',(-1.,0.,0.));
#509=DIRECTION('',(0.,0.,1.));
#510=DIRECTION('',(-1.,0.,0.));
#511=DIRECTION('',(0.,0.,-1.));
#512=DIRECTION('',(-1.,0.,0.));
#513=DIRECTION('',(0.,0.,1.));
#514=DIRECTION('',(-1.,0.,0.));
#515=DIRECTION('',(0.,0.,1.));
#516=DIRECTION('',(-1.,0.,0.));
#517=DIRECTION('',(0.,0.,-1.));
#518=DIRECTION('',(-1.,0.,0.));
#519=DIRECTION('',(0.,0.,-1.));
#520=DIRECTION('',(0.,1.,0.));
#521=DIRECTION('',(0.,0.,1.));
#522=DIRECTION('',(0.,0.,1.));
#523=DIRECTION('',(-1.,0.,0.));
#524=DIRECTION('',(0.,1.,0.));
#525=DIRECTION('',(-1.,0.,0.));
#526=DIRECTION('',(0.,0.,1.));
#527=DIRECTION('',(0.,0.,1.));
#528=DIRECTION('',(1.,0.,0.));
#529=DIRECTION('',(0.,1.,0.));
#530=DIRECTION('',(-1.,0.,0.));
#531=DIRECTION('',(3.025803610357E-13,-1.,0.));
#532=DIRECTION('',(0.,0.,-1.));
#533=DIRECTION('',(1.,0.,0.));
#534=DIRECTION('',(0.,1.,0.));
#535=DIRECTION('',(-1.,0.,0.));
#536=DIRECTION('',(0.,0.,-1.));
#537=DIRECTION('',(0.,-1.,0.));
#538=DIRECTION('',(1.,0.,0.));
#539=DIRECTION('',(-3.074265487023E-13,-1.,0.));
#540=DIRECTION('',(-1.,0.,0.));
#541=DIRECTION('',(0.,-1.,0.));
#542=DIRECTION('',(-3.074265487023E-13,1.,0.));
#543=DIRECTION('',(0.,0.,-1.));
#544=DIRECTION('',(1.,0.,0.));
#545=DIRECTION('',(0.,1.,0.));
#546=DIRECTION('',(-1.,0.,0.));
#547=DIRECTION('',(0.,0.,-1.));
#548=DIRECTION('',(0.,-1.,0.));
#549=DIRECTION('',(1.,0.,0.));
#550=DIRECTION('',(3.027474709553E-13,1.,0.));
#551=DIRECTION('',(-1.,0.,0.));
#552=DIRECTION('',(0.,-1.,0.));
#553=DIRECTION('',(0.,0.,1.));
#554=DIRECTION('',(-1.,0.,0.));
#555=DIRECTION('',(-2.144262814532E-14,0.,1.));
#556=DIRECTION('',(2.144163620482E-14,0.,1.));
#557=DIRECTION('',(0.,0.,-1.));
#558=DIRECTION('',(0.,1.,0.));
#559=DIRECTION('',(0.,0.,-1.));
#560=DIRECTION('',(-1.,0.,0.));
#561=DIRECTION('',(0.,0.,-1.));
#562=DIRECTION('',(-1.,0.,0.));
#563=DIRECTION('',(0.,0.,-1.));
#564=DIRECTION('',(0.,1.,0.));
#565=DIRECTION('',(0.,0.,1.));
#566=DIRECTION('',(-1.,0.,0.));
#567=DIRECTION('',(0.,0.,1.));
#568=DIRECTION('',(-1.,0.,0.));
#569=DIRECTION('',(0.,0.,1.));
#570=DIRECTION('',(0.380952380952399,0.924594658997497,0.));
#571=DIRECTION('',(0.,0.,-1.));
#572=DIRECTION('',(0.,1.,0.));
#573=DIRECTION('',(0.,0.,-1.));
#574=DIRECTION('',(-1.,0.,0.));
#575=DIRECTION('',(0.,0.,-1.));
#576=DIRECTION('',(0.,1.,0.));
#577=DIRECTION('',(0.,0.,-1.));
#578=DIRECTION('',(0.,1.,0.));
#579=DIRECTION('',(-9.810194529405E-14,0.,1.));
#580=DIRECTION('',(9.812584084135E-14,0.,1.));
#581=DIRECTION('',(0.,0.,-1.));
#582=DIRECTION('',(0.,1.,0.));
#583=DIRECTION('',(0.,0.,-1.));
#584=DIRECTION('',(0.,1.,0.));
#585=DIRECTION('',(0.,0.,1.));
#586=DIRECTION('',(0.,0.,1.));
#587=DIRECTION('',(0.,0.,1.));
#588=DIRECTION('',(-1.,0.,0.));
#589=DIRECTION('',(0.,0.,-1.));
#590=DIRECTION('',(0.,1.,0.));
#591=DIRECTION('',(0.,0.,1.));
#592=DIRECTION('',(-1.,0.,0.));
#593=DIRECTION('',(0.,0.,-1.));
#594=DIRECTION('',(0.,1.,0.));
#595=DIRECTION('',(0.,-0.144306116415197,0.989533094325381));
#596=DIRECTION('',(0.,0.,-1.));
#597=DIRECTION('',(-1.,0.,0.));
#598=DIRECTION('',(0.,0.144306116415197,0.989533094325381));
#599=DIRECTION('',(0.,0.,-1.));
#600=DIRECTION('',(-1.,0.,0.));
#601=DIRECTION('',(0.,0.,-1.));
#602=DIRECTION('',(0.,1.,2.55013198898809E-16));
#603=DIRECTION('',(0.,0.,1.));
#604=DIRECTION('',(-1.,0.,0.));
#605=DIRECTION('',(0.,0.,-1.));
#606=DIRECTION('',(0.,1.,0.));
#607=DIRECTION('',(0.,0.,-1.));
#608=DIRECTION('',(0.,1.,0.));
#609=CARTESIAN_POINT('',(0.,0.,0.));
#610=CARTESIAN_POINT('',(0.,0.,0.));
#611=CARTESIAN_POINT('',(0.,0.,-30.));
#612=CARTESIAN_POINT('',(0.,0.,0.));
#613=CARTESIAN_POINT('',(-7.,27.13,-37.));
#614=CARTESIAN_POINT('',(-7.,16.45,-37.));
#615=CARTESIAN_POINT('',(-7.,38.26,-37.));
#616=CARTESIAN_POINT('',(0.,38.26,-37.));
#617=CARTESIAN_POINT('',(7.,38.26,-37.));
#618=CARTESIAN_POINT('',(7.,27.13,-37.));
#619=CARTESIAN_POINT('',(7.,16.45,-37.));
#620=CARTESIAN_POINT('',(0.,16.45,-37.));
#621=CARTESIAN_POINT('',(0.,27.13,-37.));
#622=CARTESIAN_POINT('',(-7.,-27.13,-37.));
#623=CARTESIAN_POINT('',(-7.,-38.26,-37.));
#624=CARTESIAN_POINT('',(-7.,-16.45,-37.));
#625=CARTESIAN_POINT('',(0.,-16.45,-37.));
#626=CARTESIAN_POINT('',(7.,-16.45,-37.));
#627=CARTESIAN_POINT('',(7.,-27.13,-37.));
#628=CARTESIAN_POINT('',(7.,-38.26,-37.));
#629=CARTESIAN_POINT('',(0.,-38.26,-37.));
#630=CARTESIAN_POINT('',(0.,-27.13,-37.));
#631=CARTESIAN_POINT('',(0.,0.,93.4));
#632=CARTESIAN_POINT('',(-2.19180783021279E-12,-12.5,93.4));
#633=CARTESIAN_POINT('',(2.19181433367306E-12,12.5,93.4));
#634=CARTESIAN_POINT('',(0.,0.,93.4));
#635=CARTESIAN_POINT('',(0.,0.,93.4));
#636=CARTESIAN_POINT('',(0.,0.,-13.6));
#637=CARTESIAN_POINT('',(2.01551380325308E-13,39.,-13.6));
#638=CARTESIAN_POINT('',(-2.01560704566008E-13,-39.,-13.6));
#639=CARTESIAN_POINT('',(0.,0.,-13.6));
#640=CARTESIAN_POINT('',(0.,0.,-13.6));
#641=CARTESIAN_POINT('',(-31.5,0.,-13.6));
#642=CARTESIAN_POINT('',(0.,0.,-13.6));
#643=CARTESIAN_POINT('',(7.,38.26,-37.));
#644=CARTESIAN_POINT('',(7.,38.26,-30.));
#645=CARTESIAN_POINT('',(-7.,38.26,-37.));
#646=CARTESIAN_POINT('',(-7.,38.26,-30.));
#647=CARTESIAN_POINT('',(-7.,38.26,-30.));
#648=CARTESIAN_POINT('',(-7.,38.26,-37.));
#649=CARTESIAN_POINT('',(-7.,-38.26,-37.));
#650=CARTESIAN_POINT('',(-7.,-38.26,-30.));
#651=CARTESIAN_POINT('',(7.,-38.26,-37.));
#652=CARTESIAN_POINT('',(7.,-38.26,-30.));
#653=CARTESIAN_POINT('',(-7.,-38.26,-30.));
#654=CARTESIAN_POINT('',(-7.,-38.26,-37.));
#655=CARTESIAN_POINT('',(6.999999999995,36.84087404256,-30.));
#656=CARTESIAN_POINT('',(7.,16.45,-30.));
#657=CARTESIAN_POINT('',(7.,16.45,-37.));
#658=CARTESIAN_POINT('',(7.,38.26,-37.));
#659=CARTESIAN_POINT('',(2.971231900882,16.45,-30.));
#660=CARTESIAN_POINT('',(-7.,16.45,-30.));
#661=CARTESIAN_POINT('',(-7.,16.45,-37.));
#662=CARTESIAN_POINT('',(7.,16.45,-37.));
#663=CARTESIAN_POINT('',(-6.999999999995,36.84087404261,-30.));
#664=CARTESIAN_POINT('',(-7.,16.45,-37.));
#665=CARTESIAN_POINT('',(-6.999999999995,-36.84087404261,-30.));
#666=CARTESIAN_POINT('',(-7.,-16.45,-30.));
#667=CARTESIAN_POINT('',(-7.,-16.45,-37.));
#668=CARTESIAN_POINT('',(-7.,-16.45,-37.));
#669=CARTESIAN_POINT('',(2.971231900882,-16.45,-30.));
#670=CARTESIAN_POINT('',(7.,-16.45,-30.));
#671=CARTESIAN_POINT('',(7.,-16.45,-37.));
#672=CARTESIAN_POINT('',(7.,-16.45,-37.));
#673=CARTESIAN_POINT('',(6.999999999995,-36.84087404256,-30.));
#674=CARTESIAN_POINT('',(7.,-38.26,-37.));
#675=CARTESIAN_POINT('',(0.,0.,-30.));
#676=CARTESIAN_POINT('',(-39.,0.,-30.));
#677=CARTESIAN_POINT('',(0.,-39.,-23.));
#678=CARTESIAN_POINT('',(0.,-39.,-23.));
#679=CARTESIAN_POINT('',(0.,39.,-23.));
#680=CARTESIAN_POINT('',(0.,39.,-23.));
#681=CARTESIAN_POINT('',(0.,0.,-9.48));
#682=CARTESIAN_POINT('',(0.,0.,-30.));
#683=CARTESIAN_POINT('',(0.,16.,-30.));
#684=CARTESIAN_POINT('',(5.37439482938194E-13,-16.,-30.));
#685=CARTESIAN_POINT('',(0.,0.,-30.));
#686=CARTESIAN_POINT('',(0.,0.,-30.));
#687=CARTESIAN_POINT('',(0.,0.,-54.));
#688=CARTESIAN_POINT('',(2.15628337159008E-12,-16.,-54.));
#689=CARTESIAN_POINT('',(-2.15680905363103E-12,16.,-54.));
#690=CARTESIAN_POINT('',(0.,0.,-54.));
#691=CARTESIAN_POINT('',(0.,0.,-54.));
#692=CARTESIAN_POINT('',(8.00000000000038,19.4164878389474,-54.));
#693=CARTESIAN_POINT('',(0.,0.,-54.));
#694=CARTESIAN_POINT('',(0.,0.,-63.));
#695=CARTESIAN_POINT('',(-21.,0.,-63.));
#696=CARTESIAN_POINT('',(0.,0.,-63.));
#697=CARTESIAN_POINT('',(0.,0.,-26.25));
#698=CARTESIAN_POINT('',(2.009130453649E-12,-16.,-52.5));
#699=CARTESIAN_POINT('',(-2.009620292369E-12,16.,-52.5));
#700=CARTESIAN_POINT('',(0.,0.,-9.48));
#701=CARTESIAN_POINT('',(0.,0.,-9.48));
#702=CARTESIAN_POINT('',(0.,12.5,70.4));
#703=CARTESIAN_POINT('',(0.,12.5,66.686080821567));
#704=CARTESIAN_POINT('',(0.,-12.5,70.4));
#705=CARTESIAN_POINT('',(7.65404249467096E-16,-12.5,66.686080821567));
#706=CARTESIAN_POINT('',(0.,0.,66.686080821567));
#707=CARTESIAN_POINT('',(0.,0.,98.65));
#708=CARTESIAN_POINT('',(0.,0.,66.686080821567));
#709=CARTESIAN_POINT('',(0.,0.,98.65));
#710=CARTESIAN_POINT('',(0.,22.16666698729,0.399999999999999));
#711=CARTESIAN_POINT('',(0.,22.4583320508297,-1.6));
#712=CARTESIAN_POINT('',(0.,12.68755242227,65.4));
#713=CARTESIAN_POINT('',(0.,0.,-1.6));
#714=CARTESIAN_POINT('',(2.7503524460237E-15,-22.4583320508297,-1.6));
#715=CARTESIAN_POINT('',(0.,-22.16666698729,0.399999999999999));
#716=CARTESIAN_POINT('',(0.,-12.68755242227,65.4));
#717=CARTESIAN_POINT('',(0.,0.,-1.6));
#718=CARTESIAN_POINT('',(0.,0.,32.9));
#719=CARTESIAN_POINT('',(0.,0.,-1.6));
#720=CARTESIAN_POINT('',(-31.5,0.,-1.6));
#721=CARTESIAN_POINT('',(0.,0.,-1.6));
#722=CARTESIAN_POINT('',(0.,0.,98.65));
#723=MECHANICAL_DESIGN_GEOMETRIC_PRESENTATION_REPRESENTATION('',(#426,#427,
#428,#429),#724);
#724=(
GEOMETRIC_REPRESENTATION_CONTEXT(3)
GLOBAL_UNCERTAINTY_ASSIGNED_CONTEXT((#725))
GLOBAL_UNIT_ASSIGNED_CONTEXT((#731,#727,#726))
REPRESENTATION_CONTEXT('2080.40-FMH1.32','TOP_LEVEL_ASSEMBLY_PART')
);
#725=UNCERTAINTY_MEASURE_WITH_UNIT(LENGTH_MEASURE(2.E-5),#731,
'DISTANCE_ACCURACY_VALUE','Maximum Tolerance applied to model');
#726=(
NAMED_UNIT(*)
SI_UNIT($,.STERADIAN.)
SOLID_ANGLE_UNIT()
);
#727=(
CONVERSION_BASED_UNIT('DEGREE',#729)
NAMED_UNIT(#728)
PLANE_ANGLE_UNIT()
);
#728=DIMENSIONAL_EXPONENTS(0.,0.,0.,0.,0.,0.,0.);
#729=PLANE_ANGLE_MEASURE_WITH_UNIT(PLANE_ANGLE_MEASURE(0.0174532925),#730);
#730=(
NAMED_UNIT(*)
PLANE_ANGLE_UNIT()
SI_UNIT($,.RADIAN.)
);
#731=(
LENGTH_UNIT()
NAMED_UNIT(*)
SI_UNIT(.MILLI.,.METRE.)
);
ENDSEC;
END-ISO-10303-21;
