ISO-10303-21;
HEADER;
/* Generated by software containing ST-Developer
 * from STEP Tools, Inc. (www.steptools.com) 
 */
/* OPTION: using custom schema-name function */

FILE_DESCRIPTION(
/* description */ (''),
/* implementation_level */ '2;1');

FILE_NAME(
/* name */ '2080.40-CC.ER40.080.stp',
/* time_stamp */ '2024-06-19T16:02:31+02:00',
/* author */ (''),
/* organization */ (''),
/* preprocessor_version */ 'ST-DEVELOPER v16.7',
/* originating_system */ 'SIEMENS PLM Software NX 12.0',
/* authorisation */ '');

FILE_SCHEMA (('AUTOMOTIVE_DESIGN { 1 0 10303 214 3 1 1 1 }'));
ENDSEC;

DATA;
#10=CONSTRUCTIVE_GEOMETRY_REPRESENTATION_RELATIONSHIP(
'supplemental geometry','',#32,#11);
#11=CONSTRUCTIVE_GEOMETRY_REPRESENTATION('supplemental geometry',(#280,
#281,#282),#468);
#12=PROPERTY_DEFINITION_REPRESENTATION(#16,#14);
#13=PROPERTY_DEFINITION_REPRESENTATION(#17,#15);
#14=REPRESENTATION('',(#18),#468);
#15=REPRESENTATION('',(#19),#468);
#16=PROPERTY_DEFINITION('pmi validation property','',#23);
#17=PROPERTY_DEFINITION('pmi validation property','',#23);
#18=VALUE_REPRESENTATION_ITEM('number of annotations',COUNT_MEASURE(0.));
#19=VALUE_REPRESENTATION_ITEM('number of views',COUNT_MEASURE(0.));
#20=SHAPE_REPRESENTATION_RELATIONSHIP('None',
'relationship between pf6664B8D635bxmx-None and pf6664B8D635bxmx-None',
#32,#21);
#21=ADVANCED_BREP_SHAPE_REPRESENTATION('pf6664B8D635bxmx-None',(#38),#468);
#22=SHAPE_DEFINITION_REPRESENTATION(#23,#32);
#23=PRODUCT_DEFINITION_SHAPE('','',#24);
#24=PRODUCT_DEFINITION(' ','',#26,#25);
#25=PRODUCT_DEFINITION_CONTEXT('part definition',#31,'design');
#26=PRODUCT_DEFINITION_FORMATION_WITH_SPECIFIED_SOURCE(' ',' ',#28,
 .NOT_KNOWN.);
#27=PRODUCT_RELATED_PRODUCT_CATEGORY('part','',(#28));
#28=PRODUCT('pf6664B8D635bxmx','pf6664B8D635bxmx',' ',(#29));
#29=PRODUCT_CONTEXT(' ',#31,'mechanical');
#30=APPLICATION_PROTOCOL_DEFINITION('international standard',
'automotive_design',2010,#31);
#31=APPLICATION_CONTEXT(
'core data for automotive mechanical design processes');
#32=SHAPE_REPRESENTATION('pf6664B8D635bxmx-None',(#279),#468);
#33=SURFACE_STYLE_USAGE(.BOTH.,#34);
#34=SURFACE_SIDE_STYLE('',(#35));
#35=SURFACE_STYLE_FILL_AREA(#36);
#36=FILL_AREA_STYLE('',(#37));
#37=FILL_AREA_STYLE_COLOUR('',#275);
#38=MANIFOLD_SOLID_BREP('',#39);
#39=CLOSED_SHELL('',(#64,#65,#66,#67,#68,#69,#70,#71,#72,#73,#74,#75,#76,
#77));
#40=TOROIDAL_SURFACE('',#305,25.8,0.8);
#41=CONICAL_SURFACE('',#298,17.42710970478,8.2971);
#42=CONICAL_SURFACE('',#313,27.83205080757,60.);
#43=FACE_BOUND('',#95,.T.);
#44=FACE_BOUND('',#96,.T.);
#45=FACE_BOUND('',#97,.T.);
#46=FACE_BOUND('',#98,.T.);
#47=FACE_BOUND('',#99,.T.);
#48=FACE_BOUND('',#100,.T.);
#49=FACE_BOUND('',#101,.T.);
#50=FACE_BOUND('',#102,.T.);
#51=FACE_BOUND('',#103,.T.);
#52=FACE_BOUND('',#104,.T.);
#53=FACE_BOUND('',#106,.T.);
#54=FACE_BOUND('',#107,.T.);
#55=FACE_BOUND('',#108,.T.);
#56=FACE_BOUND('',#109,.T.);
#57=FACE_BOUND('',#110,.T.);
#58=FACE_BOUND('',#111,.T.);
#59=PLANE('',#291);
#60=PLANE('',#300);
#61=PLANE('',#304);
#62=PLANE('',#308);
#63=PLANE('',#314);
#64=ADVANCED_FACE('',(#84),#78,.T.);
#65=ADVANCED_FACE('',(#85),#79,.T.);
#66=ADVANCED_FACE('',(#86),#59,.T.);
#67=ADVANCED_FACE('',(#87),#80,.T.);
#68=ADVANCED_FACE('',(#88),#81,.T.);
#69=ADVANCED_FACE('',(#43,#44),#41,.T.);
#70=ADVANCED_FACE('',(#45,#46),#60,.F.);
#71=ADVANCED_FACE('',(#47,#48),#82,.T.);
#72=ADVANCED_FACE('',(#49,#50),#61,.T.);
#73=ADVANCED_FACE('',(#51,#52),#40,.F.);
#74=ADVANCED_FACE('',(#89),#62,.T.);
#75=ADVANCED_FACE('',(#53,#54),#83,.T.);
#76=ADVANCED_FACE('',(#55,#56),#42,.T.);
#77=ADVANCED_FACE('',(#57,#58),#63,.F.);
#78=CYLINDRICAL_SURFACE('',#285,25.);
#79=CYLINDRICAL_SURFACE('',#288,25.);
#80=CYLINDRICAL_SURFACE('',#293,12.5);
#81=CYLINDRICAL_SURFACE('',#295,12.5);
#82=CYLINDRICAL_SURFACE('',#302,31.5);
#83=CYLINDRICAL_SURFACE('',#312,31.45);
#84=FACE_OUTER_BOUND('',#90,.T.);
#85=FACE_OUTER_BOUND('',#91,.T.);
#86=FACE_OUTER_BOUND('',#92,.T.);
#87=FACE_OUTER_BOUND('',#93,.T.);
#88=FACE_OUTER_BOUND('',#94,.T.);
#89=FACE_OUTER_BOUND('',#105,.T.);
#90=EDGE_LOOP('',(#130,#131,#132,#133));
#91=EDGE_LOOP('',(#134,#135,#136,#137));
#92=EDGE_LOOP('',(#138,#139));
#93=EDGE_LOOP('',(#140,#141,#142,#143));
#94=EDGE_LOOP('',(#144,#145,#146,#147));
#95=EDGE_LOOP('',(#148,#149));
#96=EDGE_LOOP('',(#150,#151,#152,#153,#154,#155));
#97=EDGE_LOOP('',(#156));
#98=EDGE_LOOP('',(#157,#158));
#99=EDGE_LOOP('',(#159));
#100=EDGE_LOOP('',(#160));
#101=EDGE_LOOP('',(#161));
#102=EDGE_LOOP('',(#162));
#103=EDGE_LOOP('',(#163,#164));
#104=EDGE_LOOP('',(#165));
#105=EDGE_LOOP('',(#166,#167));
#106=EDGE_LOOP('',(#168));
#107=EDGE_LOOP('',(#169,#170,#171,#172,#173,#174));
#108=EDGE_LOOP('',(#175));
#109=EDGE_LOOP('',(#176,#177,#178,#179,#180,#181));
#110=EDGE_LOOP('',(#182,#183));
#111=EDGE_LOOP('',(#184,#185));
#112=CIRCLE('',#283,25.);
#113=CIRCLE('',#284,25.);
#114=CIRCLE('',#286,25.);
#115=CIRCLE('',#287,25.);
#116=CIRCLE('',#289,12.5);
#117=CIRCLE('',#290,12.5);
#118=CIRCLE('',#292,12.5);
#119=CIRCLE('',#294,12.5);
#120=CIRCLE('',#296,22.4583320508297);
#121=CIRCLE('',#297,22.4583320508297);
#122=CIRCLE('',#299,31.5);
#123=CIRCLE('',#301,31.5);
#124=CIRCLE('',#303,25.8);
#125=CIRCLE('',#306,24.7499999999942);
#126=CIRCLE('',#307,24.7499999999942);
#127=CIRCLE('',#309,31.45);
#128=CIRCLE('',#310,31.45);
#129=CIRCLE('',#311,31.45);
#130=ORIENTED_EDGE('',*,*,#210,.F.);
#131=ORIENTED_EDGE('',*,*,#211,.T.);
#132=ORIENTED_EDGE('',*,*,#212,.T.);
#133=ORIENTED_EDGE('',*,*,#213,.F.);
#134=ORIENTED_EDGE('',*,*,#212,.F.);
#135=ORIENTED_EDGE('',*,*,#214,.T.);
#136=ORIENTED_EDGE('',*,*,#210,.T.);
#137=ORIENTED_EDGE('',*,*,#215,.T.);
#138=ORIENTED_EDGE('',*,*,#216,.T.);
#139=ORIENTED_EDGE('',*,*,#217,.T.);
#140=ORIENTED_EDGE('',*,*,#218,.F.);
#141=ORIENTED_EDGE('',*,*,#219,.T.);
#142=ORIENTED_EDGE('',*,*,#220,.T.);
#143=ORIENTED_EDGE('',*,*,#216,.F.);
#144=ORIENTED_EDGE('',*,*,#220,.F.);
#145=ORIENTED_EDGE('',*,*,#221,.T.);
#146=ORIENTED_EDGE('',*,*,#218,.T.);
#147=ORIENTED_EDGE('',*,*,#217,.F.);
#148=ORIENTED_EDGE('',*,*,#221,.F.);
#149=ORIENTED_EDGE('',*,*,#219,.F.);
#150=ORIENTED_EDGE('',*,*,#222,.T.);
#151=ORIENTED_EDGE('',*,*,#222,.F.);
#152=ORIENTED_EDGE('',*,*,#223,.F.);
#153=ORIENTED_EDGE('',*,*,#224,.T.);
#154=ORIENTED_EDGE('',*,*,#224,.F.);
#155=ORIENTED_EDGE('',*,*,#225,.F.);
#156=ORIENTED_EDGE('',*,*,#226,.T.);
#157=ORIENTED_EDGE('',*,*,#225,.T.);
#158=ORIENTED_EDGE('',*,*,#223,.T.);
#159=ORIENTED_EDGE('',*,*,#227,.T.);
#160=ORIENTED_EDGE('',*,*,#226,.F.);
#161=ORIENTED_EDGE('',*,*,#228,.T.);
#162=ORIENTED_EDGE('',*,*,#227,.F.);
#163=ORIENTED_EDGE('',*,*,#215,.F.);
#164=ORIENTED_EDGE('',*,*,#213,.T.);
#165=ORIENTED_EDGE('',*,*,#228,.F.);
#166=ORIENTED_EDGE('',*,*,#229,.F.);
#167=ORIENTED_EDGE('',*,*,#230,.F.);
#168=ORIENTED_EDGE('',*,*,#231,.F.);
#169=ORIENTED_EDGE('',*,*,#232,.F.);
#170=ORIENTED_EDGE('',*,*,#232,.T.);
#171=ORIENTED_EDGE('',*,*,#233,.T.);
#172=ORIENTED_EDGE('',*,*,#234,.F.);
#173=ORIENTED_EDGE('',*,*,#234,.T.);
#174=ORIENTED_EDGE('',*,*,#235,.T.);
#175=ORIENTED_EDGE('',*,*,#231,.T.);
#176=ORIENTED_EDGE('',*,*,#236,.T.);
#177=ORIENTED_EDGE('',*,*,#236,.F.);
#178=ORIENTED_EDGE('',*,*,#229,.T.);
#179=ORIENTED_EDGE('',*,*,#237,.T.);
#180=ORIENTED_EDGE('',*,*,#237,.F.);
#181=ORIENTED_EDGE('',*,*,#230,.T.);
#182=ORIENTED_EDGE('',*,*,#211,.F.);
#183=ORIENTED_EDGE('',*,*,#214,.F.);
#184=ORIENTED_EDGE('',*,*,#233,.F.);
#185=ORIENTED_EDGE('',*,*,#235,.F.);
#186=VERTEX_POINT('',#402);
#187=VERTEX_POINT('',#403);
#188=VERTEX_POINT('',#405);
#189=VERTEX_POINT('',#407);
#190=VERTEX_POINT('',#414);
#191=VERTEX_POINT('',#415);
#192=VERTEX_POINT('',#419);
#193=VERTEX_POINT('',#421);
#194=VERTEX_POINT('',#427);
#195=VERTEX_POINT('',#428);
#196=VERTEX_POINT('',#430);
#197=VERTEX_POINT('',#432);
#198=VERTEX_POINT('',#436);
#199=VERTEX_POINT('',#439);
#200=VERTEX_POINT('',#442);
#201=VERTEX_POINT('',#446);
#202=VERTEX_POINT('',#447);
#203=VERTEX_POINT('',#451);
#204=VERTEX_POINT('',#453);
#205=VERTEX_POINT('',#454);
#206=VERTEX_POINT('',#456);
#207=VERTEX_POINT('',#458);
#208=VERTEX_POINT('',#462);
#209=VERTEX_POINT('',#464);
#210=EDGE_CURVE('',#186,#187,#238,.T.);
#211=EDGE_CURVE('',#186,#188,#112,.T.);
#212=EDGE_CURVE('',#188,#189,#239,.T.);
#213=EDGE_CURVE('',#187,#189,#113,.T.);
#214=EDGE_CURVE('',#188,#186,#114,.T.);
#215=EDGE_CURVE('',#187,#189,#115,.T.);
#216=EDGE_CURVE('',#190,#191,#116,.T.);
#217=EDGE_CURVE('',#191,#190,#117,.T.);
#218=EDGE_CURVE('',#192,#190,#240,.T.);
#219=EDGE_CURVE('',#192,#193,#118,.T.);
#220=EDGE_CURVE('',#193,#191,#241,.T.);
#221=EDGE_CURVE('',#193,#192,#119,.T.);
#222=EDGE_CURVE('',#194,#195,#242,.T.);
#223=EDGE_CURVE('',#196,#194,#120,.T.);
#224=EDGE_CURVE('',#196,#197,#243,.T.);
#225=EDGE_CURVE('',#194,#196,#121,.T.);
#226=EDGE_CURVE('',#198,#198,#122,.T.);
#227=EDGE_CURVE('',#199,#199,#123,.T.);
#228=EDGE_CURVE('',#200,#200,#124,.T.);
#229=EDGE_CURVE('',#201,#202,#125,.T.);
#230=EDGE_CURVE('',#202,#201,#126,.T.);
#231=EDGE_CURVE('',#203,#203,#127,.T.);
#232=EDGE_CURVE('',#204,#205,#244,.T.);
#233=EDGE_CURVE('',#205,#206,#128,.T.);
#234=EDGE_CURVE('',#207,#206,#245,.T.);
#235=EDGE_CURVE('',#206,#205,#129,.T.);
#236=EDGE_CURVE('',#201,#208,#246,.T.);
#237=EDGE_CURVE('',#202,#209,#247,.T.);
#238=LINE('',#401,#248);
#239=LINE('',#406,#249);
#240=LINE('',#418,#250);
#241=LINE('',#422,#251);
#242=LINE('',#426,#252);
#243=LINE('',#431,#253);
#244=LINE('',#452,#254);
#245=LINE('',#457,#255);
#246=LINE('',#461,#256);
#247=LINE('',#463,#257);
#248=VECTOR('',#323,1.);
#249=VECTOR('',#326,1.);
#250=VECTOR('',#343,1.);
#251=VECTOR('',#346,1.);
#252=VECTOR('',#353,1.);
#253=VECTOR('',#356,1.);
#254=VECTOR('',#383,1.);
#255=VECTOR('',#386,1.);
#256=VECTOR('',#391,1.);
#257=VECTOR('',#392,1.);
#258=INVISIBILITY((#259,#260,#261));
#259=PRESENTATION_LAYER_ASSIGNMENT('100','Layer 100',(#280));
#260=PRESENTATION_LAYER_ASSIGNMENT('101','Layer 101',(#281));
#261=PRESENTATION_LAYER_ASSIGNMENT('102','Layer 102',(#282));
#262=PRESENTATION_LAYER_ASSIGNMENT('98','Layer 98',(#38));
#263=STYLED_ITEM('',(#267),#280);
#264=STYLED_ITEM('',(#268),#281);
#265=STYLED_ITEM('',(#269),#282);
#266=STYLED_ITEM('',(#270),#38);
#267=PRESENTATION_STYLE_ASSIGNMENT((#271));
#268=PRESENTATION_STYLE_ASSIGNMENT((#272));
#269=PRESENTATION_STYLE_ASSIGNMENT((#273));
#270=PRESENTATION_STYLE_ASSIGNMENT((#33));
#271=CURVE_STYLE('',#276,POSITIVE_LENGTH_MEASURE(0.7),#274);
#272=CURVE_STYLE('',#277,POSITIVE_LENGTH_MEASURE(0.7),#274);
#273=CURVE_STYLE('',#278,POSITIVE_LENGTH_MEASURE(0.7),#274);
#274=COLOUR_RGB('Medium Maroon',0.6,0.4,0.4);
#275=COLOUR_RGB('Medium Gray',0.490196078431373,0.490196078431373,0.490196078431373);
#276=DRAUGHTING_PRE_DEFINED_CURVE_FONT('continuous');
#277=DRAUGHTING_PRE_DEFINED_CURVE_FONT('continuous');
#278=DRAUGHTING_PRE_DEFINED_CURVE_FONT('continuous');
#279=AXIS2_PLACEMENT_3D('',#397,#315,#316);
#280=AXIS2_PLACEMENT_3D('PCS',#398,#317,#318);
#281=AXIS2_PLACEMENT_3D('CSW',#399,#319,#320);
#282=AXIS2_PLACEMENT_3D('MCS',#400,#321,#322);
#283=AXIS2_PLACEMENT_3D('',#404,#324,#325);
#284=AXIS2_PLACEMENT_3D('',#408,#327,#328);
#285=AXIS2_PLACEMENT_3D('',#409,#329,#330);
#286=AXIS2_PLACEMENT_3D('',#410,#331,#332);
#287=AXIS2_PLACEMENT_3D('',#411,#333,#334);
#288=AXIS2_PLACEMENT_3D('',#412,#335,#336);
#289=AXIS2_PLACEMENT_3D('',#413,#337,#338);
#290=AXIS2_PLACEMENT_3D('',#416,#339,#340);
#291=AXIS2_PLACEMENT_3D('',#417,#341,#342);
#292=AXIS2_PLACEMENT_3D('',#420,#344,#345);
#293=AXIS2_PLACEMENT_3D('',#423,#347,#348);
#294=AXIS2_PLACEMENT_3D('',#424,#349,#350);
#295=AXIS2_PLACEMENT_3D('',#425,#351,#352);
#296=AXIS2_PLACEMENT_3D('',#429,#354,#355);
#297=AXIS2_PLACEMENT_3D('',#433,#357,#358);
#298=AXIS2_PLACEMENT_3D('',#434,#359,#360);
#299=AXIS2_PLACEMENT_3D('',#435,#361,#362);
#300=AXIS2_PLACEMENT_3D('',#437,#363,#364);
#301=AXIS2_PLACEMENT_3D('',#438,#365,#366);
#302=AXIS2_PLACEMENT_3D('',#440,#367,#368);
#303=AXIS2_PLACEMENT_3D('',#441,#369,#370);
#304=AXIS2_PLACEMENT_3D('',#443,#371,#372);
#305=AXIS2_PLACEMENT_3D('',#444,#373,#374);
#306=AXIS2_PLACEMENT_3D('',#445,#375,#376);
#307=AXIS2_PLACEMENT_3D('',#448,#377,#378);
#308=AXIS2_PLACEMENT_3D('',#449,#379,#380);
#309=AXIS2_PLACEMENT_3D('',#450,#381,#382);
#310=AXIS2_PLACEMENT_3D('',#455,#384,#385);
#311=AXIS2_PLACEMENT_3D('',#459,#387,#388);
#312=AXIS2_PLACEMENT_3D('',#460,#389,#390);
#313=AXIS2_PLACEMENT_3D('',#465,#393,#394);
#314=AXIS2_PLACEMENT_3D('',#466,#395,#396);
#315=DIRECTION('',(0.,0.,1.));
#316=DIRECTION('',(1.,0.,0.));
#317=DIRECTION('',(0.,0.,1.));
#318=DIRECTION('',(1.,0.,0.));
#319=DIRECTION('',(0.,0.,1.));
#320=DIRECTION('',(1.,0.,0.));
#321=DIRECTION('',(0.,0.,1.));
#322=DIRECTION('',(1.,0.,0.));
#323=DIRECTION('',(0.,0.,1.));
#324=DIRECTION('',(0.,0.,1.));
#325=DIRECTION('',(-1.,0.,0.));
#326=DIRECTION('',(0.,0.,1.));
#327=DIRECTION('',(0.,0.,1.));
#328=DIRECTION('',(0.,1.,0.));
#329=DIRECTION('',(0.,0.,-1.));
#330=DIRECTION('',(0.,1.,0.));
#331=DIRECTION('',(0.,0.,1.));
#332=DIRECTION('',(-1.,0.,0.));
#333=DIRECTION('',(0.,0.,-1.));
#334=DIRECTION('',(0.94673966854674,-0.322000000000014,0.));
#335=DIRECTION('',(0.,0.,-1.));
#336=DIRECTION('',(0.,1.,0.));
#337=DIRECTION('',(0.,0.,1.));
#338=DIRECTION('',(0.,-1.,0.));
#339=DIRECTION('',(0.,0.,1.));
#340=DIRECTION('',(0.,1.,0.));
#341=DIRECTION('',(0.,0.,1.));
#342=DIRECTION('',(1.,0.,0.));
#343=DIRECTION('',(-2.114902063601E-13,0.,1.));
#344=DIRECTION('',(0.,0.,1.));
#345=DIRECTION('',(-1.,0.,0.));
#346=DIRECTION('',(2.114908338869E-13,0.,1.));
#347=DIRECTION('',(0.,0.,-1.));
#348=DIRECTION('',(0.,1.,0.));
#349=DIRECTION('',(0.,0.,1.));
#350=DIRECTION('',(-1.,0.,0.));
#351=DIRECTION('',(0.,0.,-1.));
#352=DIRECTION('',(0.,1.,0.));
#353=DIRECTION('',(0.,-0.144306116415197,0.989533094325381));
#354=DIRECTION('',(0.,0.,-1.));
#355=DIRECTION('',(-1.,0.,0.));
#356=DIRECTION('',(0.,0.144306116415197,0.989533094325381));
#357=DIRECTION('',(0.,0.,-1.));
#358=DIRECTION('',(-1.,0.,0.));
#359=DIRECTION('',(0.,0.,-1.));
#360=DIRECTION('',(0.,1.,2.55013198898809E-16));
#361=DIRECTION('',(0.,0.,1.));
#362=DIRECTION('',(-1.,0.,0.));
#363=DIRECTION('',(0.,0.,-1.));
#364=DIRECTION('',(0.,1.,0.));
#365=DIRECTION('',(0.,0.,1.));
#366=DIRECTION('',(-1.,0.,0.));
#367=DIRECTION('',(0.,0.,-1.));
#368=DIRECTION('',(0.,1.,0.));
#369=DIRECTION('',(0.,0.,1.));
#370=DIRECTION('',(-0.950077010216016,-0.312015503876005,0.));
#371=DIRECTION('',(0.,0.,-1.));
#372=DIRECTION('',(0.,1.,0.));
#373=DIRECTION('',(0.,0.,-1.));
#374=DIRECTION('',(0.,1.,0.));
#375=DIRECTION('',(0.,0.,1.));
#376=DIRECTION('',(-1.,0.,0.));
#377=DIRECTION('',(0.,0.,1.));
#378=DIRECTION('',(-1.,0.,0.));
#379=DIRECTION('',(0.,0.,-1.));
#380=DIRECTION('',(0.,-1.,0.));
#381=DIRECTION('',(0.,0.,-1.));
#382=DIRECTION('',(1.,0.,0.));
#383=DIRECTION('',(0.,0.,1.));
#384=DIRECTION('',(0.,0.,-1.));
#385=DIRECTION('',(-1.,0.,0.));
#386=DIRECTION('',(-1.716326236589E-14,0.,1.));
#387=DIRECTION('',(0.,0.,-1.));
#388=DIRECTION('',(-1.,0.,0.));
#389=DIRECTION('',(0.,0.,-1.));
#390=DIRECTION('',(0.,-1.,0.));
#391=DIRECTION('',(0.,0.866025403784429,0.500000000000017));
#392=DIRECTION('',(0.,-0.866025403784429,0.500000000000017));
#393=DIRECTION('',(0.,0.,1.));
#394=DIRECTION('',(0.,1.,-1.57712631176114E-17));
#395=DIRECTION('',(0.,0.,-1.));
#396=DIRECTION('',(0.,-1.,0.));
#397=CARTESIAN_POINT('',(0.,0.,0.));
#398=CARTESIAN_POINT('',(0.,0.,0.));
#399=CARTESIAN_POINT('',(0.,0.,-65.));
#400=CARTESIAN_POINT('',(0.,0.,0.));
#401=CARTESIAN_POINT('',(0.,25.,-54.5003751221));
#402=CARTESIAN_POINT('',(0.,25.,-54.1));
#403=CARTESIAN_POINT('',(0.,25.,-12.4));
#404=CARTESIAN_POINT('',(0.,0.,-54.1));
#405=CARTESIAN_POINT('',(0.,-25.,-54.1));
#406=CARTESIAN_POINT('',(0.,-25.,-54.5003751221));
#407=CARTESIAN_POINT('',(0.,-25.,-12.4));
#408=CARTESIAN_POINT('',(0.,0.,-12.4));
#409=CARTESIAN_POINT('',(0.,0.,-8.93));
#410=CARTESIAN_POINT('',(0.,0.,-54.1));
#411=CARTESIAN_POINT('',(0.,0.,-12.4));
#412=CARTESIAN_POINT('',(0.,0.,-8.93));
#413=CARTESIAN_POINT('',(0.,0.,92.4));
#414=CARTESIAN_POINT('',(0.,-12.5,92.4));
#415=CARTESIAN_POINT('',(0.,12.5,92.4));
#416=CARTESIAN_POINT('',(0.,0.,92.4));
#417=CARTESIAN_POINT('',(0.,0.,92.4));
#418=CARTESIAN_POINT('',(0.,-12.5,83.03636251562));
#419=CARTESIAN_POINT('',(7.65404249467096E-16,-12.5,66.686080821567));
#420=CARTESIAN_POINT('',(0.,0.,66.686080821567));
#421=CARTESIAN_POINT('',(0.,12.5,66.686080821567));
#422=CARTESIAN_POINT('',(0.,12.5,83.03636251562));
#423=CARTESIAN_POINT('',(0.,0.,98.65));
#424=CARTESIAN_POINT('',(0.,0.,66.686080821567));
#425=CARTESIAN_POINT('',(0.,0.,98.65));
#426=CARTESIAN_POINT('',(0.,22.16666698729,0.399999999999999));
#427=CARTESIAN_POINT('',(0.,22.4583320508297,-1.6));
#428=CARTESIAN_POINT('',(0.,12.68755242227,65.4));
#429=CARTESIAN_POINT('',(0.,0.,-1.6));
#430=CARTESIAN_POINT('',(2.7503524460237E-15,-22.4583320508297,-1.6));
#431=CARTESIAN_POINT('',(0.,-22.16666698729,0.399999999999999));
#432=CARTESIAN_POINT('',(0.,-12.68755242227,65.4));
#433=CARTESIAN_POINT('',(0.,0.,-1.6));
#434=CARTESIAN_POINT('',(0.,0.,32.9));
#435=CARTESIAN_POINT('',(0.,0.,-1.6));
#436=CARTESIAN_POINT('',(-31.5,0.,-1.6));
#437=CARTESIAN_POINT('',(0.,0.,-1.6));
#438=CARTESIAN_POINT('',(0.,0.,-11.6));
#439=CARTESIAN_POINT('',(-31.5,0.,-11.6));
#440=CARTESIAN_POINT('',(0.,0.,98.65));
#441=CARTESIAN_POINT('',(0.,0.,-11.6));
#442=CARTESIAN_POINT('',(-24.5119868635732,-8.05000000000093,-11.6));
#443=CARTESIAN_POINT('',(0.,0.,-11.6));
#444=CARTESIAN_POINT('',(0.,0.,-12.4));
#445=CARTESIAN_POINT('',(0.,0.,-80.));
#446=CARTESIAN_POINT('',(0.,24.7500000000042,-80.));
#447=CARTESIAN_POINT('',(0.,-24.7500000000042,-80.));
#448=CARTESIAN_POINT('',(0.,0.,-80.));
#449=CARTESIAN_POINT('',(0.,0.,-80.));
#450=CARTESIAN_POINT('',(0.,0.,-76.1317531964261));
#451=CARTESIAN_POINT('',(31.45,0.,-76.1317531964261));
#452=CARTESIAN_POINT('',(0.,31.45,-65.1));
#453=CARTESIAN_POINT('',(0.,31.45,-65.1));
#454=CARTESIAN_POINT('',(0.,31.45,-54.1));
#455=CARTESIAN_POINT('',(0.,0.,-54.1));
#456=CARTESIAN_POINT('',(-3.8178018915097E-14,-31.45,-54.1));
#457=CARTESIAN_POINT('',(3.562400925823E-14,-31.45,-58.4));
#458=CARTESIAN_POINT('',(1.155843793816E-13,-31.45,-58.4));
#459=CARTESIAN_POINT('',(0.,0.,-54.1));
#460=CARTESIAN_POINT('',(0.,0.,-88.12));
#461=CARTESIAN_POINT('',(0.,25.21410161514,-79.73205080757));
#462=CARTESIAN_POINT('',(2.052556870943E-14,28.29551270189,-77.95299728715));
#463=CARTESIAN_POINT('',(0.,-25.21410161514,-79.73205080757));
#464=CARTESIAN_POINT('',(-1.803633163934E-14,-28.29551270189,-77.95299728715));
#465=CARTESIAN_POINT('',(0.,0.,-78.22057713659));
#466=CARTESIAN_POINT('',(0.,0.,-54.1));
#467=MECHANICAL_DESIGN_GEOMETRIC_PRESENTATION_REPRESENTATION('',(#263,#264,
#265,#266),#468);
#468=(
GEOMETRIC_REPRESENTATION_CONTEXT(3)
GLOBAL_UNCERTAINTY_ASSIGNED_CONTEXT((#469))
GLOBAL_UNIT_ASSIGNED_CONTEXT((#475,#471,#470))
REPRESENTATION_CONTEXT('2080.40-CC.ER40','TOP_LEVEL_ASSEMBLY_PART')
);
#469=UNCERTAINTY_MEASURE_WITH_UNIT(LENGTH_MEASURE(2.E-5),#475,
'DISTANCE_ACCURACY_VALUE','Maximum Tolerance applied to model');
#470=(
NAMED_UNIT(*)
SI_UNIT($,.STERADIAN.)
SOLID_ANGLE_UNIT()
);
#471=(
CONVERSION_BASED_UNIT('DEGREE',#473)
NAMED_UNIT(#472)
PLANE_ANGLE_UNIT()
);
#472=DIMENSIONAL_EXPONENTS(0.,0.,0.,0.,0.,0.,0.);
#473=PLANE_ANGLE_MEASURE_WITH_UNIT(PLANE_ANGLE_MEASURE(0.0174532925),#474);
#474=(
NAMED_UNIT(*)
PLANE_ANGLE_UNIT()
SI_UNIT($,.RADIAN.)
);
#475=(
LENGTH_UNIT()
NAMED_UNIT(*)
SI_UNIT(.MILLI.,.METRE.)
);
ENDSEC;
END-ISO-10303-21;
