ISO-10303-21;
HEADER;
/* Generated by software containing ST-Developer
 * from STEP Tools, Inc. (www.steptools.com) 
 */
/* OPTION: using custom schema-name function */

FILE_DESCRIPTION(
/* description */ (''),
/* implementation_level */ '2;1');

FILE_NAME(
/* name */ '075E2R475W100-ISRD10-CF_202366623ndi000_01-SIM.stp',
/* time_stamp */ '2021-09-13T09:42:13+02:00',
/* author */ (''),
/* organization */ (''),
/* preprocessor_version */ 'ST-DEVELOPER v16.7',
/* originating_system */ 'SIEMENS PLM Software NX 12.0',
/* authorisation */ '');

FILE_SCHEMA (('AUTOMOTIVE_DESIGN { 1 0 10303 214 3 1 1 1 }'));
ENDSEC;

DATA;
#10=PROPERTY_DEFINITION_REPRESENTATION(#14,#12);
#11=PROPERTY_DEFINITION_REPRESENTATION(#15,#13);
#12=REPRESENTATION('',(#16),#541);
#13=REPRESENTATION('',(#17),#541);
#14=PROPERTY_DEFINITION('pmi validation property','',#21);
#15=PROPERTY_DEFINITION('pmi validation property','',#21);
#16=VALUE_REPRESENTATION_ITEM('number of annotations',COUNT_MEASURE(0.));
#17=VALUE_REPRESENTATION_ITEM('number of views',COUNT_MEASURE(0.));
#18=SHAPE_REPRESENTATION_RELATIONSHIP('None',
'relationship between hm15447C99E0ct2v-None and hm15447C99E0ct2v-None',
#30,#19);
#19=ADVANCED_BREP_SHAPE_REPRESENTATION('hm15447C99E0ct2v-None',(#52,#53),
#541);
#20=SHAPE_DEFINITION_REPRESENTATION(#21,#30);
#21=PRODUCT_DEFINITION_SHAPE('','',#22);
#22=PRODUCT_DEFINITION(' ','',#24,#23);
#23=PRODUCT_DEFINITION_CONTEXT('part definition',#29,'design');
#24=PRODUCT_DEFINITION_FORMATION_WITH_SPECIFIED_SOURCE(' ',' ',#26,
 .NOT_KNOWN.);
#25=PRODUCT_RELATED_PRODUCT_CATEGORY('part','',(#26));
#26=PRODUCT('hm15447C99E0ct2v','hm15447C99E0ct2v',' ',(#27));
#27=PRODUCT_CONTEXT(' ',#29,'mechanical');
#28=APPLICATION_PROTOCOL_DEFINITION('international standard',
'automotive_design',2010,#29);
#29=APPLICATION_CONTEXT(
'core data for automotive mechanical design processes');
#30=SHAPE_REPRESENTATION('hm15447C99E0ct2v-None',(#307),#541);
#31=SURFACE_OF_REVOLUTION('',#33,#32);
#32=AXIS1_PLACEMENT('',#539,#426);
#33=(
BOUNDED_CURVE()
B_SPLINE_CURVE(3,(#532,#533,#534,#535,#536,#537,#538),.UNSPECIFIED.,.T.,
 .F.)
B_SPLINE_CURVE_WITH_KNOTS((4,3,4),(0.,0.5,1.),.UNSPECIFIED.)
CURVE()
GEOMETRIC_REPRESENTATION_ITEM()
RATIONAL_B_SPLINE_CURVE((1.,0.333333333333333,0.333333333333333,1.,0.333333333333333,
0.333333333333333,1.))
REPRESENTATION_ITEM('')
);
#34=PRESENTATION_LAYER_ASSIGNMENT('14','Layer 14',(#52));
#35=PRESENTATION_LAYER_ASSIGNMENT('96','Layer 96',(#53));
#36=STYLED_ITEM('',(#38),#52);
#37=STYLED_ITEM('',(#39),#53);
#38=PRESENTATION_STYLE_ASSIGNMENT((#40));
#39=PRESENTATION_STYLE_ASSIGNMENT((#41));
#40=SURFACE_STYLE_USAGE(.BOTH.,#42);
#41=SURFACE_STYLE_USAGE(.BOTH.,#43);
#42=SURFACE_SIDE_STYLE('',(#44));
#43=SURFACE_SIDE_STYLE('',(#45));
#44=SURFACE_STYLE_FILL_AREA(#46);
#45=SURFACE_STYLE_FILL_AREA(#47);
#46=FILL_AREA_STYLE('',(#48));
#47=FILL_AREA_STYLE('',(#49));
#48=FILL_AREA_STYLE_COLOUR('',#50);
#49=FILL_AREA_STYLE_COLOUR('',#51);
#50=COLOUR_RGB('Medium Gray',0.499992370489052,0.499992370489052,0.499992370489052);
#51=COLOUR_RGB('Light Gray',0.8,0.8,0.8);
#52=MANIFOLD_SOLID_BREP('',#54);
#53=MANIFOLD_SOLID_BREP('',#55);
#54=CLOSED_SHELL('',(#83,#84,#85,#86,#87,#88,#89,#90,#91,#92,#93,#94,#95,
#96,#97,#98,#99,#100,#101,#102));
#55=CLOSED_SHELL('',(#103));
#56=VERTEX_LOOP('',#263);
#57=VERTEX_LOOP('',#265);
#58=B_SPLINE_CURVE_WITH_KNOTS('',3,(#507,#508,#509,#510),.UNSPECIFIED.,
 .F.,.F.,(4,4),(0.,1.),.UNSPECIFIED.);
#59=B_SPLINE_CURVE_WITH_KNOTS('',3,(#511,#512,#513,#514),.UNSPECIFIED.,
 .F.,.F.,(4,4),(0.,1.),.UNSPECIFIED.);
#60=(
BOUNDED_SURFACE()
B_SPLINE_SURFACE(3,3,((#477,#478,#479,#480,#481,#482,#483),(#484,#485,#486,
#487,#488,#489,#490),(#491,#492,#493,#494,#495,#496,#497),(#498,#499,#500,
#501,#502,#503,#504)),.UNSPECIFIED.,.F.,.T.,.F.)
B_SPLINE_SURFACE_WITH_KNOTS((4,4),(1,3,3,3,1),(0.,1.),(-0.5,0.,0.5,1.,1.5),
 .UNSPECIFIED.)
GEOMETRIC_REPRESENTATION_ITEM()
RATIONAL_B_SPLINE_SURFACE(((1.,0.333333333333333,0.333333333333333,1.,0.333333333333333,
0.333333333333333,1.),(0.967371010863435,0.322457003621145,0.322457003621145,
0.967371010863435,0.322457003621145,0.322457003621145,0.967371010863435),
(0.967371010863435,0.322457003621145,0.322457003621145,0.967371010863435,
0.322457003621145,0.322457003621145,0.967371010863435),(1.,0.333333333333333,
0.333333333333333,1.,0.333333333333333,0.333333333333333,1.)))
REPRESENTATION_ITEM('')
SURFACE()
);
#61=FACE_OUTER_BOUND('',#164,.T.);
#62=FACE_OUTER_BOUND('',#175,.T.);
#63=FACE_OUTER_BOUND('',#176,.T.);
#64=FACE_OUTER_BOUND('',#177,.T.);
#65=FACE_OUTER_BOUND('',#178,.T.);
#66=FACE_OUTER_BOUND('',#179,.T.);
#67=FACE_OUTER_BOUND('',#182,.T.);
#68=CONICAL_SURFACE('',#321,3.54581723893495,53.9999999999999);
#69=CONICAL_SURFACE('',#338,11.7,45.);
#70=CONICAL_SURFACE('',#340,3.,60.);
#71=CONICAL_SURFACE('',#343,4.1545,30.);
#72=TOROIDAL_SURFACE('',#319,5.6030656219586,3.50000000000001);
#73=TOROIDAL_SURFACE('',#328,11.5,2.5);
#74=TOROIDAL_SURFACE('',#330,6.6030656219586,2.5);
#75=TOROIDAL_SURFACE('',#337,14.,5.);
#76=CYLINDRICAL_SURFACE('',#316,12.7);
#77=CYLINDRICAL_SURFACE('',#326,9.);
#78=CYLINDRICAL_SURFACE('',#331,9.10306562195861);
#79=CYLINDRICAL_SURFACE('',#342,3.);
#80=ELLIPSE('',#311,18.1193210688779,12.7);
#81=ELLIPSE('',#312,18.1193210688779,12.7);
#82=ELLIPSE('',#315,18.1193210688779,12.7);
#83=ADVANCED_FACE('',(#127,#128),#104,.T.);
#84=ADVANCED_FACE('',(#129,#130,#131),#76,.T.);
#85=ADVANCED_FACE('',(#132,#133),#72,.T.);
#86=ADVANCED_FACE('',(#134,#135),#68,.F.);
#87=ADVANCED_FACE('',(#61),#105,.T.);
#88=ADVANCED_FACE('',(#136,#137),#77,.T.);
#89=ADVANCED_FACE('',(#138,#139),#73,.F.);
#90=ADVANCED_FACE('',(#140,#141),#74,.T.);
#91=ADVANCED_FACE('',(#142,#143),#78,.T.);
#92=ADVANCED_FACE('',(#144,#145),#60,.T.);
#93=ADVANCED_FACE('',(#62),#106,.T.);
#94=ADVANCED_FACE('',(#63),#107,.T.);
#95=ADVANCED_FACE('',(#64),#108,.F.);
#96=ADVANCED_FACE('',(#65),#109,.F.);
#97=ADVANCED_FACE('',(#66),#110,.F.);
#98=ADVANCED_FACE('',(#146,#147),#75,.F.);
#99=ADVANCED_FACE('',(#67),#69,.T.);
#100=ADVANCED_FACE('',(#148,#149),#70,.F.);
#101=ADVANCED_FACE('',(#150,#151),#79,.F.);
#102=ADVANCED_FACE('',(#152,#153),#71,.F.);
#103=ADVANCED_FACE('',(#154),#31,.F.);
#104=PLANE('',#310);
#105=PLANE('',#323);
#106=PLANE('',#332);
#107=PLANE('',#333);
#108=PLANE('',#334);
#109=PLANE('',#335);
#110=PLANE('',#336);
#111=LINE('',#430,#119);
#112=LINE('',#438,#120);
#113=LINE('',#442,#121);
#114=LINE('',#445,#122);
#115=LINE('',#450,#123);
#116=LINE('',#505,#124);
#117=LINE('',#516,#125);
#118=LINE('',#518,#126);
#119=VECTOR('',#348,1.);
#120=VECTOR('',#355,1.);
#121=VECTOR('',#358,1.);
#122=VECTOR('',#361,1.);
#123=VECTOR('',#364,1.);
#124=VECTOR('',#399,1.);
#125=VECTOR('',#404,1.);
#126=VECTOR('',#407,1.);
#127=FACE_BOUND('',#155,.T.);
#128=FACE_BOUND('',#156,.T.);
#129=FACE_BOUND('',#157,.T.);
#130=FACE_BOUND('',#158,.T.);
#131=FACE_BOUND('',#159,.T.);
#132=FACE_BOUND('',#160,.T.);
#133=FACE_BOUND('',#161,.T.);
#134=FACE_BOUND('',#162,.T.);
#135=FACE_BOUND('',#163,.T.);
#136=FACE_BOUND('',#165,.T.);
#137=FACE_BOUND('',#166,.T.);
#138=FACE_BOUND('',#167,.T.);
#139=FACE_BOUND('',#168,.T.);
#140=FACE_BOUND('',#169,.T.);
#141=FACE_BOUND('',#170,.T.);
#142=FACE_BOUND('',#171,.T.);
#143=FACE_BOUND('',#172,.T.);
#144=FACE_BOUND('',#173,.T.);
#145=FACE_BOUND('',#174,.T.);
#146=FACE_BOUND('',#180,.T.);
#147=FACE_BOUND('',#181,.T.);
#148=FACE_BOUND('',#183,.T.);
#149=FACE_BOUND('',#56,.T.);
#150=FACE_BOUND('',#184,.T.);
#151=FACE_BOUND('',#185,.T.);
#152=FACE_BOUND('',#186,.T.);
#153=FACE_BOUND('',#187,.T.);
#154=FACE_BOUND('',#57,.T.);
#155=EDGE_LOOP('',(#188));
#156=EDGE_LOOP('',(#189,#190));
#157=EDGE_LOOP('',(#191,#192,#193,#194));
#158=EDGE_LOOP('',(#195));
#159=EDGE_LOOP('',(#196,#197,#198,#199));
#160=EDGE_LOOP('',(#200));
#161=EDGE_LOOP('',(#201));
#162=EDGE_LOOP('',(#202));
#163=EDGE_LOOP('',(#203));
#164=EDGE_LOOP('',(#204));
#165=EDGE_LOOP('',(#205));
#166=EDGE_LOOP('',(#206));
#167=EDGE_LOOP('',(#207));
#168=EDGE_LOOP('',(#208));
#169=EDGE_LOOP('',(#209));
#170=EDGE_LOOP('',(#210));
#171=EDGE_LOOP('',(#211));
#172=EDGE_LOOP('',(#212));
#173=EDGE_LOOP('',(#213));
#174=EDGE_LOOP('',(#214));
#175=EDGE_LOOP('',(#215,#216));
#176=EDGE_LOOP('',(#217,#218,#219,#220,#221,#222));
#177=EDGE_LOOP('',(#223,#224));
#178=EDGE_LOOP('',(#225,#226,#227,#228));
#179=EDGE_LOOP('',(#229,#230));
#180=EDGE_LOOP('',(#231));
#181=EDGE_LOOP('',(#232));
#182=EDGE_LOOP('',(#233,#234,#235,#236));
#183=EDGE_LOOP('',(#237));
#184=EDGE_LOOP('',(#238));
#185=EDGE_LOOP('',(#239));
#186=EDGE_LOOP('',(#240));
#187=EDGE_LOOP('',(#241));
#188=ORIENTED_EDGE('',*,*,#266,.T.);
#189=ORIENTED_EDGE('',*,*,#267,.T.);
#190=ORIENTED_EDGE('',*,*,#268,.T.);
#191=ORIENTED_EDGE('',*,*,#269,.F.);
#192=ORIENTED_EDGE('',*,*,#270,.F.);
#193=ORIENTED_EDGE('',*,*,#271,.F.);
#194=ORIENTED_EDGE('',*,*,#272,.F.);
#195=ORIENTED_EDGE('',*,*,#273,.T.);
#196=ORIENTED_EDGE('',*,*,#274,.T.);
#197=ORIENTED_EDGE('',*,*,#275,.T.);
#198=ORIENTED_EDGE('',*,*,#276,.T.);
#199=ORIENTED_EDGE('',*,*,#277,.T.);
#200=ORIENTED_EDGE('',*,*,#278,.T.);
#201=ORIENTED_EDGE('',*,*,#279,.F.);
#202=ORIENTED_EDGE('',*,*,#280,.T.);
#203=ORIENTED_EDGE('',*,*,#278,.F.);
#204=ORIENTED_EDGE('',*,*,#281,.T.);
#205=ORIENTED_EDGE('',*,*,#282,.T.);
#206=ORIENTED_EDGE('',*,*,#283,.T.);
#207=ORIENTED_EDGE('',*,*,#284,.T.);
#208=ORIENTED_EDGE('',*,*,#283,.F.);
#209=ORIENTED_EDGE('',*,*,#285,.T.);
#210=ORIENTED_EDGE('',*,*,#284,.F.);
#211=ORIENTED_EDGE('',*,*,#279,.T.);
#212=ORIENTED_EDGE('',*,*,#285,.F.);
#213=ORIENTED_EDGE('',*,*,#281,.F.);
#214=ORIENTED_EDGE('',*,*,#280,.F.);
#215=ORIENTED_EDGE('',*,*,#286,.T.);
#216=ORIENTED_EDGE('',*,*,#277,.F.);
#217=ORIENTED_EDGE('',*,*,#267,.F.);
#218=ORIENTED_EDGE('',*,*,#287,.T.);
#219=ORIENTED_EDGE('',*,*,#274,.F.);
#220=ORIENTED_EDGE('',*,*,#286,.F.);
#221=ORIENTED_EDGE('',*,*,#276,.F.);
#222=ORIENTED_EDGE('',*,*,#288,.T.);
#223=ORIENTED_EDGE('',*,*,#289,.T.);
#224=ORIENTED_EDGE('',*,*,#269,.T.);
#225=ORIENTED_EDGE('',*,*,#270,.T.);
#226=ORIENTED_EDGE('',*,*,#289,.F.);
#227=ORIENTED_EDGE('',*,*,#272,.T.);
#228=ORIENTED_EDGE('',*,*,#290,.T.);
#229=ORIENTED_EDGE('',*,*,#271,.T.);
#230=ORIENTED_EDGE('',*,*,#290,.F.);
#231=ORIENTED_EDGE('',*,*,#282,.F.);
#232=ORIENTED_EDGE('',*,*,#273,.F.);
#233=ORIENTED_EDGE('',*,*,#288,.F.);
#234=ORIENTED_EDGE('',*,*,#275,.F.);
#235=ORIENTED_EDGE('',*,*,#287,.F.);
#236=ORIENTED_EDGE('',*,*,#268,.F.);
#237=ORIENTED_EDGE('',*,*,#291,.T.);
#238=ORIENTED_EDGE('',*,*,#291,.F.);
#239=ORIENTED_EDGE('',*,*,#292,.T.);
#240=ORIENTED_EDGE('',*,*,#292,.F.);
#241=ORIENTED_EDGE('',*,*,#266,.F.);
#242=VERTEX_POINT('',#429);
#243=VERTEX_POINT('',#431);
#244=VERTEX_POINT('',#432);
#245=VERTEX_POINT('',#436);
#246=VERTEX_POINT('',#437);
#247=VERTEX_POINT('',#439);
#248=VERTEX_POINT('',#441);
#249=VERTEX_POINT('',#444);
#250=VERTEX_POINT('',#446);
#251=VERTEX_POINT('',#447);
#252=VERTEX_POINT('',#449);
#253=VERTEX_POINT('',#451);
#254=VERTEX_POINT('',#455);
#255=VERTEX_POINT('',#457);
#256=VERTEX_POINT('',#460);
#257=VERTEX_POINT('',#463);
#258=VERTEX_POINT('',#466);
#259=VERTEX_POINT('',#468);
#260=VERTEX_POINT('',#471);
#261=VERTEX_POINT('',#474);
#262=VERTEX_POINT('',#524);
#263=VERTEX_POINT('',#525);
#264=VERTEX_POINT('',#528);
#265=VERTEX_POINT('',#531);
#266=EDGE_CURVE('',#242,#242,#293,.T.);
#267=EDGE_CURVE('',#243,#244,#111,.T.);
#268=EDGE_CURVE('',#244,#243,#294,.T.);
#269=EDGE_CURVE('',#245,#246,#80,.T.);
#270=EDGE_CURVE('',#247,#245,#112,.T.);
#271=EDGE_CURVE('',#248,#247,#81,.T.);
#272=EDGE_CURVE('',#246,#248,#113,.T.);
#273=EDGE_CURVE('',#249,#249,#295,.T.);
#274=EDGE_CURVE('',#250,#251,#114,.T.);
#275=EDGE_CURVE('',#251,#252,#296,.T.);
#276=EDGE_CURVE('',#252,#253,#115,.T.);
#277=EDGE_CURVE('',#253,#250,#82,.T.);
#278=EDGE_CURVE('',#254,#254,#297,.T.);
#279=EDGE_CURVE('',#255,#255,#298,.T.);
#280=EDGE_CURVE('',#256,#256,#299,.T.);
#281=EDGE_CURVE('',#257,#257,#300,.T.);
#282=EDGE_CURVE('',#258,#258,#301,.T.);
#283=EDGE_CURVE('',#259,#259,#302,.T.);
#284=EDGE_CURVE('',#260,#260,#303,.T.);
#285=EDGE_CURVE('',#261,#261,#304,.T.);
#286=EDGE_CURVE('',#253,#250,#116,.T.);
#287=EDGE_CURVE('',#243,#251,#58,.T.);
#288=EDGE_CURVE('',#252,#244,#59,.T.);
#289=EDGE_CURVE('',#246,#245,#117,.T.);
#290=EDGE_CURVE('',#248,#247,#118,.T.);
#291=EDGE_CURVE('',#262,#262,#305,.T.);
#292=EDGE_CURVE('',#264,#264,#306,.T.);
#293=CIRCLE('',#308,4.1545);
#294=CIRCLE('',#309,11.7);
#295=CIRCLE('',#313,12.7);
#296=CIRCLE('',#314,12.7);
#297=CIRCLE('',#317,3.54581723893495);
#298=CIRCLE('',#318,9.10306562195861);
#299=CIRCLE('',#320,1.42058488969531);
#300=CIRCLE('',#322,0.480128486027358);
#301=CIRCLE('',#324,9.);
#302=CIRCLE('',#325,9.);
#303=CIRCLE('',#327,9.05153281097929);
#304=CIRCLE('',#329,9.1030656219586);
#305=CIRCLE('',#339,3.);
#306=CIRCLE('',#341,3.);
#307=AXIS2_PLACEMENT_3D('',#427,#344,#345);
#308=AXIS2_PLACEMENT_3D('',#428,#346,#347);
#309=AXIS2_PLACEMENT_3D('',#433,#349,#350);
#310=AXIS2_PLACEMENT_3D('',#434,#351,#352);
#311=AXIS2_PLACEMENT_3D('',#435,#353,#354);
#312=AXIS2_PLACEMENT_3D('',#440,#356,#357);
#313=AXIS2_PLACEMENT_3D('',#443,#359,#360);
#314=AXIS2_PLACEMENT_3D('',#448,#362,#363);
#315=AXIS2_PLACEMENT_3D('',#452,#365,#366);
#316=AXIS2_PLACEMENT_3D('',#453,#367,#368);
#317=AXIS2_PLACEMENT_3D('',#454,#369,#370);
#318=AXIS2_PLACEMENT_3D('',#456,#371,#372);
#319=AXIS2_PLACEMENT_3D('',#458,#373,#374);
#320=AXIS2_PLACEMENT_3D('',#459,#375,#376);
#321=AXIS2_PLACEMENT_3D('',#461,#377,#378);
#322=AXIS2_PLACEMENT_3D('',#462,#379,#380);
#323=AXIS2_PLACEMENT_3D('',#464,#381,#382);
#324=AXIS2_PLACEMENT_3D('',#465,#383,#384);
#325=AXIS2_PLACEMENT_3D('',#467,#385,#386);
#326=AXIS2_PLACEMENT_3D('',#469,#387,#388);
#327=AXIS2_PLACEMENT_3D('',#470,#389,#390);
#328=AXIS2_PLACEMENT_3D('',#472,#391,#392);
#329=AXIS2_PLACEMENT_3D('',#473,#393,#394);
#330=AXIS2_PLACEMENT_3D('',#475,#395,#396);
#331=AXIS2_PLACEMENT_3D('',#476,#397,#398);
#332=AXIS2_PLACEMENT_3D('',#506,#400,#401);
#333=AXIS2_PLACEMENT_3D('',#515,#402,#403);
#334=AXIS2_PLACEMENT_3D('',#517,#405,#406);
#335=AXIS2_PLACEMENT_3D('',#519,#408,#409);
#336=AXIS2_PLACEMENT_3D('',#520,#410,#411);
#337=AXIS2_PLACEMENT_3D('',#521,#412,#413);
#338=AXIS2_PLACEMENT_3D('',#522,#414,#415);
#339=AXIS2_PLACEMENT_3D('',#523,#416,#417);
#340=AXIS2_PLACEMENT_3D('',#526,#418,#419);
#341=AXIS2_PLACEMENT_3D('',#527,#420,#421);
#342=AXIS2_PLACEMENT_3D('',#529,#422,#423);
#343=AXIS2_PLACEMENT_3D('',#530,#424,#425);
#344=DIRECTION('',(0.,0.,1.));
#345=DIRECTION('',(1.,0.,0.));
#346=DIRECTION('',(0.,0.,-1.));
#347=DIRECTION('',(-1.,0.,0.));
#348=DIRECTION('',(0.707106781186547,0.707106781186548,0.));
#349=DIRECTION('',(0.,0.,1.));
#350=DIRECTION('',(1.,0.,0.));
#351=DIRECTION('',(0.,0.,1.));
#352=DIRECTION('',(1.,0.,0.));
#353=DIRECTION('',(0.504344229281274,-0.504344229281273,0.70090926429985));
#354=DIRECTION('',(-0.495617693782898,0.495617693782898,0.713250449154183));
#355=DIRECTION('',(0.,0.,-1.));
#356=DIRECTION('',(0.504344229281273,-0.504344229281272,-0.700909264299851));
#357=DIRECTION('',(0.495617693782899,-0.495617693782899,0.713250449154181));
#358=DIRECTION('',(0.,0.,1.));
#359=DIRECTION('',(0.,0.,1.));
#360=DIRECTION('',(1.,0.,0.));
#361=DIRECTION('',(0.,0.,1.));
#362=DIRECTION('',(0.,0.,-1.));
#363=DIRECTION('',(1.,0.,0.));
#364=DIRECTION('',(0.,0.,-1.));
#365=DIRECTION('',(-0.504344229281273,0.504344229281273,-0.70090926429985));
#366=DIRECTION('',(-0.495617693782899,0.495617693782898,0.713250449154182));
#367=DIRECTION('',(0.,0.,1.));
#368=DIRECTION('',(1.,0.,0.));
#369=DIRECTION('',(0.,0.,1.));
#370=DIRECTION('',(1.,0.,0.));
#371=DIRECTION('',(0.,0.,1.));
#372=DIRECTION('',(1.,0.,0.));
#373=DIRECTION('',(0.,0.,1.));
#374=DIRECTION('',(1.,0.,0.));
#375=DIRECTION('',(0.,0.,1.));
#376=DIRECTION('',(-1.,0.,0.));
#377=DIRECTION('',(0.,0.,-1.));
#378=DIRECTION('',(-1.,0.,5.02844729784319E-17));
#379=DIRECTION('',(0.,0.,-1.));
#380=DIRECTION('',(-1.,0.,0.));
#381=DIRECTION('',(0.,0.,-1.));
#382=DIRECTION('',(-1.,0.,0.));
#383=DIRECTION('',(0.,0.,-1.));
#384=DIRECTION('',(1.,0.,0.));
#385=DIRECTION('',(0.,0.,1.));
#386=DIRECTION('',(1.,0.,0.));
#387=DIRECTION('',(0.,0.,1.));
#388=DIRECTION('',(1.,0.,0.));
#389=DIRECTION('',(0.,0.,1.));
#390=DIRECTION('',(1.,0.,0.));
#391=DIRECTION('',(0.,0.,1.));
#392=DIRECTION('',(1.,0.,0.));
#393=DIRECTION('',(0.,0.,1.));
#394=DIRECTION('',(1.,0.,0.));
#395=DIRECTION('',(0.,0.,1.));
#396=DIRECTION('',(1.,0.,0.));
#397=DIRECTION('',(0.,0.,1.));
#398=DIRECTION('',(1.,0.,0.));
#399=DIRECTION('',(-0.707106781186547,-0.707106781186548,0.));
#400=DIRECTION('',(0.504344229281273,-0.504344229281273,0.70090926429985));
#401=DIRECTION('',(0.495617693782899,-0.495617693782898,-0.713250449154182));
#402=DIRECTION('',(0.707106781186548,-0.707106781186547,0.));
#403=DIRECTION('',(0.,0.,-1.));
#404=DIRECTION('',(-0.707106781186547,-0.707106781186548,0.));
#405=DIRECTION('',(-0.504344229281274,0.504344229281273,-0.70090926429985));
#406=DIRECTION('',(-0.495617693782898,0.495617693782898,0.713250449154183));
#407=DIRECTION('',(-0.707106781186547,-0.707106781186548,0.));
#408=DIRECTION('',(-0.707106781186548,0.707106781186547,0.));
#409=DIRECTION('',(0.,0.,1.));
#410=DIRECTION('',(-0.504344229281273,0.504344229281272,0.700909264299851));
#411=DIRECTION('',(0.495617693782899,-0.495617693782899,0.713250449154181));
#412=DIRECTION('',(0.,0.,1.));
#413=DIRECTION('',(1.,0.,0.));
#414=DIRECTION('',(0.,0.,-1.));
#415=DIRECTION('',(-1.,0.,-2.74345909020747E-17));
#416=DIRECTION('',(0.,0.,1.));
#417=DIRECTION('',(-1.,0.,0.));
#418=DIRECTION('',(0.,0.,1.));
#419=DIRECTION('',(1.,0.,1.59969814685251E-17));
#420=DIRECTION('',(0.,0.,1.));
#421=DIRECTION('',(-1.,0.,0.));
#422=DIRECTION('',(0.,0.,-1.));
#423=DIRECTION('',(-1.,0.,0.));
#424=DIRECTION('',(0.,0.,1.));
#425=DIRECTION('',(1.,0.,-8.35285622765227E-17));
#426=DIRECTION('',(0.,0.,-1.));
#427=CARTESIAN_POINT('',(0.,0.,0.));
#428=CARTESIAN_POINT('',(0.,0.,57.85));
#429=CARTESIAN_POINT('',(-4.1545,0.,57.85));
#430=CARTESIAN_POINT('',(-2.87792459942923,-18.3352788361672,57.85));
#431=CARTESIAN_POINT('',(4.77697422004065,-10.6803800166973,57.85));
#432=CARTESIAN_POINT('',(10.6803800166973,-4.77697422004064,57.85));
#433=CARTESIAN_POINT('',(0.,0.,57.85));
#434=CARTESIAN_POINT('',(0.,0.,57.85));
#435=CARTESIAN_POINT('',(0.,0.,33.4324488051854));
#436=CARTESIAN_POINT('',(3.15565295486404,-12.3017012818739,22.31));
#437=CARTESIAN_POINT('',(12.3017012818739,-3.15565295486403,22.31));
#438=CARTESIAN_POINT('',(3.15565295486404,-12.3017012818739,-120.65));
#439=CARTESIAN_POINT('',(3.15565295486405,-12.3017012818739,35.39));
#440=CARTESIAN_POINT('',(0.,0.,24.2675511948147));
#441=CARTESIAN_POINT('',(12.3017012818739,-3.15565295486403,35.39));
#442=CARTESIAN_POINT('',(12.3017012818739,-3.15565295486403,-120.65));
#443=CARTESIAN_POINT('',(0.,0.,0.));
#444=CARTESIAN_POINT('',(12.7,0.,0.));
#445=CARTESIAN_POINT('',(3.15565295486404,-12.3017012818739,-120.65));
#446=CARTESIAN_POINT('',(3.15565295486404,-12.3017012818739,45.15));
#447=CARTESIAN_POINT('',(3.15565295486404,-12.3017012818739,56.85));
#448=CARTESIAN_POINT('',(0.,0.,56.85));
#449=CARTESIAN_POINT('',(12.3017012818739,-3.15565295486403,56.85));
#450=CARTESIAN_POINT('',(12.3017012818739,-3.15565295486403,-120.65));
#451=CARTESIAN_POINT('',(12.3017012818739,-3.15565295486403,45.15));
#452=CARTESIAN_POINT('',(0.,0.,56.2724488051853));
#453=CARTESIAN_POINT('',(0.,0.,-120.65));
#454=CARTESIAN_POINT('',(0.,0.,-118.999644492615));
#455=CARTESIAN_POINT('',(3.54581723893495,0.,-118.999644492615));
#456=CARTESIAN_POINT('',(0.,0.,-116.168085012303));
#457=CARTESIAN_POINT('',(9.10306562195861,0.,-116.168085012303));
#458=CARTESIAN_POINT('',(0.,0.,-116.168085012303));
#459=CARTESIAN_POINT('',(0.,0.,-117.455572809));
#460=CARTESIAN_POINT('',(-1.42058488969531,0.,-117.455572809));
#461=CARTESIAN_POINT('',(0.,0.,-118.999644492615));
#462=CARTESIAN_POINT('',(0.,0.,-117.15));
#463=CARTESIAN_POINT('',(-0.480128486027358,0.,-117.15));
#464=CARTESIAN_POINT('',(1.,0.,-117.15));
#465=CARTESIAN_POINT('',(0.,0.,-4.82804308182932));
#466=CARTESIAN_POINT('',(9.,0.,-4.82804308182932));
#467=CARTESIAN_POINT('',(0.,0.,-114.158117836027));
#468=CARTESIAN_POINT('',(9.,0.,-114.158117836027));
#469=CARTESIAN_POINT('',(0.,0.,0.));
#470=CARTESIAN_POINT('',(0.,0.,-114.663101424165));
#471=CARTESIAN_POINT('',(9.05153281097929,0.,-114.663101424165));
#472=CARTESIAN_POINT('',(0.,0.,-114.158117836027));
#473=CARTESIAN_POINT('',(0.,0.,-115.168085012303));
#474=CARTESIAN_POINT('',(9.1030656219586,0.,-115.168085012303));
#475=CARTESIAN_POINT('',(0.,0.,-115.168085012303));
#476=CARTESIAN_POINT('',(0.,0.,0.));
#477=CARTESIAN_POINT('',(-0.480128486027358,0.,-117.15));
#478=CARTESIAN_POINT('',(-0.480128486027358,0.960256972054715,-117.15));
#479=CARTESIAN_POINT('',(0.480128486027358,0.960256972054715,-117.15));
#480=CARTESIAN_POINT('',(0.480128486027358,0.,-117.15));
#481=CARTESIAN_POINT('',(0.480128486027358,-0.960256972054715,-117.15));
#482=CARTESIAN_POINT('',(-0.480128486027358,-0.960256972054715,-117.15));
#483=CARTESIAN_POINT('',(-0.480128486027358,0.,-117.15));
#484=CARTESIAN_POINT('',(-0.820864484555032,0.,-117.15));
#485=CARTESIAN_POINT('',(-0.820864484555032,1.64172896911006,-117.15));
#486=CARTESIAN_POINT('',(0.820864484555032,1.64172896911006,-117.15));
#487=CARTESIAN_POINT('',(0.820864484555032,0.,-117.15));
#488=CARTESIAN_POINT('',(0.820864484555032,-1.64172896911006,-117.15));
#489=CARTESIAN_POINT('',(-0.820864484555032,-1.64172896911006,-117.15));
#490=CARTESIAN_POINT('',(-0.820864484555032,0.,-117.15));
#491=CARTESIAN_POINT('',(-1.14492367629111,0.,-117.25529321414));
#492=CARTESIAN_POINT('',(-1.14492367629111,2.28984735258223,-117.25529321414));
#493=CARTESIAN_POINT('',(1.14492367629111,2.28984735258223,-117.25529321414));
#494=CARTESIAN_POINT('',(1.14492367629111,0.,-117.25529321414));
#495=CARTESIAN_POINT('',(1.14492367629111,-2.28984735258223,-117.25529321414));
#496=CARTESIAN_POINT('',(-1.14492367629111,-2.28984735258223,-117.25529321414));
#497=CARTESIAN_POINT('',(-1.14492367629111,0.,-117.25529321414));
#498=CARTESIAN_POINT('',(-1.42058488969532,0.,-117.455572809));
#499=CARTESIAN_POINT('',(-1.42058488969532,2.84116977939064,-117.455572809));
#500=CARTESIAN_POINT('',(1.42058488969532,2.84116977939064,-117.455572809));
#501=CARTESIAN_POINT('',(1.42058488969532,0.,-117.455572809));
#502=CARTESIAN_POINT('',(1.42058488969532,-2.84116977939064,-117.455572809));
#503=CARTESIAN_POINT('',(-1.42058488969532,-2.84116977939064,-117.455572809));
#504=CARTESIAN_POINT('',(-1.42058488969532,0.,-117.455572809));
#505=CARTESIAN_POINT('',(-2.87792459942923,-18.3352788361672,45.15));
#506=CARTESIAN_POINT('',(-2.87792459942923,-18.3352788361672,45.15));
#507=CARTESIAN_POINT('',(4.77697422004065,-10.6803800166973,57.85));
#508=CARTESIAN_POINT('',(4.2216569867074,-11.2356972500305,57.569806583398));
#509=CARTESIAN_POINT('',(3.6810554335383,-11.7762988031996,57.2283745244949));
#510=CARTESIAN_POINT('',(3.15565295486404,-12.3017012818739,56.85));
#511=CARTESIAN_POINT('',(12.3017012818739,-3.15565295486403,56.85));
#512=CARTESIAN_POINT('',(11.7762988031996,-3.68105543353829,57.2283745244949));
#513=CARTESIAN_POINT('',(11.2356972500305,-4.22165698670739,57.569806583398));
#514=CARTESIAN_POINT('',(10.6803800166973,-4.77697422004064,57.85));
#515=CARTESIAN_POINT('',(-2.87792459942923,-18.3352788361672,57.85));
#516=CARTESIAN_POINT('',(-2.87792459942924,-18.3352788361672,22.31));
#517=CARTESIAN_POINT('',(-1.62634559672905,-19.5868578388674,20.5088349144393));
#518=CARTESIAN_POINT('',(-2.87792459942924,-18.3352788361672,35.39));
#519=CARTESIAN_POINT('',(-2.87792459942924,-18.3352788361672,22.31));
#520=CARTESIAN_POINT('',(-2.87792459942924,-18.3352788361672,35.39));
#521=CARTESIAN_POINT('',(0.,0.,-4.82804308182932));
#522=CARTESIAN_POINT('',(0.,0.,57.85));
#523=CARTESIAN_POINT('',(0.,0.,-89.15));
#524=CARTESIAN_POINT('',(-3.,0.,-89.15));
#525=CARTESIAN_POINT('',(0.,0.,-90.8820508075688));
#526=CARTESIAN_POINT('',(0.,0.,-89.15));
#527=CARTESIAN_POINT('',(0.,0.,55.8503473426617));
#528=CARTESIAN_POINT('',(-3.,0.,55.8503473426617));
#529=CARTESIAN_POINT('',(0.,0.,-89.15));
#530=CARTESIAN_POINT('',(0.,0.,57.85));
#531=CARTESIAN_POINT('',(9.5,-6.7762635780344E-17,-115.65));
#532=CARTESIAN_POINT('',(9.5,-6.7762635780344E-17,-115.65));
#533=CARTESIAN_POINT('',(9.5,-6.7762635780344E-17,-105.65));
#534=CARTESIAN_POINT('',(-0.498476951563909,0.174524064372836,-105.65));
#535=CARTESIAN_POINT('',(-0.49847695156391,0.174524064372836,-115.65));
#536=CARTESIAN_POINT('',(-0.498476951563912,0.174524064372836,-125.65));
#537=CARTESIAN_POINT('',(9.5,-6.7762635780344E-17,-125.65));
#538=CARTESIAN_POINT('',(9.5,-6.7762635780344E-17,-115.65));
#539=CARTESIAN_POINT('',(0.,0.,0.));
#540=MECHANICAL_DESIGN_GEOMETRIC_PRESENTATION_REPRESENTATION('',(#36,#37),
#541);
#541=(
GEOMETRIC_REPRESENTATION_CONTEXT(3)
GLOBAL_UNCERTAINTY_ASSIGNED_CONTEXT((#542))
GLOBAL_UNIT_ASSIGNED_CONTEXT((#548,#544,#543))
REPRESENTATION_CONTEXT('075E2R475W100-ISRD10-CF_202366623ndi000_01-SIM',
'TOP_LEVEL_ASSEMBLY_PART')
);
#542=UNCERTAINTY_MEASURE_WITH_UNIT(LENGTH_MEASURE(0.0508),#548,
'DISTANCE_ACCURACY_VALUE','Maximum Tolerance applied to model');
#543=(
NAMED_UNIT(*)
SI_UNIT($,.STERADIAN.)
SOLID_ANGLE_UNIT()
);
#544=(
CONVERSION_BASED_UNIT('DEGREE',#546)
NAMED_UNIT(#545)
PLANE_ANGLE_UNIT()
);
#545=DIMENSIONAL_EXPONENTS(0.,0.,0.,0.,0.,0.,0.);
#546=PLANE_ANGLE_MEASURE_WITH_UNIT(PLANE_ANGLE_MEASURE(0.0174532925),#547);
#547=(
NAMED_UNIT(*)
PLANE_ANGLE_UNIT()
SI_UNIT($,.RADIAN.)
);
#548=(
LENGTH_UNIT()
NAMED_UNIT(*)
SI_UNIT(.MILLI.,.METRE.)
);
ENDSEC;
END-ISO-10303-21;
