ISO-10303-21;
HEADER;
/* Generated by software containing ST-Developer
 * from STEP Tools, Inc. (www.steptools.com) 
 */
/* OPTION: using custom schema-name function */

FILE_DESCRIPTION(
/* description */ (''),
/* implementation_level */ '2;1');

FILE_NAME(
/* name */ 'CAD_7156462_MOD_003_003_FR.stp',
/* time_stamp */ '2016-04-27T14:29:18+02:00',
/* author */ ('VR - Julian Pauli'),
/* organization */ ('Walter AG'),
/* preprocessor_version */ 'ST-DEVELOPER v11',
/* originating_system */ 'SIEMENS UGS NX 6.0',
/* authorisation */ '');

FILE_SCHEMA (('AUTOMOTIVE_DESIGN { 1 0 10303 214 1 1 1 1 }'));
ENDSEC;

DATA;
#10=SHAPE_DEFINITION_REPRESENTATION(#11,#20);
#11=PRODUCT_DEFINITION_SHAPE('','',#12);
#12=PRODUCT_DEFINITION(' ','',#14,#13);
#13=PRODUCT_DEFINITION_CONTEXT('part definition',#19,'design');
#14=PRODUCT_DEFINITION_FORMATION_WITH_SPECIFIED_SOURCE(' ',' ',#16,.NOT_KNOWN.);
#15=PRODUCT_RELATED_PRODUCT_CATEGORY('part','',(#16));
#16=PRODUCT('042901_simple','042901_simple',' ',(#17));
#17=PRODUCT_CONTEXT(' ',#19,'mechanical');
#18=APPLICATION_PROTOCOL_DEFINITION('international standard',
'automotive_design',2001,#19);
#19=APPLICATION_CONTEXT(
'core data for automotive mechanical design processes');
#20=SHAPE_REPRESENTATION('042901_simple-None',(#181,#34,#35,#21),#289);
#21=GEOMETRIC_CURVE_SET('None',(#170,#171,#172,#173,#174));
#22=SURFACE_STYLE_USAGE(.BOTH.,#24);
#23=SURFACE_STYLE_USAGE(.BOTH.,#25);
#24=SURFACE_SIDE_STYLE('',(#26));
#25=SURFACE_SIDE_STYLE('',(#27));
#26=SURFACE_STYLE_FILL_AREA(#28);
#27=SURFACE_STYLE_FILL_AREA(#29);
#28=FILL_AREA_STYLE('',(#30));
#29=FILL_AREA_STYLE('',(#31));
#30=FILL_AREA_STYLE_COLOUR('',#32);
#31=FILL_AREA_STYLE_COLOUR('',#33);
#32=COLOUR_RGB('Dark Gray',0.4,0.4,0.4);
#33=COLOUR_RGB('Pale Gray',0.8,0.8,0.8);
#34=MANIFOLD_SOLID_BREP('',#36);
#35=MANIFOLD_SOLID_BREP('',#37);
#36=CLOSED_SHELL('',(#50,#51,#52,#53,#54,#55,#56));
#37=CLOSED_SHELL('',(#57,#58,#59,#60));
#38=TOROIDAL_SURFACE('',#195,6.775,2.);
#39=PLANE('',#190);
#40=PLANE('',#196);
#41=PLANE('',#198);
#42=PLANE('',#200);
#43=FACE_OUTER_BOUND('',#82,.T.);
#44=FACE_OUTER_BOUND('',#89,.T.);
#45=FACE_OUTER_BOUND('',#90,.T.);
#46=FACE_OUTER_BOUND('',#91,.T.);
#47=CYLINDRICAL_SURFACE('',#188,4.775);
#48=CYLINDRICAL_SURFACE('',#194,5.);
#49=CYLINDRICAL_SURFACE('',#203,4.75);
#50=ADVANCED_FACE('',(#64,#65),#61,.T.);
#51=ADVANCED_FACE('',(#66,#67),#47,.T.);
#52=ADVANCED_FACE('',(#43),#39,.T.);
#53=ADVANCED_FACE('',(#68,#69),#62,.T.);
#54=ADVANCED_FACE('',(#70,#71),#48,.T.);
#55=ADVANCED_FACE('',(#72,#73),#38,.F.);
#56=ADVANCED_FACE('',(#44),#40,.T.);
#57=ADVANCED_FACE('',(#45),#41,.F.);
#58=ADVANCED_FACE('',(#46),#42,.F.);
#59=ADVANCED_FACE('',(#74,#75),#63,.T.);
#60=ADVANCED_FACE('',(#76,#77),#49,.T.);
#61=CONICAL_SURFACE('',#186,4.75,89.);
#62=CONICAL_SURFACE('',#192,5.,45.);
#63=CONICAL_SURFACE('',#202,4.65000000000002,45.0000000000002);
#64=FACE_BOUND('',#78,.T.);
#65=FACE_BOUND('',#79,.T.);
#66=FACE_BOUND('',#80,.T.);
#67=FACE_BOUND('',#81,.T.);
#68=FACE_BOUND('',#83,.T.);
#69=FACE_BOUND('',#84,.T.);
#70=FACE_BOUND('',#85,.T.);
#71=FACE_BOUND('',#86,.T.);
#72=FACE_BOUND('',#87,.T.);
#73=FACE_BOUND('',#88,.T.);
#74=FACE_BOUND('',#92,.T.);
#75=FACE_BOUND('',#93,.T.);
#76=FACE_BOUND('',#94,.T.);
#77=FACE_BOUND('',#95,.T.);
#78=EDGE_LOOP('',(#96));
#79=EDGE_LOOP('',(#97));
#80=EDGE_LOOP('',(#98));
#81=EDGE_LOOP('',(#99));
#82=EDGE_LOOP('',(#100));
#83=EDGE_LOOP('',(#101));
#84=EDGE_LOOP('',(#102));
#85=EDGE_LOOP('',(#103));
#86=EDGE_LOOP('',(#104));
#87=EDGE_LOOP('',(#105));
#88=EDGE_LOOP('',(#106));
#89=EDGE_LOOP('',(#107));
#90=EDGE_LOOP('',(#108));
#91=EDGE_LOOP('',(#109));
#92=EDGE_LOOP('',(#110));
#93=EDGE_LOOP('',(#111));
#94=EDGE_LOOP('',(#112));
#95=EDGE_LOOP('',(#113));
#96=ORIENTED_EDGE('',*,*,#123,.T.);
#97=ORIENTED_EDGE('',*,*,#124,.F.);
#98=ORIENTED_EDGE('',*,*,#125,.T.);
#99=ORIENTED_EDGE('',*,*,#123,.F.);
#100=ORIENTED_EDGE('',*,*,#126,.T.);
#101=ORIENTED_EDGE('',*,*,#126,.F.);
#102=ORIENTED_EDGE('',*,*,#127,.T.);
#103=ORIENTED_EDGE('',*,*,#128,.T.);
#104=ORIENTED_EDGE('',*,*,#127,.F.);
#105=ORIENTED_EDGE('',*,*,#125,.F.);
#106=ORIENTED_EDGE('',*,*,#128,.F.);
#107=ORIENTED_EDGE('',*,*,#124,.T.);
#108=ORIENTED_EDGE('',*,*,#129,.T.);
#109=ORIENTED_EDGE('',*,*,#130,.F.);
#110=ORIENTED_EDGE('',*,*,#131,.F.);
#111=ORIENTED_EDGE('',*,*,#130,.T.);
#112=ORIENTED_EDGE('',*,*,#129,.F.);
#113=ORIENTED_EDGE('',*,*,#131,.T.);
#114=VERTEX_POINT('',#260);
#115=VERTEX_POINT('',#262);
#116=VERTEX_POINT('',#265);
#117=VERTEX_POINT('',#268);
#118=VERTEX_POINT('',#271);
#119=VERTEX_POINT('',#274);
#120=VERTEX_POINT('',#279);
#121=VERTEX_POINT('',#282);
#122=VERTEX_POINT('',#285);
#123=EDGE_CURVE('',#114,#114,#135,.T.);
#124=EDGE_CURVE('',#115,#115,#136,.T.);
#125=EDGE_CURVE('',#116,#116,#137,.T.);
#126=EDGE_CURVE('',#117,#117,#138,.T.);
#127=EDGE_CURVE('',#118,#118,#139,.T.);
#128=EDGE_CURVE('',#119,#119,#140,.T.);
#129=EDGE_CURVE('',#120,#120,#141,.T.);
#130=EDGE_CURVE('',#121,#121,#142,.T.);
#131=EDGE_CURVE('',#122,#122,#143,.T.);
#132=INVISIBILITY((#148,#149));
#133=CIRCLE('',#182,2.);
#134=CIRCLE('',#183,2.);
#135=CIRCLE('',#184,4.775);
#136=CIRCLE('',#185,4.7500000000004);
#137=CIRCLE('',#187,4.775);
#138=CIRCLE('',#189,4.4);
#139=CIRCLE('',#191,5.);
#140=CIRCLE('',#193,5.);
#141=CIRCLE('',#197,4.75);
#142=CIRCLE('',#199,4.65000000000002);
#143=CIRCLE('',#201,4.75);
#144=PRESENTATION_LAYER_ASSIGNMENT('1','Layer 1',(#170,#171,#172,#173,#174,
#34,#35));
#145=STYLED_ITEM('',(#152),#170);
#146=STYLED_ITEM('',(#153),#171);
#147=STYLED_ITEM('',(#154),#172);
#148=STYLED_ITEM('',(#155),#173);
#149=STYLED_ITEM('',(#156),#174);
#150=STYLED_ITEM('',(#157),#34);
#151=STYLED_ITEM('',(#158),#35);
#152=PRESENTATION_STYLE_ASSIGNMENT((#159));
#153=PRESENTATION_STYLE_ASSIGNMENT((#160));
#154=PRESENTATION_STYLE_ASSIGNMENT((#161));
#155=PRESENTATION_STYLE_ASSIGNMENT((#162));
#156=PRESENTATION_STYLE_ASSIGNMENT((#163));
#157=PRESENTATION_STYLE_ASSIGNMENT((#22));
#158=PRESENTATION_STYLE_ASSIGNMENT((#23));
#159=CURVE_STYLE('',#165,POSITIVE_LENGTH_MEASURE(0.352777777777778),#164);
#160=CURVE_STYLE('',#166,POSITIVE_LENGTH_MEASURE(0.352777777777778),#164);
#161=CURVE_STYLE('',#167,POSITIVE_LENGTH_MEASURE(0.352777777777778),#164);
#162=CURVE_STYLE('',#168,POSITIVE_LENGTH_MEASURE(0.352777777777778),#164);
#163=CURVE_STYLE('',#169,POSITIVE_LENGTH_MEASURE(0.352777777777778),#164);
#164=DRAUGHTING_PRE_DEFINED_COLOUR('blue');
#165=DRAUGHTING_PRE_DEFINED_CURVE_FONT('continuous');
#166=DRAUGHTING_PRE_DEFINED_CURVE_FONT('continuous');
#167=DRAUGHTING_PRE_DEFINED_CURVE_FONT('continuous');
#168=DRAUGHTING_PRE_DEFINED_CURVE_FONT('dashed');
#169=DRAUGHTING_PRE_DEFINED_CURVE_FONT('dashed');
#170=TRIMMED_CURVE('',#175,(PARAMETER_VALUE(0.)),(PARAMETER_VALUE(1.)),.T.,
 .PARAMETER.);
#171=TRIMMED_CURVE('',#176,(PARAMETER_VALUE(0.)),(PARAMETER_VALUE(1.)),.T.,
 .PARAMETER.);
#172=TRIMMED_CURVE('',#177,(PARAMETER_VALUE(0.)),(PARAMETER_VALUE(1.)),.T.,
 .PARAMETER.);
#173=TRIMMED_CURVE('',#133,(PARAMETER_VALUE(270.)),(PARAMETER_VALUE(360.)),
 .T.,.PARAMETER.);
#174=TRIMMED_CURVE('',#134,(PARAMETER_VALUE(180.)),(PARAMETER_VALUE(270.)),
 .T.,.PARAMETER.);
#175=LINE('',#254,#178);
#176=LINE('',#255,#179);
#177=LINE('',#256,#180);
#178=VECTOR('',#206,0.141421356237279);
#179=VECTOR('',#207,4.65000000000002);
#180=VECTOR('',#208,26.899);
#181=AXIS2_PLACEMENT_3D('',#253,#204,#205);
#182=AXIS2_PLACEMENT_3D('',#257,#209,#210);
#183=AXIS2_PLACEMENT_3D('',#258,#211,#212);
#184=AXIS2_PLACEMENT_3D('',#259,#213,#214);
#185=AXIS2_PLACEMENT_3D('',#261,#215,#216);
#186=AXIS2_PLACEMENT_3D('',#263,#217,#218);
#187=AXIS2_PLACEMENT_3D('',#264,#219,#220);
#188=AXIS2_PLACEMENT_3D('',#266,#221,#222);
#189=AXIS2_PLACEMENT_3D('',#267,#223,#224);
#190=AXIS2_PLACEMENT_3D('',#269,#225,#226);
#191=AXIS2_PLACEMENT_3D('',#270,#227,#228);
#192=AXIS2_PLACEMENT_3D('',#272,#229,#230);
#193=AXIS2_PLACEMENT_3D('',#273,#231,#232);
#194=AXIS2_PLACEMENT_3D('',#275,#233,#234);
#195=AXIS2_PLACEMENT_3D('',#276,#235,#236);
#196=AXIS2_PLACEMENT_3D('',#277,#237,#238);
#197=AXIS2_PLACEMENT_3D('',#278,#239,#240);
#198=AXIS2_PLACEMENT_3D('',#280,#241,#242);
#199=AXIS2_PLACEMENT_3D('',#281,#243,#244);
#200=AXIS2_PLACEMENT_3D('',#283,#245,#246);
#201=AXIS2_PLACEMENT_3D('',#284,#247,#248);
#202=AXIS2_PLACEMENT_3D('',#286,#249,#250);
#203=AXIS2_PLACEMENT_3D('',#287,#251,#252);
#204=DIRECTION('',(0.,0.,1.));
#205=DIRECTION('',(1.,0.,0.));
#206=DIRECTION('',(0.707106781186535,0.,0.70710678118656));
#207=DIRECTION('',(-1.,4.77515279408666E-017,0.));
#208=DIRECTION('',(0.,0.,1.));
#209=DIRECTION('',(-0.80892399436937,0.58791323452828,0.));
#210=DIRECTION('',(-0.58791323452828,-0.80892399436937,0.));
#211=DIRECTION('',(-0.80892399436937,0.58791323452828,0.));
#212=DIRECTION('',(-0.58791323452828,-0.80892399436937,0.));
#213=DIRECTION('',(0.,0.,-1.));
#214=DIRECTION('',(-0.340618105606029,0.940201736933814,0.));
#215=DIRECTION('',(0.,0.,-1.));
#216=DIRECTION('',(0.340618105606029,-0.940201736933814,0.));
#217=DIRECTION('',(0.,0.,1.));
#218=DIRECTION('',(-0.340618105606029,0.940201736933814,-6.05544011515892E-019));
#219=DIRECTION('',(0.,0.,-1.));
#220=DIRECTION('',(-0.340618105606029,0.940201736933814,0.));
#221=DIRECTION('',(0.,0.,1.));
#222=DIRECTION('',(-0.340618105606029,0.940201736933814,0.));
#223=DIRECTION('',(0.,0.,1.));
#224=DIRECTION('',(-0.340618105606029,0.940201736933814,0.));
#225=DIRECTION('',(0.,0.,1.));
#226=DIRECTION('',(-0.340618105606029,0.940201736933814,0.));
#227=DIRECTION('',(0.,0.,1.));
#228=DIRECTION('',(-0.340618105606029,0.940201736933814,0.));
#229=DIRECTION('',(0.,0.,-1.));
#230=DIRECTION('',(0.340618105606029,-0.940201736933814,6.59151768545914E-017));
#231=DIRECTION('',(0.,0.,1.));
#232=DIRECTION('',(-0.340618105606029,0.940201736933814,0.));
#233=DIRECTION('',(0.,0.,1.));
#234=DIRECTION('',(-0.340618105606029,0.940201736933814,0.));
#235=DIRECTION('',(0.,0.,1.));
#236=DIRECTION('',(-0.340618105606029,0.940201736933814,0.));
#237=DIRECTION('',(0.,0.,-1.));
#238=DIRECTION('',(0.340618105606029,-0.940201736933814,0.));
#239=DIRECTION('',(0.,0.,1.));
#240=DIRECTION('',(-0.340618105606029,0.940201736933814,0.));
#241=DIRECTION('',(0.,0.,-1.));
#242=DIRECTION('',(0.340618105606029,-0.940201736933814,0.));
#243=DIRECTION('',(0.,0.,1.));
#244=DIRECTION('',(-0.340618105606029,0.940201736933814,0.));
#245=DIRECTION('',(0.,0.,1.));
#246=DIRECTION('',(-0.340618105606029,0.940201736933814,0.));
#247=DIRECTION('',(0.,0.,1.));
#248=DIRECTION('',(-0.340618105606029,0.940201736933814,0.));
#249=DIRECTION('',(0.,0.,1.));
#250=DIRECTION('',(-0.340618105606029,0.940201736933814,4.14406643342886E-017));
#251=DIRECTION('',(0.,0.,1.));
#252=DIRECTION('',(-0.340618105606029,0.940201736933814,0.));
#253=CARTESIAN_POINT('',(0.,0.,0.));
#254=CARTESIAN_POINT('',(4.65000000000003,4.44089209850063E-016,-77.));
#255=CARTESIAN_POINT('',(4.65000000000002,-2.22044604925031E-016,-77.));
#256=CARTESIAN_POINT('',(4.75,2.22044604925031E-016,-76.9));
#257=CARTESIAN_POINT('',(-3.52747940716969,-4.85354396621623,-98.0000000000001));
#258=CARTESIAN_POINT('',(3.52747940716969,4.85354396621623,-98.0000000000001));
#259=CARTESIAN_POINT('',(0.,0.,-49.9995636233768));
#260=CARTESIAN_POINT('',(-1.62645145426879,4.48946329385896,-49.9995636233768));
#261=CARTESIAN_POINT('',(0.,0.,-50.));
#262=CARTESIAN_POINT('',(1.61793600162877,-4.46595825043599,-50.));
#263=CARTESIAN_POINT('',(0.,0.,-50.));
#264=CARTESIAN_POINT('',(0.,0.,-41.0319039978553));
#265=CARTESIAN_POINT('',(-1.62645145426879,4.48946329385896,-41.0319039978553));
#266=CARTESIAN_POINT('',(0.,0.,0.));
#267=CARTESIAN_POINT('',(0.,0.,4.70001641772443E-017));
#268=CARTESIAN_POINT('',(-1.49871966466653,4.13688764250878,4.70001641772443E-017));
#269=CARTESIAN_POINT('',(6.05059301516827E-016,-1.67013378581838E-015,8.03647919695936E-016));
#270=CARTESIAN_POINT('',(0.,0.,-0.6));
#271=CARTESIAN_POINT('',(-1.70309052803015,4.70100868466907,-0.6));
#272=CARTESIAN_POINT('',(0.,0.,-0.6));
#273=CARTESIAN_POINT('',(0.,0.,-40.110288568297));
#274=CARTESIAN_POINT('',(-1.70309052803015,4.70100868466907,-40.110288568297));
#275=CARTESIAN_POINT('',(0.,0.,0.));
#276=CARTESIAN_POINT('',(0.,0.,-41.0319039978553));
#277=CARTESIAN_POINT('',(0.,0.,-50.));
#278=CARTESIAN_POINT('',(0.,0.,-50.));
#279=CARTESIAN_POINT('',(-1.61793600162864,4.46595825043561,-50.));
#280=CARTESIAN_POINT('',(0.,0.,-50.));
#281=CARTESIAN_POINT('',(0.,0.,-77.));
#282=CARTESIAN_POINT('',(-1.58387419106804,4.37193807674226,-77.));
#283=CARTESIAN_POINT('',(-1.51264825379207E-015,4.17533446454594E-015,-77.));
#284=CARTESIAN_POINT('',(0.,0.,-76.9));
#285=CARTESIAN_POINT('',(-1.61793600162864,4.46595825043562,-76.9));
#286=CARTESIAN_POINT('',(0.,0.,-77.));
#287=CARTESIAN_POINT('',(0.,0.,0.));
#288=MECHANICAL_DESIGN_GEOMETRIC_PRESENTATION_REPRESENTATION('',(#145,#146,
#147,#148,#149,#150,#151),#289);
#289=(
GEOMETRIC_REPRESENTATION_CONTEXT(3)
GLOBAL_UNCERTAINTY_ASSIGNED_CONTEXT((#290))
GLOBAL_UNIT_ASSIGNED_CONTEXT((#296,#292,#291))
REPRESENTATION_CONTEXT('CAD_7156462_MOD_003_003_FR',
'TOP_LEVEL_ASSEMBLY_PART')
);
#290=UNCERTAINTY_MEASURE_WITH_UNIT(LENGTH_MEASURE(2.E-005),#296,
'DISTANCE_ACCURACY_VALUE','Maximum Tolerance applied to model');
#291=(
NAMED_UNIT(*)
SI_UNIT($,.STERADIAN.)
SOLID_ANGLE_UNIT()
);
#292=(
CONVERSION_BASED_UNIT('DEGREE',#294)
NAMED_UNIT(#293)
PLANE_ANGLE_UNIT()
);
#293=DIMENSIONAL_EXPONENTS(0.,0.,0.,0.,0.,0.,0.);
#294=PLANE_ANGLE_MEASURE_WITH_UNIT(PLANE_ANGLE_MEASURE(0.0174532925),#295);
#295=(
NAMED_UNIT(*)
PLANE_ANGLE_UNIT()
SI_UNIT($,.RADIAN.)
);
#296=(
LENGTH_UNIT()
NAMED_UNIT(*)
SI_UNIT(.MILLI.,.METRE.)
);
ENDSEC;
END-ISO-10303-21;
