ISO-10303-21;
HEADER;
/* Generated by software containing ST-Developer
 * from STEP Tools, Inc. (www.steptools.com) 
 */
/* OPTION: using custom schema-name function */

FILE_DESCRIPTION(
/* description */ (''),
/* implementation_level */ '2;1');

FILE_NAME(
/* name */ 'VDI.50-E1.40.stp',
/* time_stamp */ '2024-10-02T10:08:05+02:00',
/* author */ (''),
/* organization */ (''),
/* preprocessor_version */ 'ST-DEVELOPER v16.7',
/* originating_system */ 'SIEMENS PLM Software NX 12.0',
/* authorisation */ '');

FILE_SCHEMA (('AUTOMOTIVE_DESIGN { 1 0 10303 214 3 1 1 1 }'));
ENDSEC;

DATA;
#10=CONSTRUCTIVE_GEOMETRY_REPRESENTATION_RELATIONSHIP(
'supplemental geometry','',#32,#11);
#11=CONSTRUCTIVE_GEOMETRY_REPRESENTATION('supplemental geometry',(#246,
#247,#248),#412);
#12=PROPERTY_DEFINITION_REPRESENTATION(#16,#14);
#13=PROPERTY_DEFINITION_REPRESENTATION(#17,#15);
#14=REPRESENTATION('',(#18),#412);
#15=REPRESENTATION('',(#19),#412);
#16=PROPERTY_DEFINITION('pmi validation property','',#23);
#17=PROPERTY_DEFINITION('pmi validation property','',#23);
#18=VALUE_REPRESENTATION_ITEM('number of annotations',COUNT_MEASURE(0.));
#19=VALUE_REPRESENTATION_ITEM('number of views',COUNT_MEASURE(0.));
#20=SHAPE_REPRESENTATION_RELATIONSHIP('None',
'relationship between pf66111C9EA7pw2c-None and pf66111C9EA7pw2c-None',
#32,#21);
#21=ADVANCED_BREP_SHAPE_REPRESENTATION('pf66111C9EA7pw2c-None',(#38),#412);
#22=SHAPE_DEFINITION_REPRESENTATION(#23,#32);
#23=PRODUCT_DEFINITION_SHAPE('','',#24);
#24=PRODUCT_DEFINITION(' ','',#26,#25);
#25=PRODUCT_DEFINITION_CONTEXT('part definition',#31,'design');
#26=PRODUCT_DEFINITION_FORMATION_WITH_SPECIFIED_SOURCE(' ',' ',#28,
 .NOT_KNOWN.);
#27=PRODUCT_RELATED_PRODUCT_CATEGORY('part','',(#28));
#28=PRODUCT('pf66111C9EA7pw2c','pf66111C9EA7pw2c',' ',(#29));
#29=PRODUCT_CONTEXT(' ',#31,'mechanical');
#30=APPLICATION_PROTOCOL_DEFINITION('international standard',
'automotive_design',2010,#31);
#31=APPLICATION_CONTEXT(
'core data for automotive mechanical design processes');
#32=SHAPE_REPRESENTATION('pf66111C9EA7pw2c-None',(#245),#412);
#33=SURFACE_STYLE_USAGE(.BOTH.,#34);
#34=SURFACE_SIDE_STYLE('',(#35));
#35=SURFACE_STYLE_FILL_AREA(#36);
#36=FILL_AREA_STYLE('',(#37));
#37=FILL_AREA_STYLE_COLOUR('',#241);
#38=MANIFOLD_SOLID_BREP('\X\B6\X2\011800A800A4\X0\12',#39);
#39=CLOSED_SHELL('',(#51,#52,#53,#54,#55,#56,#57,#58,#59,#60,#61,#62));
#40=TOROIDAL_SURFACE('',#270,34.5,2.);
#41=TOROIDAL_SURFACE('',#276,34.5,2.);
#42=FACE_BOUND('',#83,.T.);
#43=FACE_BOUND('',#84,.T.);
#44=FACE_BOUND('',#88,.T.);
#45=FACE_BOUND('',#89,.T.);
#46=PLANE('',#253);
#47=PLANE('',#258);
#48=PLANE('',#264);
#49=PLANE('',#265);
#50=PLANE('',#274);
#51=ADVANCED_FACE('',(#68),#63,.T.);
#52=ADVANCED_FACE('',(#69),#46,.F.);
#53=ADVANCED_FACE('',(#70),#64,.T.);
#54=ADVANCED_FACE('',(#71),#47,.T.);
#55=ADVANCED_FACE('',(#72),#65,.T.);
#56=ADVANCED_FACE('',(#42,#43),#48,.F.);
#57=ADVANCED_FACE('',(#73),#49,.T.);
#58=ADVANCED_FACE('',(#74),#40,.F.);
#59=ADVANCED_FACE('',(#75),#66,.T.);
#60=ADVANCED_FACE('',(#44,#45),#50,.T.);
#61=ADVANCED_FACE('',(#76),#67,.T.);
#62=ADVANCED_FACE('',(#77),#41,.F.);
#63=CYLINDRICAL_SURFACE('',#251,25.);
#64=CYLINDRICAL_SURFACE('',#255,25.);
#65=CYLINDRICAL_SURFACE('',#263,49.);
#66=CYLINDRICAL_SURFACE('',#272,32.5);
#67=CYLINDRICAL_SURFACE('',#275,32.5);
#68=FACE_OUTER_BOUND('',#78,.T.);
#69=FACE_OUTER_BOUND('',#79,.T.);
#70=FACE_OUTER_BOUND('',#80,.T.);
#71=FACE_OUTER_BOUND('',#81,.T.);
#72=FACE_OUTER_BOUND('',#82,.T.);
#73=FACE_OUTER_BOUND('',#85,.T.);
#74=FACE_OUTER_BOUND('',#86,.T.);
#75=FACE_OUTER_BOUND('',#87,.T.);
#76=FACE_OUTER_BOUND('',#90,.T.);
#77=FACE_OUTER_BOUND('',#91,.T.);
#78=EDGE_LOOP('',(#108,#109,#110,#111));
#79=EDGE_LOOP('',(#112,#113));
#80=EDGE_LOOP('',(#114,#115,#116,#117));
#81=EDGE_LOOP('',(#118,#119));
#82=EDGE_LOOP('',(#120,#121,#122,#123,#124,#125,#126,#127,#128,#129));
#83=EDGE_LOOP('',(#130,#131,#132,#133));
#84=EDGE_LOOP('',(#134,#135));
#85=EDGE_LOOP('',(#136,#137,#138,#139));
#86=EDGE_LOOP('',(#140,#141,#142,#143));
#87=EDGE_LOOP('',(#144,#145,#146,#147));
#88=EDGE_LOOP('',(#148,#149));
#89=EDGE_LOOP('',(#150,#151));
#90=EDGE_LOOP('',(#152,#153,#154,#155));
#91=EDGE_LOOP('',(#156,#157,#158,#159));
#92=CIRCLE('',#249,25.);
#93=CIRCLE('',#250,25.);
#94=CIRCLE('',#252,25.);
#95=CIRCLE('',#254,25.);
#96=CIRCLE('',#256,32.5);
#97=CIRCLE('',#257,32.5);
#98=CIRCLE('',#259,49.);
#99=CIRCLE('',#260,49.);
#100=CIRCLE('',#261,49.);
#101=CIRCLE('',#262,49.);
#102=CIRCLE('',#266,32.5);
#103=CIRCLE('',#267,2.);
#104=CIRCLE('',#268,34.5);
#105=CIRCLE('',#269,2.);
#106=CIRCLE('',#271,32.5);
#107=CIRCLE('',#273,34.5);
#108=ORIENTED_EDGE('',*,*,#178,.F.);
#109=ORIENTED_EDGE('',*,*,#179,.T.);
#110=ORIENTED_EDGE('',*,*,#180,.T.);
#111=ORIENTED_EDGE('',*,*,#181,.F.);
#112=ORIENTED_EDGE('',*,*,#179,.F.);
#113=ORIENTED_EDGE('',*,*,#182,.F.);
#114=ORIENTED_EDGE('',*,*,#180,.F.);
#115=ORIENTED_EDGE('',*,*,#182,.T.);
#116=ORIENTED_EDGE('',*,*,#178,.T.);
#117=ORIENTED_EDGE('',*,*,#183,.F.);
#118=ORIENTED_EDGE('',*,*,#184,.T.);
#119=ORIENTED_EDGE('',*,*,#185,.T.);
#120=ORIENTED_EDGE('',*,*,#186,.F.);
#121=ORIENTED_EDGE('',*,*,#187,.T.);
#122=ORIENTED_EDGE('',*,*,#188,.F.);
#123=ORIENTED_EDGE('',*,*,#188,.T.);
#124=ORIENTED_EDGE('',*,*,#189,.T.);
#125=ORIENTED_EDGE('',*,*,#190,.F.);
#126=ORIENTED_EDGE('',*,*,#190,.T.);
#127=ORIENTED_EDGE('',*,*,#191,.T.);
#128=ORIENTED_EDGE('',*,*,#192,.F.);
#129=ORIENTED_EDGE('',*,*,#193,.T.);
#130=ORIENTED_EDGE('',*,*,#187,.F.);
#131=ORIENTED_EDGE('',*,*,#194,.F.);
#132=ORIENTED_EDGE('',*,*,#191,.F.);
#133=ORIENTED_EDGE('',*,*,#189,.F.);
#134=ORIENTED_EDGE('',*,*,#181,.T.);
#135=ORIENTED_EDGE('',*,*,#183,.T.);
#136=ORIENTED_EDGE('',*,*,#192,.T.);
#137=ORIENTED_EDGE('',*,*,#194,.T.);
#138=ORIENTED_EDGE('',*,*,#186,.T.);
#139=ORIENTED_EDGE('',*,*,#195,.T.);
#140=ORIENTED_EDGE('',*,*,#196,.F.);
#141=ORIENTED_EDGE('',*,*,#197,.F.);
#142=ORIENTED_EDGE('',*,*,#198,.F.);
#143=ORIENTED_EDGE('',*,*,#199,.F.);
#144=ORIENTED_EDGE('',*,*,#185,.F.);
#145=ORIENTED_EDGE('',*,*,#200,.F.);
#146=ORIENTED_EDGE('',*,*,#201,.T.);
#147=ORIENTED_EDGE('',*,*,#202,.T.);
#148=ORIENTED_EDGE('',*,*,#198,.T.);
#149=ORIENTED_EDGE('',*,*,#203,.T.);
#150=ORIENTED_EDGE('',*,*,#193,.F.);
#151=ORIENTED_EDGE('',*,*,#195,.F.);
#152=ORIENTED_EDGE('',*,*,#184,.F.);
#153=ORIENTED_EDGE('',*,*,#202,.F.);
#154=ORIENTED_EDGE('',*,*,#196,.T.);
#155=ORIENTED_EDGE('',*,*,#200,.T.);
#156=ORIENTED_EDGE('',*,*,#197,.T.);
#157=ORIENTED_EDGE('',*,*,#201,.F.);
#158=ORIENTED_EDGE('',*,*,#199,.T.);
#159=ORIENTED_EDGE('',*,*,#203,.F.);
#160=VERTEX_POINT('',#356);
#161=VERTEX_POINT('',#357);
#162=VERTEX_POINT('',#359);
#163=VERTEX_POINT('',#361);
#164=VERTEX_POINT('',#369);
#165=VERTEX_POINT('',#370);
#166=VERTEX_POINT('',#374);
#167=VERTEX_POINT('',#375);
#168=VERTEX_POINT('',#377);
#169=VERTEX_POINT('',#379);
#170=VERTEX_POINT('',#381);
#171=VERTEX_POINT('',#383);
#172=VERTEX_POINT('',#385);
#173=VERTEX_POINT('',#387);
#174=VERTEX_POINT('',#395);
#175=VERTEX_POINT('',#396);
#176=VERTEX_POINT('',#398);
#177=VERTEX_POINT('',#400);
#178=EDGE_CURVE('',#160,#161,#204,.T.);
#179=EDGE_CURVE('',#160,#162,#92,.T.);
#180=EDGE_CURVE('',#162,#163,#205,.T.);
#181=EDGE_CURVE('',#161,#163,#93,.T.);
#182=EDGE_CURVE('',#162,#160,#94,.T.);
#183=EDGE_CURVE('',#163,#161,#95,.T.);
#184=EDGE_CURVE('',#164,#165,#96,.T.);
#185=EDGE_CURVE('',#165,#164,#97,.T.);
#186=EDGE_CURVE('',#166,#167,#206,.T.);
#187=EDGE_CURVE('',#166,#168,#98,.T.);
#188=EDGE_CURVE('',#169,#168,#207,.T.);
#189=EDGE_CURVE('',#168,#170,#99,.T.);
#190=EDGE_CURVE('',#171,#170,#208,.T.);
#191=EDGE_CURVE('',#170,#172,#100,.T.);
#192=EDGE_CURVE('',#173,#172,#209,.T.);
#193=EDGE_CURVE('',#173,#167,#101,.T.);
#194=EDGE_CURVE('',#172,#166,#210,.T.);
#195=EDGE_CURVE('',#167,#173,#211,.T.);
#196=EDGE_CURVE('',#174,#175,#102,.T.);
#197=EDGE_CURVE('',#176,#174,#103,.T.);
#198=EDGE_CURVE('',#177,#176,#104,.T.);
#199=EDGE_CURVE('',#175,#177,#105,.T.);
#200=EDGE_CURVE('',#175,#165,#212,.T.);
#201=EDGE_CURVE('',#175,#174,#106,.T.);
#202=EDGE_CURVE('',#174,#164,#213,.T.);
#203=EDGE_CURVE('',#176,#177,#107,.T.);
#204=LINE('',#355,#214);
#205=LINE('',#360,#215);
#206=LINE('',#373,#216);
#207=LINE('',#378,#217);
#208=LINE('',#382,#218);
#209=LINE('',#386,#219);
#210=LINE('',#390,#220);
#211=LINE('',#392,#221);
#212=LINE('',#403,#222);
#213=LINE('',#405,#223);
#214=VECTOR('',#285,1.);
#215=VECTOR('',#288,1.);
#216=VECTOR('',#307,1.);
#217=VECTOR('',#310,1.);
#218=VECTOR('',#313,1.);
#219=VECTOR('',#316,1.);
#220=VECTOR('',#321,1.);
#221=VECTOR('',#324,1.);
#222=VECTOR('',#337,1.);
#223=VECTOR('',#340,1.);
#224=INVISIBILITY((#225,#226,#227,#228));
#225=PRESENTATION_LAYER_ASSIGNMENT('100','Layer 100',(#246));
#226=PRESENTATION_LAYER_ASSIGNMENT('101','Layer 101',(#247));
#227=PRESENTATION_LAYER_ASSIGNMENT('102','Layer 102',(#248));
#228=PRESENTATION_LAYER_ASSIGNMENT('98','Layer 98',(#38));
#229=STYLED_ITEM('',(#233),#246);
#230=STYLED_ITEM('',(#234),#247);
#231=STYLED_ITEM('',(#235),#248);
#232=STYLED_ITEM('',(#236),#38);
#233=PRESENTATION_STYLE_ASSIGNMENT((#237));
#234=PRESENTATION_STYLE_ASSIGNMENT((#238));
#235=PRESENTATION_STYLE_ASSIGNMENT((#239));
#236=PRESENTATION_STYLE_ASSIGNMENT((#33));
#237=CURVE_STYLE('',#242,POSITIVE_LENGTH_MEASURE(0.7),#240);
#238=CURVE_STYLE('',#243,POSITIVE_LENGTH_MEASURE(0.7),#240);
#239=CURVE_STYLE('',#244,POSITIVE_LENGTH_MEASURE(0.7),#240);
#240=COLOUR_RGB('Medium Maroon',0.6,0.4,0.4);
#241=COLOUR_RGB('Medium Gray',0.490196078431373,0.490196078431373,0.490196078431373);
#242=DRAUGHTING_PRE_DEFINED_CURVE_FONT('continuous');
#243=DRAUGHTING_PRE_DEFINED_CURVE_FONT('continuous');
#244=DRAUGHTING_PRE_DEFINED_CURVE_FONT('continuous');
#245=AXIS2_PLACEMENT_3D('',#351,#277,#278);
#246=AXIS2_PLACEMENT_3D('PCS',#352,#279,#280);
#247=AXIS2_PLACEMENT_3D('CSW',#353,#281,#282);
#248=AXIS2_PLACEMENT_3D('MCS',#354,#283,#284);
#249=AXIS2_PLACEMENT_3D('',#358,#286,#287);
#250=AXIS2_PLACEMENT_3D('',#362,#289,#290);
#251=AXIS2_PLACEMENT_3D('',#363,#291,#292);
#252=AXIS2_PLACEMENT_3D('',#364,#293,#294);
#253=AXIS2_PLACEMENT_3D('',#365,#295,#296);
#254=AXIS2_PLACEMENT_3D('',#366,#297,#298);
#255=AXIS2_PLACEMENT_3D('',#367,#299,#300);
#256=AXIS2_PLACEMENT_3D('',#368,#301,#302);
#257=AXIS2_PLACEMENT_3D('',#371,#303,#304);
#258=AXIS2_PLACEMENT_3D('',#372,#305,#306);
#259=AXIS2_PLACEMENT_3D('',#376,#308,#309);
#260=AXIS2_PLACEMENT_3D('',#380,#311,#312);
#261=AXIS2_PLACEMENT_3D('',#384,#314,#315);
#262=AXIS2_PLACEMENT_3D('',#388,#317,#318);
#263=AXIS2_PLACEMENT_3D('',#389,#319,#320);
#264=AXIS2_PLACEMENT_3D('',#391,#322,#323);
#265=AXIS2_PLACEMENT_3D('',#393,#325,#326);
#266=AXIS2_PLACEMENT_3D('',#394,#327,#328);
#267=AXIS2_PLACEMENT_3D('',#397,#329,#330);
#268=AXIS2_PLACEMENT_3D('',#399,#331,#332);
#269=AXIS2_PLACEMENT_3D('',#401,#333,#334);
#270=AXIS2_PLACEMENT_3D('',#402,#335,#336);
#271=AXIS2_PLACEMENT_3D('',#404,#338,#339);
#272=AXIS2_PLACEMENT_3D('',#406,#341,#342);
#273=AXIS2_PLACEMENT_3D('',#407,#343,#344);
#274=AXIS2_PLACEMENT_3D('',#408,#345,#346);
#275=AXIS2_PLACEMENT_3D('',#409,#347,#348);
#276=AXIS2_PLACEMENT_3D('',#410,#349,#350);
#277=DIRECTION('',(0.,0.,1.));
#278=DIRECTION('',(1.,0.,0.));
#279=DIRECTION('',(0.,0.,1.));
#280=DIRECTION('',(1.,0.,0.));
#281=DIRECTION('',(0.,0.,1.));
#282=DIRECTION('',(1.,0.,0.));
#283=DIRECTION('',(0.,0.,1.));
#284=DIRECTION('',(1.,0.,0.));
#285=DIRECTION('',(0.,0.,-1.));
#286=DIRECTION('',(0.,0.,-1.));
#287=DIRECTION('',(-1.,0.,0.));
#288=DIRECTION('',(0.,0.,-1.));
#289=DIRECTION('',(0.,0.,-1.));
#290=DIRECTION('',(-1.,0.,0.));
#291=DIRECTION('',(0.,0.,-1.));
#292=DIRECTION('',(1.,0.,0.));
#293=DIRECTION('',(0.,0.,-1.));
#294=DIRECTION('',(-1.,0.,0.));
#295=DIRECTION('',(0.,0.,-1.));
#296=DIRECTION('',(1.,0.,0.));
#297=DIRECTION('',(0.,0.,-1.));
#298=DIRECTION('',(-1.,0.,0.));
#299=DIRECTION('',(0.,0.,-1.));
#300=DIRECTION('',(1.,0.,0.));
#301=DIRECTION('',(0.,0.,-1.));
#302=DIRECTION('',(-1.,0.,0.));
#303=DIRECTION('',(0.,0.,-1.));
#304=DIRECTION('',(-1.,0.,0.));
#305=DIRECTION('',(0.,0.,-1.));
#306=DIRECTION('',(1.,0.,0.));
#307=DIRECTION('',(0.,0.,-1.));
#308=DIRECTION('',(0.,0.,-1.));
#309=DIRECTION('',(-1.,0.,0.));
#310=DIRECTION('',(0.,0.,1.));
#311=DIRECTION('',(0.,0.,-1.));
#312=DIRECTION('',(-1.,0.,0.));
#313=DIRECTION('',(0.,0.,1.));
#314=DIRECTION('',(0.,0.,-1.));
#315=DIRECTION('',(-1.,0.,0.));
#316=DIRECTION('',(0.,0.,1.));
#317=DIRECTION('',(0.,0.,1.));
#318=DIRECTION('',(-1.,0.,0.));
#319=DIRECTION('',(0.,0.,1.));
#320=DIRECTION('',(-1.,0.,0.));
#321=DIRECTION('',(1.,0.,0.));
#322=DIRECTION('',(0.,0.,-1.));
#323=DIRECTION('',(1.,0.,0.));
#324=DIRECTION('',(-1.,0.,0.));
#325=DIRECTION('',(0.,1.,0.));
#326=DIRECTION('',(-1.,0.,0.));
#327=DIRECTION('',(0.,0.,-1.));
#328=DIRECTION('',(-1.,0.,0.));
#329=DIRECTION('',(1.22464679914735E-16,-1.,0.));
#330=DIRECTION('',(1.,1.22464679914735E-16,0.));
#331=DIRECTION('',(0.,0.,1.));
#332=DIRECTION('',(-1.,0.,0.));
#333=DIRECTION('',(0.,-1.,0.));
#334=DIRECTION('',(-1.,0.,0.));
#335=DIRECTION('',(0.,0.,-1.));
#336=DIRECTION('',(1.,0.,0.));
#337=DIRECTION('',(0.,0.,-1.));
#338=DIRECTION('',(0.,0.,-1.));
#339=DIRECTION('',(-1.,0.,0.));
#340=DIRECTION('',(0.,0.,-1.));
#341=DIRECTION('',(0.,0.,1.));
#342=DIRECTION('',(-1.,0.,0.));
#343=DIRECTION('',(0.,0.,1.));
#344=DIRECTION('',(-1.,8.88178419700125E-16,0.));
#345=DIRECTION('',(0.,0.,-1.));
#346=DIRECTION('',(1.,0.,0.));
#347=DIRECTION('',(0.,0.,1.));
#348=DIRECTION('',(-1.,0.,0.));
#349=DIRECTION('',(0.,0.,-1.));
#350=DIRECTION('',(1.,0.,0.));
#351=CARTESIAN_POINT('',(0.,0.,0.));
#352=CARTESIAN_POINT('',(0.,0.,0.));
#353=CARTESIAN_POINT('',(0.,0.,-90.));
#354=CARTESIAN_POINT('',(0.,0.,0.));
#355=CARTESIAN_POINT('',(25.,3.06161699786838E-15,-8.36809008046678));
#356=CARTESIAN_POINT('',(25.,0.,78.));
#357=CARTESIAN_POINT('',(25.,0.,0.));
#358=CARTESIAN_POINT('',(0.,0.,78.));
#359=CARTESIAN_POINT('',(-25.,0.,78.));
#360=CARTESIAN_POINT('',(-25.,0.,-8.36809008046678));
#361=CARTESIAN_POINT('',(-25.,0.,0.));
#362=CARTESIAN_POINT('',(0.,0.,0.));
#363=CARTESIAN_POINT('',(0.,0.,-8.36809008046678));
#364=CARTESIAN_POINT('',(0.,0.,78.));
#365=CARTESIAN_POINT('',(0.,-1.02323024325914E-14,78.));
#366=CARTESIAN_POINT('',(0.,0.,0.));
#367=CARTESIAN_POINT('',(0.,0.,-8.36809008046678));
#368=CARTESIAN_POINT('',(0.,0.,-90.));
#369=CARTESIAN_POINT('',(32.5,-1.99005104861445E-15,-90.));
#370=CARTESIAN_POINT('',(-32.5,0.,-90.));
#371=CARTESIAN_POINT('',(0.,0.,-90.));
#372=CARTESIAN_POINT('',(0.,32.5,-90.));
#373=CARTESIAN_POINT('',(34.2928563989645,35.,-38.));
#374=CARTESIAN_POINT('',(34.2928563989645,35.,0.));
#375=CARTESIAN_POINT('',(34.2928563989645,35.,-30.));
#376=CARTESIAN_POINT('',(0.,0.,0.));
#377=CARTESIAN_POINT('',(49.,-3.00038465791102E-15,0.));
#378=CARTESIAN_POINT('',(49.,0.,18.3366686854391));
#379=CARTESIAN_POINT('',(49.,0.,-29.));
#380=CARTESIAN_POINT('',(0.,0.,0.));
#381=CARTESIAN_POINT('',(-49.,0.,0.));
#382=CARTESIAN_POINT('',(-49.,6.00076931582203E-15,18.3366686854391));
#383=CARTESIAN_POINT('',(-49.,6.00076931582203E-15,-29.));
#384=CARTESIAN_POINT('',(0.,0.,0.));
#385=CARTESIAN_POINT('',(-34.2928563989645,35.,0.));
#386=CARTESIAN_POINT('',(-34.2928563989645,35.,-38.));
#387=CARTESIAN_POINT('',(-34.2928563989645,35.,-30.));
#388=CARTESIAN_POINT('',(0.,0.,-30.));
#389=CARTESIAN_POINT('',(0.,0.,18.3366686854391));
#390=CARTESIAN_POINT('',(0.,35.,0.));
#391=CARTESIAN_POINT('',(0.,25.,0.));
#392=CARTESIAN_POINT('',(0.,35.,-30.));
#393=CARTESIAN_POINT('',(34.2928563989645,35.,-38.));
#394=CARTESIAN_POINT('',(0.,0.,-32.));
#395=CARTESIAN_POINT('',(32.5,0.,-32.));
#396=CARTESIAN_POINT('',(-32.5,3.9801020972289E-15,-32.));
#397=CARTESIAN_POINT('',(34.5,4.22503145705837E-15,-32.));
#398=CARTESIAN_POINT('',(34.5,4.22503145705837E-15,-30.));
#399=CARTESIAN_POINT('',(0.,0.,-30.));
#400=CARTESIAN_POINT('',(-34.5,0.,-30.));
#401=CARTESIAN_POINT('',(-34.5,0.,-32.));
#402=CARTESIAN_POINT('',(0.,0.,-32.));
#403=CARTESIAN_POINT('',(-32.5,3.9801020972289E-15,18.3366686854391));
#404=CARTESIAN_POINT('',(0.,0.,-32.));
#405=CARTESIAN_POINT('',(32.5,0.,18.3366686854391));
#406=CARTESIAN_POINT('',(0.,0.,18.3366686854391));
#407=CARTESIAN_POINT('',(0.,0.,-30.));
#408=CARTESIAN_POINT('',(0.,49.,-30.));
#409=CARTESIAN_POINT('',(0.,0.,18.3366686854391));
#410=CARTESIAN_POINT('',(0.,0.,-32.));
#411=MECHANICAL_DESIGN_GEOMETRIC_PRESENTATION_REPRESENTATION('',(#229,#230,
#231,#232),#412);
#412=(
GEOMETRIC_REPRESENTATION_CONTEXT(3)
GLOBAL_UNCERTAINTY_ASSIGNED_CONTEXT((#413))
GLOBAL_UNIT_ASSIGNED_CONTEXT((#419,#415,#414))
REPRESENTATION_CONTEXT('VDI.50-E1','TOP_LEVEL_ASSEMBLY_PART')
);
#413=UNCERTAINTY_MEASURE_WITH_UNIT(LENGTH_MEASURE(2.E-5),#419,
'DISTANCE_ACCURACY_VALUE','Maximum Tolerance applied to model');
#414=(
NAMED_UNIT(*)
SI_UNIT($,.STERADIAN.)
SOLID_ANGLE_UNIT()
);
#415=(
CONVERSION_BASED_UNIT('DEGREE',#417)
NAMED_UNIT(#416)
PLANE_ANGLE_UNIT()
);
#416=DIMENSIONAL_EXPONENTS(0.,0.,0.,0.,0.,0.,0.);
#417=PLANE_ANGLE_MEASURE_WITH_UNIT(PLANE_ANGLE_MEASURE(0.0174532925),#418);
#418=(
NAMED_UNIT(*)
PLANE_ANGLE_UNIT()
SI_UNIT($,.RADIAN.)
);
#419=(
LENGTH_UNIT()
NAMED_UNIT(*)
SI_UNIT(.MILLI.,.METRE.)
);
ENDSEC;
END-ISO-10303-21;
