ISO-10303-21;
HEADER;
/* Generated by software containing ST-Developer
 * from STEP Tools, Inc. (www.steptools.com) 
 */
/* OPTION: using custom schema-name function */

FILE_DESCRIPTION(
/* description */ (''),
/* implementation_level */ '2;1');

FILE_NAME(
/* name */ 'VDI.30-QTCC.M5.M22.stp',
/* time_stamp */ '2024-10-02T08:37:01+02:00',
/* author */ (''),
/* organization */ (''),
/* preprocessor_version */ 'ST-DEVELOPER v16.7',
/* originating_system */ 'SIEMENS PLM Software NX 12.0',
/* authorisation */ '');

FILE_SCHEMA (('AUTOMOTIVE_DESIGN { 1 0 10303 214 3 1 1 1 }'));
ENDSEC;

DATA;
#10=CONSTRUCTIVE_GEOMETRY_REPRESENTATION_RELATIONSHIP(
'supplemental geometry','',#32,#11);
#11=CONSTRUCTIVE_GEOMETRY_REPRESENTATION('supplemental geometry',(#229,
#230,#231),#374);
#12=PROPERTY_DEFINITION_REPRESENTATION(#16,#14);
#13=PROPERTY_DEFINITION_REPRESENTATION(#17,#15);
#14=REPRESENTATION('',(#18),#374);
#15=REPRESENTATION('',(#19),#374);
#16=PROPERTY_DEFINITION('pmi validation property','',#23);
#17=PROPERTY_DEFINITION('pmi validation property','',#23);
#18=VALUE_REPRESENTATION_ITEM('number of annotations',COUNT_MEASURE(0.));
#19=VALUE_REPRESENTATION_ITEM('number of views',COUNT_MEASURE(0.));
#20=SHAPE_REPRESENTATION_RELATIONSHIP('None',
'relationship between pf6624DC61AFpnsv-None and pf6624DC61AFpnsv-None',
#32,#21);
#21=ADVANCED_BREP_SHAPE_REPRESENTATION('pf6624DC61AFpnsv-None',(#38),#374);
#22=SHAPE_DEFINITION_REPRESENTATION(#23,#32);
#23=PRODUCT_DEFINITION_SHAPE('','',#24);
#24=PRODUCT_DEFINITION(' ','',#26,#25);
#25=PRODUCT_DEFINITION_CONTEXT('part definition',#31,'design');
#26=PRODUCT_DEFINITION_FORMATION_WITH_SPECIFIED_SOURCE(' ',' ',#28,
 .NOT_KNOWN.);
#27=PRODUCT_RELATED_PRODUCT_CATEGORY('part','',(#28));
#28=PRODUCT('pf6624DC61AFpnsv','pf6624DC61AFpnsv',' ',(#29));
#29=PRODUCT_CONTEXT(' ',#31,'mechanical');
#30=APPLICATION_PROTOCOL_DEFINITION('international standard',
'automotive_design',2010,#31);
#31=APPLICATION_CONTEXT(
'core data for automotive mechanical design processes');
#32=SHAPE_REPRESENTATION('pf6624DC61AFpnsv-None',(#228),#374);
#33=SURFACE_STYLE_USAGE(.BOTH.,#34);
#34=SURFACE_SIDE_STYLE('',(#35));
#35=SURFACE_STYLE_FILL_AREA(#36);
#36=FILL_AREA_STYLE('',(#37));
#37=FILL_AREA_STYLE_COLOUR('',#224);
#38=MANIFOLD_SOLID_BREP('',#39);
#39=CLOSED_SHELL('',(#73,#74,#75,#76,#77,#78,#79,#80,#81,#82,#83));
#40=FACE_BOUND('',#99,.T.);
#41=FACE_BOUND('',#100,.T.);
#42=FACE_BOUND('',#101,.T.);
#43=FACE_BOUND('',#102,.T.);
#44=FACE_BOUND('',#108,.T.);
#45=FACE_BOUND('',#109,.T.);
#46=FACE_BOUND('',#110,.T.);
#47=FACE_BOUND('',#111,.T.);
#48=CYLINDRICAL_SURFACE('',#236,15.);
#49=CYLINDRICAL_SURFACE('',#242,34.);
#50=CYLINDRICAL_SURFACE('',#248,27.);
#51=CYLINDRICAL_SURFACE('',#250,27.);
#52=CYLINDRICAL_SURFACE('',#254,25.);
#53=LINE('',#326,#63);
#54=LINE('',#330,#64);
#55=LINE('',#334,#65);
#56=LINE('',#341,#66);
#57=LINE('',#346,#67);
#58=LINE('',#347,#68);
#59=LINE('',#355,#69);
#60=LINE('',#359,#70);
#61=LINE('',#368,#71);
#62=LINE('',#370,#72);
#63=VECTOR('',#267,1.);
#64=VECTOR('',#270,1.);
#65=VECTOR('',#275,1.);
#66=VECTOR('',#282,1.);
#67=VECTOR('',#287,1.);
#68=VECTOR('',#288,1.);
#69=VECTOR('',#299,1.);
#70=VECTOR('',#302,1.);
#71=VECTOR('',#315,1.);
#72=VECTOR('',#316,1.);
#73=ADVANCED_FACE('',(#90),#84,.F.);
#74=ADVANCED_FACE('',(#91),#48,.T.);
#75=ADVANCED_FACE('',(#40,#41),#85,.F.);
#76=ADVANCED_FACE('',(#42,#43),#86,.T.);
#77=ADVANCED_FACE('',(#92),#49,.T.);
#78=ADVANCED_FACE('',(#93),#87,.F.);
#79=ADVANCED_FACE('',(#94),#88,.T.);
#80=ADVANCED_FACE('',(#95),#50,.T.);
#81=ADVANCED_FACE('',(#96),#51,.T.);
#82=ADVANCED_FACE('',(#44,#45),#89,.F.);
#83=ADVANCED_FACE('',(#46,#47),#52,.T.);
#84=PLANE('',#233);
#85=PLANE('',#238);
#86=PLANE('',#241);
#87=PLANE('',#243);
#88=PLANE('',#246);
#89=PLANE('',#253);
#90=FACE_OUTER_BOUND('',#97,.T.);
#91=FACE_OUTER_BOUND('',#98,.T.);
#92=FACE_OUTER_BOUND('',#103,.T.);
#93=FACE_OUTER_BOUND('',#104,.T.);
#94=FACE_OUTER_BOUND('',#105,.T.);
#95=FACE_OUTER_BOUND('',#106,.T.);
#96=FACE_OUTER_BOUND('',#107,.T.);
#97=EDGE_LOOP('',(#112));
#98=EDGE_LOOP('',(#113,#114,#115,#116,#117,#118,#119));
#99=EDGE_LOOP('',(#120,#121));
#100=EDGE_LOOP('',(#122,#123));
#101=EDGE_LOOP('',(#124));
#102=EDGE_LOOP('',(#125,#126));
#103=EDGE_LOOP('',(#127,#128,#129,#130));
#104=EDGE_LOOP('',(#131,#132,#133,#134));
#105=EDGE_LOOP('',(#135,#136));
#106=EDGE_LOOP('',(#137,#138,#139,#140));
#107=EDGE_LOOP('',(#141,#142,#143,#144));
#108=EDGE_LOOP('',(#145,#146));
#109=EDGE_LOOP('',(#147,#148));
#110=EDGE_LOOP('',(#149,#150,#151,#152,#153,#154));
#111=EDGE_LOOP('',(#155));
#112=ORIENTED_EDGE('',*,*,#173,.F.);
#113=ORIENTED_EDGE('',*,*,#174,.T.);
#114=ORIENTED_EDGE('',*,*,#173,.T.);
#115=ORIENTED_EDGE('',*,*,#174,.F.);
#116=ORIENTED_EDGE('',*,*,#175,.F.);
#117=ORIENTED_EDGE('',*,*,#176,.T.);
#118=ORIENTED_EDGE('',*,*,#176,.F.);
#119=ORIENTED_EDGE('',*,*,#177,.F.);
#120=ORIENTED_EDGE('',*,*,#178,.T.);
#121=ORIENTED_EDGE('',*,*,#179,.F.);
#122=ORIENTED_EDGE('',*,*,#175,.T.);
#123=ORIENTED_EDGE('',*,*,#177,.T.);
#124=ORIENTED_EDGE('',*,*,#180,.F.);
#125=ORIENTED_EDGE('',*,*,#181,.F.);
#126=ORIENTED_EDGE('',*,*,#182,.F.);
#127=ORIENTED_EDGE('',*,*,#183,.F.);
#128=ORIENTED_EDGE('',*,*,#179,.T.);
#129=ORIENTED_EDGE('',*,*,#184,.T.);
#130=ORIENTED_EDGE('',*,*,#182,.T.);
#131=ORIENTED_EDGE('',*,*,#184,.F.);
#132=ORIENTED_EDGE('',*,*,#178,.F.);
#133=ORIENTED_EDGE('',*,*,#183,.T.);
#134=ORIENTED_EDGE('',*,*,#181,.T.);
#135=ORIENTED_EDGE('',*,*,#185,.T.);
#136=ORIENTED_EDGE('',*,*,#186,.T.);
#137=ORIENTED_EDGE('',*,*,#185,.F.);
#138=ORIENTED_EDGE('',*,*,#187,.T.);
#139=ORIENTED_EDGE('',*,*,#188,.F.);
#140=ORIENTED_EDGE('',*,*,#189,.F.);
#141=ORIENTED_EDGE('',*,*,#186,.F.);
#142=ORIENTED_EDGE('',*,*,#189,.T.);
#143=ORIENTED_EDGE('',*,*,#190,.F.);
#144=ORIENTED_EDGE('',*,*,#187,.F.);
#145=ORIENTED_EDGE('',*,*,#190,.T.);
#146=ORIENTED_EDGE('',*,*,#188,.T.);
#147=ORIENTED_EDGE('',*,*,#191,.T.);
#148=ORIENTED_EDGE('',*,*,#192,.T.);
#149=ORIENTED_EDGE('',*,*,#193,.F.);
#150=ORIENTED_EDGE('',*,*,#193,.T.);
#151=ORIENTED_EDGE('',*,*,#191,.F.);
#152=ORIENTED_EDGE('',*,*,#194,.F.);
#153=ORIENTED_EDGE('',*,*,#194,.T.);
#154=ORIENTED_EDGE('',*,*,#192,.F.);
#155=ORIENTED_EDGE('',*,*,#180,.T.);
#156=VERTEX_POINT('',#324);
#157=VERTEX_POINT('',#327);
#158=VERTEX_POINT('',#329);
#159=VERTEX_POINT('',#331);
#160=VERTEX_POINT('',#335);
#161=VERTEX_POINT('',#336);
#162=VERTEX_POINT('',#340);
#163=VERTEX_POINT('',#342);
#164=VERTEX_POINT('',#343);
#165=VERTEX_POINT('',#351);
#166=VERTEX_POINT('',#352);
#167=VERTEX_POINT('',#356);
#168=VERTEX_POINT('',#358);
#169=VERTEX_POINT('',#364);
#170=VERTEX_POINT('',#365);
#171=VERTEX_POINT('',#369);
#172=VERTEX_POINT('',#371);
#173=EDGE_CURVE('',#156,#156,#195,.T.);
#174=EDGE_CURVE('',#157,#156,#53,.T.);
#175=EDGE_CURVE('',#158,#157,#196,.T.);
#176=EDGE_CURVE('',#158,#159,#54,.T.);
#177=EDGE_CURVE('',#157,#158,#197,.T.);
#178=EDGE_CURVE('',#160,#161,#55,.T.);
#179=EDGE_CURVE('',#160,#161,#198,.T.);
#180=EDGE_CURVE('',#162,#162,#199,.T.);
#181=EDGE_CURVE('',#163,#164,#56,.T.);
#182=EDGE_CURVE('',#164,#163,#200,.T.);
#183=EDGE_CURVE('',#160,#163,#57,.T.);
#184=EDGE_CURVE('',#161,#164,#58,.T.);
#185=EDGE_CURVE('',#165,#166,#201,.T.);
#186=EDGE_CURVE('',#166,#165,#202,.T.);
#187=EDGE_CURVE('',#165,#167,#59,.T.);
#188=EDGE_CURVE('',#168,#167,#203,.T.);
#189=EDGE_CURVE('',#166,#168,#60,.T.);
#190=EDGE_CURVE('',#167,#168,#204,.T.);
#191=EDGE_CURVE('',#169,#170,#205,.T.);
#192=EDGE_CURVE('',#170,#169,#206,.T.);
#193=EDGE_CURVE('',#171,#170,#61,.T.);
#194=EDGE_CURVE('',#172,#169,#62,.T.);
#195=CIRCLE('',#232,15.);
#196=CIRCLE('',#234,15.);
#197=CIRCLE('',#235,15.);
#198=CIRCLE('',#237,34.);
#199=CIRCLE('',#239,25.);
#200=CIRCLE('',#240,34.);
#201=CIRCLE('',#244,27.);
#202=CIRCLE('',#245,27.);
#203=CIRCLE('',#247,27.);
#204=CIRCLE('',#249,27.);
#205=CIRCLE('',#251,25.);
#206=CIRCLE('',#252,25.);
#207=INVISIBILITY((#208,#209,#210,#211));
#208=PRESENTATION_LAYER_ASSIGNMENT('100','Layer 100',(#229));
#209=PRESENTATION_LAYER_ASSIGNMENT('101','Layer 101',(#230));
#210=PRESENTATION_LAYER_ASSIGNMENT('102','Layer 102',(#231));
#211=PRESENTATION_LAYER_ASSIGNMENT('98','Layer 98',(#38));
#212=STYLED_ITEM('',(#216),#229);
#213=STYLED_ITEM('',(#217),#230);
#214=STYLED_ITEM('',(#218),#231);
#215=STYLED_ITEM('',(#219),#38);
#216=PRESENTATION_STYLE_ASSIGNMENT((#220));
#217=PRESENTATION_STYLE_ASSIGNMENT((#221));
#218=PRESENTATION_STYLE_ASSIGNMENT((#222));
#219=PRESENTATION_STYLE_ASSIGNMENT((#33));
#220=CURVE_STYLE('',#225,POSITIVE_LENGTH_MEASURE(0.7),#223);
#221=CURVE_STYLE('',#226,POSITIVE_LENGTH_MEASURE(0.7),#223);
#222=CURVE_STYLE('',#227,POSITIVE_LENGTH_MEASURE(0.7),#223);
#223=COLOUR_RGB('Medium Maroon',0.6,0.4,0.4);
#224=COLOUR_RGB('Medium Gray',0.490196078431373,0.490196078431373,0.490196078431373);
#225=DRAUGHTING_PRE_DEFINED_CURVE_FONT('continuous');
#226=DRAUGHTING_PRE_DEFINED_CURVE_FONT('continuous');
#227=DRAUGHTING_PRE_DEFINED_CURVE_FONT('continuous');
#228=AXIS2_PLACEMENT_3D('',#319,#255,#256);
#229=AXIS2_PLACEMENT_3D('PCS',#320,#257,#258);
#230=AXIS2_PLACEMENT_3D('CSW',#321,#259,#260);
#231=AXIS2_PLACEMENT_3D('MCS',#322,#261,#262);
#232=AXIS2_PLACEMENT_3D('',#323,#263,#264);
#233=AXIS2_PLACEMENT_3D('',#325,#265,#266);
#234=AXIS2_PLACEMENT_3D('',#328,#268,#269);
#235=AXIS2_PLACEMENT_3D('',#332,#271,#272);
#236=AXIS2_PLACEMENT_3D('',#333,#273,#274);
#237=AXIS2_PLACEMENT_3D('',#337,#276,#277);
#238=AXIS2_PLACEMENT_3D('',#338,#278,#279);
#239=AXIS2_PLACEMENT_3D('',#339,#280,#281);
#240=AXIS2_PLACEMENT_3D('',#344,#283,#284);
#241=AXIS2_PLACEMENT_3D('',#345,#285,#286);
#242=AXIS2_PLACEMENT_3D('',#348,#289,#290);
#243=AXIS2_PLACEMENT_3D('',#349,#291,#292);
#244=AXIS2_PLACEMENT_3D('',#350,#293,#294);
#245=AXIS2_PLACEMENT_3D('',#353,#295,#296);
#246=AXIS2_PLACEMENT_3D('',#354,#297,#298);
#247=AXIS2_PLACEMENT_3D('',#357,#300,#301);
#248=AXIS2_PLACEMENT_3D('',#360,#303,#304);
#249=AXIS2_PLACEMENT_3D('',#361,#305,#306);
#250=AXIS2_PLACEMENT_3D('',#362,#307,#308);
#251=AXIS2_PLACEMENT_3D('',#363,#309,#310);
#252=AXIS2_PLACEMENT_3D('',#366,#311,#312);
#253=AXIS2_PLACEMENT_3D('',#367,#313,#314);
#254=AXIS2_PLACEMENT_3D('',#372,#317,#318);
#255=DIRECTION('',(0.,0.,1.));
#256=DIRECTION('',(1.,0.,0.));
#257=DIRECTION('',(0.,0.,1.));
#258=DIRECTION('',(1.,0.,0.));
#259=DIRECTION('',(0.,0.,1.));
#260=DIRECTION('',(1.,0.,0.));
#261=DIRECTION('',(0.,0.,1.));
#262=DIRECTION('',(1.,0.,0.));
#263=DIRECTION('',(0.,0.,-1.));
#264=DIRECTION('',(-1.,0.,0.));
#265=DIRECTION('',(0.,0.,-1.));
#266=DIRECTION('',(0.,1.,0.));
#267=DIRECTION('',(0.,0.,1.));
#268=DIRECTION('',(0.,0.,-1.));
#269=DIRECTION('',(-1.,0.,0.));
#270=DIRECTION('',(0.,0.,1.));
#271=DIRECTION('',(0.,0.,-1.));
#272=DIRECTION('',(-1.,0.,0.));
#273=DIRECTION('',(0.,0.,-1.));
#274=DIRECTION('',(0.,1.,0.));
#275=DIRECTION('',(-1.,0.,0.));
#276=DIRECTION('',(0.,0.,-1.));
#277=DIRECTION('',(-1.,0.,0.));
#278=DIRECTION('',(0.,0.,-1.));
#279=DIRECTION('',(0.,1.,0.));
#280=DIRECTION('',(0.,0.,-1.));
#281=DIRECTION('',(-1.,0.,0.));
#282=DIRECTION('',(-1.,0.,0.));
#283=DIRECTION('',(0.,0.,1.));
#284=DIRECTION('',(-1.,0.,0.));
#285=DIRECTION('',(0.,0.,-1.));
#286=DIRECTION('',(0.,1.,0.));
#287=DIRECTION('',(0.,0.,-1.));
#288=DIRECTION('',(0.,0.,-1.));
#289=DIRECTION('',(0.,0.,-1.));
#290=DIRECTION('',(0.,1.,0.));
#291=DIRECTION('',(0.,-1.,0.));
#292=DIRECTION('',(0.,0.,1.));
#293=DIRECTION('',(0.,0.,-1.));
#294=DIRECTION('',(-1.,0.,0.));
#295=DIRECTION('',(0.,0.,-1.));
#296=DIRECTION('',(-1.,0.,0.));
#297=DIRECTION('',(0.,0.,-1.));
#298=DIRECTION('',(0.,1.,0.));
#299=DIRECTION('',(-2.914245948439E-14,0.,1.));
#300=DIRECTION('',(0.,0.,1.));
#301=DIRECTION('',(-1.,0.,0.));
#302=DIRECTION('',(3.013601826994E-14,0.,1.));
#303=DIRECTION('',(0.,0.,-1.));
#304=DIRECTION('',(0.,1.,0.));
#305=DIRECTION('',(0.,0.,1.));
#306=DIRECTION('',(-1.,0.,0.));
#307=DIRECTION('',(0.,0.,-1.));
#308=DIRECTION('',(0.,1.,0.));
#309=DIRECTION('',(0.,0.,-1.));
#310=DIRECTION('',(0.,-1.,0.));
#311=DIRECTION('',(0.,0.,-1.));
#312=DIRECTION('',(0.,1.,0.));
#313=DIRECTION('',(0.,0.,-1.));
#314=DIRECTION('',(0.,1.,0.));
#315=DIRECTION('',(0.,0.,-1.));
#316=DIRECTION('',(0.,0.,-1.));
#317=DIRECTION('',(0.,0.,-1.));
#318=DIRECTION('',(0.,1.,0.));
#319=CARTESIAN_POINT('',(0.,0.,0.));
#320=CARTESIAN_POINT('',(0.,0.,0.));
#321=CARTESIAN_POINT('',(0.,0.,-81.));
#322=CARTESIAN_POINT('',(0.,0.,0.));
#323=CARTESIAN_POINT('',(0.,0.,55.));
#324=CARTESIAN_POINT('',(1.37772764904077E-15,-15.,55.));
#325=CARTESIAN_POINT('',(0.,0.,55.));
#326=CARTESIAN_POINT('',(0.,-15.,2.4));
#327=CARTESIAN_POINT('',(9.18485099360515E-16,-15.,0.));
#328=CARTESIAN_POINT('',(0.,0.,0.));
#329=CARTESIAN_POINT('',(0.,15.,0.));
#330=CARTESIAN_POINT('',(0.,15.,2.4));
#331=CARTESIAN_POINT('',(0.,15.,7.));
#332=CARTESIAN_POINT('',(0.,0.,0.));
#333=CARTESIAN_POINT('',(0.,0.,58.55));
#334=CARTESIAN_POINT('',(-55.,28.,0.));
#335=CARTESIAN_POINT('',(19.2873015219859,28.,0.));
#336=CARTESIAN_POINT('',(-19.2873015219859,28.,0.));
#337=CARTESIAN_POINT('',(0.,0.,0.));
#338=CARTESIAN_POINT('',(0.,0.,0.));
#339=CARTESIAN_POINT('',(0.,0.,-16.));
#340=CARTESIAN_POINT('',(-25.,0.,-16.));
#341=CARTESIAN_POINT('',(0.,28.,-16.));
#342=CARTESIAN_POINT('',(19.2873015219859,28.,-16.));
#343=CARTESIAN_POINT('',(-19.2873015219859,28.,-16.));
#344=CARTESIAN_POINT('',(0.,0.,-16.));
#345=CARTESIAN_POINT('',(0.,0.,-16.));
#346=CARTESIAN_POINT('',(19.2873015219859,28.,-0.7));
#347=CARTESIAN_POINT('',(-19.2873015219887,27.9999999999981,58.55));
#348=CARTESIAN_POINT('',(0.,0.,58.55));
#349=CARTESIAN_POINT('',(-55.,28.,7.));
#350=CARTESIAN_POINT('',(0.,0.,-81.));
#351=CARTESIAN_POINT('',(3.45066952080526E-14,-27.,-81.));
#352=CARTESIAN_POINT('',(1.58214095917185E-13,27.,-81.));
#353=CARTESIAN_POINT('',(0.,0.,-81.));
#354=CARTESIAN_POINT('',(0.,0.,-81.));
#355=CARTESIAN_POINT('',(0.,-27.,-43.5));
#356=CARTESIAN_POINT('',(-3.05995824586095E-13,-27.,-33.));
#357=CARTESIAN_POINT('',(0.,0.,-33.));
#358=CARTESIAN_POINT('',(3.1642819183437E-13,27.,-33.));
#359=CARTESIAN_POINT('',(0.,27.,-43.5));
#360=CARTESIAN_POINT('',(0.,0.,-30.6));
#361=CARTESIAN_POINT('',(0.,0.,-33.));
#362=CARTESIAN_POINT('',(0.,0.,-30.6));
#363=CARTESIAN_POINT('',(0.,0.,-33.));
#364=CARTESIAN_POINT('',(0.,-25.,-33.));
#365=CARTESIAN_POINT('',(0.,25.,-33.));
#366=CARTESIAN_POINT('',(0.,0.,-33.));
#367=CARTESIAN_POINT('',(0.,0.,-33.));
#368=CARTESIAN_POINT('',(0.,25.,-33.));
#369=CARTESIAN_POINT('',(0.,25.,-22.2));
#370=CARTESIAN_POINT('',(0.,-25.,-33.));
#371=CARTESIAN_POINT('',(0.,-25.,-22.2));
#372=CARTESIAN_POINT('',(0.,0.,-13.5));
#373=MECHANICAL_DESIGN_GEOMETRIC_PRESENTATION_REPRESENTATION('',(#212,#213,
#214,#215),#374);
#374=(
GEOMETRIC_REPRESENTATION_CONTEXT(3)
GLOBAL_UNCERTAINTY_ASSIGNED_CONTEXT((#375))
GLOBAL_UNIT_ASSIGNED_CONTEXT((#381,#377,#376))
REPRESENTATION_CONTEXT('VDI.30-QTCC.M5','TOP_LEVEL_ASSEMBLY_PART')
);
#375=UNCERTAINTY_MEASURE_WITH_UNIT(LENGTH_MEASURE(0.0023157633619042),#381,
'DISTANCE_ACCURACY_VALUE','Maximum Tolerance applied to model');
#376=(
NAMED_UNIT(*)
SI_UNIT($,.STERADIAN.)
SOLID_ANGLE_UNIT()
);
#377=(
CONVERSION_BASED_UNIT('DEGREE',#379)
NAMED_UNIT(#378)
PLANE_ANGLE_UNIT()
);
#378=DIMENSIONAL_EXPONENTS(0.,0.,0.,0.,0.,0.,0.);
#379=PLANE_ANGLE_MEASURE_WITH_UNIT(PLANE_ANGLE_MEASURE(0.0174532925),#380);
#380=(
NAMED_UNIT(*)
PLANE_ANGLE_UNIT()
SI_UNIT($,.RADIAN.)
);
#381=(
LENGTH_UNIT()
NAMED_UNIT(*)
SI_UNIT(.MILLI.,.METRE.)
);
ENDSEC;
END-ISO-10303-21;
