ISO-10303-21;
HEADER;
/* Generated by software containing ST-Developer
 * from STEP Tools, Inc. (www.steptools.com) 
 */
/* OPTION: using custom schema-name function */

FILE_DESCRIPTION(
/* description */ (''),
/* implementation_level */ '2;1');

FILE_NAME(
/* name */ 'VDI.30-E2.32.stp',
/* time_stamp */ '2024-10-02T08:28:30+02:00',
/* author */ (''),
/* organization */ (''),
/* preprocessor_version */ 'ST-DEVELOPER v16.7',
/* originating_system */ 'SIEMENS PLM Software NX 12.0',
/* authorisation */ '');

FILE_SCHEMA (('AUTOMOTIVE_DESIGN { 1 0 10303 214 3 1 1 1 }'));
ENDSEC;

DATA;
#10=CONSTRUCTIVE_GEOMETRY_REPRESENTATION_RELATIONSHIP(
'supplemental geometry','',#32,#11);
#11=CONSTRUCTIVE_GEOMETRY_REPRESENTATION('supplemental geometry',(#242,
#243,#244),#400);
#12=PROPERTY_DEFINITION_REPRESENTATION(#16,#14);
#13=PROPERTY_DEFINITION_REPRESENTATION(#17,#15);
#14=REPRESENTATION('',(#18),#400);
#15=REPRESENTATION('',(#19),#400);
#16=PROPERTY_DEFINITION('pmi validation property','',#23);
#17=PROPERTY_DEFINITION('pmi validation property','',#23);
#18=VALUE_REPRESENTATION_ITEM('number of annotations',COUNT_MEASURE(0.));
#19=VALUE_REPRESENTATION_ITEM('number of views',COUNT_MEASURE(0.));
#20=SHAPE_REPRESENTATION_RELATIONSHIP('None',
'relationship between pf6624DC61AFpnq1-None and pf6624DC61AFpnq1-None',
#32,#21);
#21=ADVANCED_BREP_SHAPE_REPRESENTATION('pf6624DC61AFpnq1-None',(#38),#400);
#22=SHAPE_DEFINITION_REPRESENTATION(#23,#32);
#23=PRODUCT_DEFINITION_SHAPE('','',#24);
#24=PRODUCT_DEFINITION(' ','',#26,#25);
#25=PRODUCT_DEFINITION_CONTEXT('part definition',#31,'design');
#26=PRODUCT_DEFINITION_FORMATION_WITH_SPECIFIED_SOURCE(' ',' ',#28,
 .NOT_KNOWN.);
#27=PRODUCT_RELATED_PRODUCT_CATEGORY('part','',(#28));
#28=PRODUCT('pf6624DC61AFpnq1','pf6624DC61AFpnq1',' ',(#29));
#29=PRODUCT_CONTEXT(' ',#31,'mechanical');
#30=APPLICATION_PROTOCOL_DEFINITION('international standard',
'automotive_design',2010,#31);
#31=APPLICATION_CONTEXT(
'core data for automotive mechanical design processes');
#32=SHAPE_REPRESENTATION('pf6624DC61AFpnq1-None',(#241),#400);
#33=SURFACE_STYLE_USAGE(.BOTH.,#34);
#34=SURFACE_SIDE_STYLE('',(#35));
#35=SURFACE_STYLE_FILL_AREA(#36);
#36=FILL_AREA_STYLE('',(#37));
#37=FILL_AREA_STYLE_COLOUR('',#237);
#38=MANIFOLD_SOLID_BREP('',#39);
#39=CLOSED_SHELL('',(#72,#73,#74,#75,#76,#77,#78,#79,#80,#81,#82,#83));
#40=SPHERICAL_SURFACE('',#255,5.);
#41=SPHERICAL_SURFACE('',#265,5.);
#42=FACE_BOUND('',#102,.T.);
#43=FACE_BOUND('',#103,.T.);
#44=FACE_BOUND('',#104,.T.);
#45=FACE_BOUND('',#105,.T.);
#46=FACE_BOUND('',#107,.T.);
#47=FACE_BOUND('',#108,.T.);
#48=FACE_BOUND('',#109,.T.);
#49=CYLINDRICAL_SURFACE('',#249,15.);
#50=CYLINDRICAL_SURFACE('',#267,34.);
#51=CYLINDRICAL_SURFACE('',#269,34.);
#52=LINE('',#348,#62);
#53=LINE('',#352,#63);
#54=LINE('',#356,#64);
#55=LINE('',#361,#65);
#56=LINE('',#373,#66);
#57=LINE('',#378,#67);
#58=LINE('',#391,#68);
#59=LINE('',#392,#69);
#60=LINE('',#394,#70);
#61=LINE('',#396,#71);
#62=VECTOR('',#283,1.);
#63=VECTOR('',#286,1.);
#64=VECTOR('',#291,1.);
#65=VECTOR('',#294,1.);
#66=VECTOR('',#309,1.);
#67=VECTOR('',#312,1.);
#68=VECTOR('',#329,1.);
#69=VECTOR('',#330,1.);
#70=VECTOR('',#333,1.);
#71=VECTOR('',#336,1.);
#72=ADVANCED_FACE('',(#91),#84,.F.);
#73=ADVANCED_FACE('',(#92),#49,.T.);
#74=ADVANCED_FACE('',(#42,#43),#85,.F.);
#75=ADVANCED_FACE('',(#44,#45),#40,.T.);
#76=ADVANCED_FACE('',(#93),#86,.F.);
#77=ADVANCED_FACE('',(#46,#47,#48),#87,.T.);
#78=ADVANCED_FACE('',(#94),#41,.T.);
#79=ADVANCED_FACE('',(#95),#88,.T.);
#80=ADVANCED_FACE('',(#96),#50,.T.);
#81=ADVANCED_FACE('',(#97),#89,.F.);
#82=ADVANCED_FACE('',(#98),#51,.T.);
#83=ADVANCED_FACE('',(#99),#90,.F.);
#84=PLANE('',#246);
#85=PLANE('',#252);
#86=PLANE('',#256);
#87=PLANE('',#260);
#88=PLANE('',#266);
#89=PLANE('',#268);
#90=PLANE('',#270);
#91=FACE_OUTER_BOUND('',#100,.T.);
#92=FACE_OUTER_BOUND('',#101,.T.);
#93=FACE_OUTER_BOUND('',#106,.T.);
#94=FACE_OUTER_BOUND('',#110,.T.);
#95=FACE_OUTER_BOUND('',#111,.T.);
#96=FACE_OUTER_BOUND('',#112,.T.);
#97=FACE_OUTER_BOUND('',#113,.T.);
#98=FACE_OUTER_BOUND('',#114,.T.);
#99=FACE_OUTER_BOUND('',#115,.T.);
#100=EDGE_LOOP('',(#116));
#101=EDGE_LOOP('',(#117,#118,#119,#120,#121,#122,#123));
#102=EDGE_LOOP('',(#124,#125,#126,#127));
#103=EDGE_LOOP('',(#128,#129));
#104=EDGE_LOOP('',(#130));
#105=EDGE_LOOP('',(#131));
#106=EDGE_LOOP('',(#132));
#107=EDGE_LOOP('',(#133));
#108=EDGE_LOOP('',(#134,#135,#136,#137));
#109=EDGE_LOOP('',(#138));
#110=EDGE_LOOP('',(#139,#140,#141,#142,#143,#144,#145));
#111=EDGE_LOOP('',(#146,#147));
#112=EDGE_LOOP('',(#148,#149,#150,#151));
#113=EDGE_LOOP('',(#152,#153,#154,#155));
#114=EDGE_LOOP('',(#156,#157,#158,#159));
#115=EDGE_LOOP('',(#160,#161,#162,#163));
#116=ORIENTED_EDGE('',*,*,#182,.F.);
#117=ORIENTED_EDGE('',*,*,#183,.T.);
#118=ORIENTED_EDGE('',*,*,#182,.T.);
#119=ORIENTED_EDGE('',*,*,#183,.F.);
#120=ORIENTED_EDGE('',*,*,#184,.F.);
#121=ORIENTED_EDGE('',*,*,#185,.T.);
#122=ORIENTED_EDGE('',*,*,#185,.F.);
#123=ORIENTED_EDGE('',*,*,#186,.F.);
#124=ORIENTED_EDGE('',*,*,#187,.F.);
#125=ORIENTED_EDGE('',*,*,#188,.F.);
#126=ORIENTED_EDGE('',*,*,#189,.T.);
#127=ORIENTED_EDGE('',*,*,#190,.F.);
#128=ORIENTED_EDGE('',*,*,#186,.T.);
#129=ORIENTED_EDGE('',*,*,#184,.T.);
#130=ORIENTED_EDGE('',*,*,#191,.F.);
#131=ORIENTED_EDGE('',*,*,#192,.F.);
#132=ORIENTED_EDGE('',*,*,#192,.T.);
#133=ORIENTED_EDGE('',*,*,#193,.T.);
#134=ORIENTED_EDGE('',*,*,#194,.T.);
#135=ORIENTED_EDGE('',*,*,#195,.F.);
#136=ORIENTED_EDGE('',*,*,#196,.T.);
#137=ORIENTED_EDGE('',*,*,#197,.F.);
#138=ORIENTED_EDGE('',*,*,#191,.T.);
#139=ORIENTED_EDGE('',*,*,#193,.F.);
#140=ORIENTED_EDGE('',*,*,#198,.F.);
#141=ORIENTED_EDGE('',*,*,#199,.F.);
#142=ORIENTED_EDGE('',*,*,#200,.T.);
#143=ORIENTED_EDGE('',*,*,#200,.F.);
#144=ORIENTED_EDGE('',*,*,#201,.F.);
#145=ORIENTED_EDGE('',*,*,#198,.T.);
#146=ORIENTED_EDGE('',*,*,#201,.T.);
#147=ORIENTED_EDGE('',*,*,#199,.T.);
#148=ORIENTED_EDGE('',*,*,#202,.T.);
#149=ORIENTED_EDGE('',*,*,#195,.T.);
#150=ORIENTED_EDGE('',*,*,#203,.T.);
#151=ORIENTED_EDGE('',*,*,#188,.T.);
#152=ORIENTED_EDGE('',*,*,#203,.F.);
#153=ORIENTED_EDGE('',*,*,#194,.F.);
#154=ORIENTED_EDGE('',*,*,#204,.F.);
#155=ORIENTED_EDGE('',*,*,#189,.F.);
#156=ORIENTED_EDGE('',*,*,#204,.T.);
#157=ORIENTED_EDGE('',*,*,#197,.T.);
#158=ORIENTED_EDGE('',*,*,#205,.T.);
#159=ORIENTED_EDGE('',*,*,#190,.T.);
#160=ORIENTED_EDGE('',*,*,#205,.F.);
#161=ORIENTED_EDGE('',*,*,#196,.F.);
#162=ORIENTED_EDGE('',*,*,#202,.F.);
#163=ORIENTED_EDGE('',*,*,#187,.T.);
#164=VERTEX_POINT('',#346);
#165=VERTEX_POINT('',#349);
#166=VERTEX_POINT('',#351);
#167=VERTEX_POINT('',#353);
#168=VERTEX_POINT('',#357);
#169=VERTEX_POINT('',#358);
#170=VERTEX_POINT('',#360);
#171=VERTEX_POINT('',#362);
#172=VERTEX_POINT('',#366);
#173=VERTEX_POINT('',#368);
#174=VERTEX_POINT('',#372);
#175=VERTEX_POINT('',#374);
#176=VERTEX_POINT('',#375);
#177=VERTEX_POINT('',#377);
#178=VERTEX_POINT('',#379);
#179=VERTEX_POINT('',#383);
#180=VERTEX_POINT('',#385);
#181=VERTEX_POINT('',#387);
#182=EDGE_CURVE('',#164,#164,#206,.T.);
#183=EDGE_CURVE('',#165,#164,#52,.T.);
#184=EDGE_CURVE('',#166,#165,#207,.T.);
#185=EDGE_CURVE('',#166,#167,#53,.T.);
#186=EDGE_CURVE('',#165,#166,#208,.T.);
#187=EDGE_CURVE('',#168,#169,#54,.T.);
#188=EDGE_CURVE('',#170,#168,#209,.T.);
#189=EDGE_CURVE('',#170,#171,#55,.T.);
#190=EDGE_CURVE('',#169,#171,#210,.T.);
#191=EDGE_CURVE('',#172,#172,#211,.T.);
#192=EDGE_CURVE('',#173,#173,#212,.T.);
#193=EDGE_CURVE('',#174,#174,#213,.T.);
#194=EDGE_CURVE('',#175,#176,#56,.T.);
#195=EDGE_CURVE('',#177,#176,#214,.T.);
#196=EDGE_CURVE('',#177,#178,#57,.T.);
#197=EDGE_CURVE('',#175,#178,#215,.T.);
#198=EDGE_CURVE('',#179,#174,#216,.T.);
#199=EDGE_CURVE('',#180,#179,#217,.T.);
#200=EDGE_CURVE('',#180,#181,#218,.T.);
#201=EDGE_CURVE('',#179,#180,#219,.T.);
#202=EDGE_CURVE('',#168,#177,#58,.T.);
#203=EDGE_CURVE('',#176,#170,#59,.T.);
#204=EDGE_CURVE('',#171,#175,#60,.T.);
#205=EDGE_CURVE('',#178,#169,#61,.T.);
#206=CIRCLE('',#245,15.);
#207=CIRCLE('',#247,15.);
#208=CIRCLE('',#248,15.);
#209=CIRCLE('',#250,34.);
#210=CIRCLE('',#251,34.);
#211=CIRCLE('',#253,4.56490963765987);
#212=CIRCLE('',#254,3.531062163146);
#213=CIRCLE('',#257,4.56490963765987);
#214=CIRCLE('',#258,34.);
#215=CIRCLE('',#259,34.);
#216=CIRCLE('',#261,5.);
#217=CIRCLE('',#262,3.531062163146);
#218=CIRCLE('',#263,5.);
#219=CIRCLE('',#264,3.531062163146);
#220=INVISIBILITY((#221,#222,#223,#224));
#221=PRESENTATION_LAYER_ASSIGNMENT('100','Layer 100',(#242));
#222=PRESENTATION_LAYER_ASSIGNMENT('101','Layer 101',(#243));
#223=PRESENTATION_LAYER_ASSIGNMENT('102','Layer 102',(#244));
#224=PRESENTATION_LAYER_ASSIGNMENT('98','Layer 98',(#38));
#225=STYLED_ITEM('',(#229),#242);
#226=STYLED_ITEM('',(#230),#243);
#227=STYLED_ITEM('',(#231),#244);
#228=STYLED_ITEM('',(#232),#38);
#229=PRESENTATION_STYLE_ASSIGNMENT((#233));
#230=PRESENTATION_STYLE_ASSIGNMENT((#234));
#231=PRESENTATION_STYLE_ASSIGNMENT((#235));
#232=PRESENTATION_STYLE_ASSIGNMENT((#33));
#233=CURVE_STYLE('',#238,POSITIVE_LENGTH_MEASURE(0.7),#236);
#234=CURVE_STYLE('',#239,POSITIVE_LENGTH_MEASURE(0.7),#236);
#235=CURVE_STYLE('',#240,POSITIVE_LENGTH_MEASURE(0.7),#236);
#236=COLOUR_RGB('Medium Maroon',0.6,0.4,0.4);
#237=COLOUR_RGB('Medium Gray',0.490196078431373,0.490196078431373,0.490196078431373);
#238=DRAUGHTING_PRE_DEFINED_CURVE_FONT('continuous');
#239=DRAUGHTING_PRE_DEFINED_CURVE_FONT('continuous');
#240=DRAUGHTING_PRE_DEFINED_CURVE_FONT('continuous');
#241=AXIS2_PLACEMENT_3D('',#341,#271,#272);
#242=AXIS2_PLACEMENT_3D('PCS',#342,#273,#274);
#243=AXIS2_PLACEMENT_3D('CSW',#343,#275,#276);
#244=AXIS2_PLACEMENT_3D('MCS',#344,#277,#278);
#245=AXIS2_PLACEMENT_3D('',#345,#279,#280);
#246=AXIS2_PLACEMENT_3D('',#347,#281,#282);
#247=AXIS2_PLACEMENT_3D('',#350,#284,#285);
#248=AXIS2_PLACEMENT_3D('',#354,#287,#288);
#249=AXIS2_PLACEMENT_3D('',#355,#289,#290);
#250=AXIS2_PLACEMENT_3D('',#359,#292,#293);
#251=AXIS2_PLACEMENT_3D('',#363,#295,#296);
#252=AXIS2_PLACEMENT_3D('',#364,#297,#298);
#253=AXIS2_PLACEMENT_3D('',#365,#299,#300);
#254=AXIS2_PLACEMENT_3D('',#367,#301,#302);
#255=AXIS2_PLACEMENT_3D('',#369,#303,#304);
#256=AXIS2_PLACEMENT_3D('',#370,#305,#306);
#257=AXIS2_PLACEMENT_3D('',#371,#307,#308);
#258=AXIS2_PLACEMENT_3D('',#376,#310,#311);
#259=AXIS2_PLACEMENT_3D('',#380,#313,#314);
#260=AXIS2_PLACEMENT_3D('',#381,#315,#316);
#261=AXIS2_PLACEMENT_3D('',#382,#317,#318);
#262=AXIS2_PLACEMENT_3D('',#384,#319,#320);
#263=AXIS2_PLACEMENT_3D('',#386,#321,#322);
#264=AXIS2_PLACEMENT_3D('',#388,#323,#324);
#265=AXIS2_PLACEMENT_3D('',#389,#325,#326);
#266=AXIS2_PLACEMENT_3D('',#390,#327,#328);
#267=AXIS2_PLACEMENT_3D('',#393,#331,#332);
#268=AXIS2_PLACEMENT_3D('',#395,#334,#335);
#269=AXIS2_PLACEMENT_3D('',#397,#337,#338);
#270=AXIS2_PLACEMENT_3D('',#398,#339,#340);
#271=DIRECTION('',(0.,0.,1.));
#272=DIRECTION('',(1.,0.,0.));
#273=DIRECTION('',(0.,0.,1.));
#274=DIRECTION('',(1.,0.,0.));
#275=DIRECTION('',(0.,0.,1.));
#276=DIRECTION('',(1.,0.,0.));
#277=DIRECTION('',(0.,0.,1.));
#278=DIRECTION('',(1.,0.,0.));
#279=DIRECTION('',(0.,0.,-1.));
#280=DIRECTION('',(-1.,0.,0.));
#281=DIRECTION('',(0.,0.,-1.));
#282=DIRECTION('',(0.,1.,0.));
#283=DIRECTION('',(0.,0.,1.));
#284=DIRECTION('',(0.,0.,-1.));
#285=DIRECTION('',(-1.,0.,0.));
#286=DIRECTION('',(0.,0.,1.));
#287=DIRECTION('',(0.,0.,-1.));
#288=DIRECTION('',(-1.,0.,0.));
#289=DIRECTION('',(0.,0.,-1.));
#290=DIRECTION('',(0.,1.,0.));
#291=DIRECTION('',(-1.,0.,0.));
#292=DIRECTION('',(0.,0.,-1.));
#293=DIRECTION('',(-1.,0.,0.));
#294=DIRECTION('',(-1.,0.,0.));
#295=DIRECTION('',(0.,0.,-1.));
#296=DIRECTION('',(-1.,0.,0.));
#297=DIRECTION('',(0.,0.,-1.));
#298=DIRECTION('',(0.,1.,0.));
#299=DIRECTION('',(0.,0.,1.));
#300=DIRECTION('',(-1.,0.,0.));
#301=DIRECTION('',(0.,0.,-1.));
#302=DIRECTION('',(0.,-1.,0.));
#303=DIRECTION('',(0.,-6.12323399573677E-17,1.));
#304=DIRECTION('',(0.,-1.,0.));
#305=DIRECTION('',(0.,0.,1.));
#306=DIRECTION('',(0.,-1.,0.));
#307=DIRECTION('',(0.,0.,1.));
#308=DIRECTION('',(-1.,0.,0.));
#309=DIRECTION('',(1.,0.,0.));
#310=DIRECTION('',(0.,0.,1.));
#311=DIRECTION('',(-1.,0.,0.));
#312=DIRECTION('',(-1.,0.,0.));
#313=DIRECTION('',(0.,0.,1.));
#314=DIRECTION('',(-1.,0.,0.));
#315=DIRECTION('',(0.,0.,-1.));
#316=DIRECTION('',(0.,1.,0.));
#317=DIRECTION('',(1.,0.,0.));
#318=DIRECTION('',(0.,0.706212432629182,-0.707999999999981));
#319=DIRECTION('',(0.,0.,-1.));
#320=DIRECTION('',(0.,-1.,0.));
#321=DIRECTION('',(-1.,0.,0.));
#322=DIRECTION('',(0.,-0.706212432629182,-0.707999999999981));
#323=DIRECTION('',(0.,0.,-1.));
#324=DIRECTION('',(0.,-1.,0.));
#325=DIRECTION('',(0.,-6.12323399573677E-17,-1.));
#326=DIRECTION('',(0.,-1.,0.));
#327=DIRECTION('',(0.,0.,-1.));
#328=DIRECTION('',(0.,-1.,0.));
#329=DIRECTION('',(0.,0.,-1.));
#330=DIRECTION('',(0.,0.,1.));
#331=DIRECTION('',(0.,0.,-1.));
#332=DIRECTION('',(0.,1.,0.));
#333=DIRECTION('',(0.,0.,-1.));
#334=DIRECTION('',(0.,-1.,0.));
#335=DIRECTION('',(-1.,0.,0.));
#336=DIRECTION('',(0.,0.,1.));
#337=DIRECTION('',(0.,0.,-1.));
#338=DIRECTION('',(0.,1.,0.));
#339=DIRECTION('',(0.,1.,0.));
#340=DIRECTION('',(1.,0.,0.));
#341=CARTESIAN_POINT('',(0.,0.,0.));
#342=CARTESIAN_POINT('',(0.,0.,0.));
#343=CARTESIAN_POINT('',(0.,0.,-75.));
#344=CARTESIAN_POINT('',(0.,0.,0.));
#345=CARTESIAN_POINT('',(0.,0.,55.));
#346=CARTESIAN_POINT('',(1.83697019872103E-15,-15.,55.));
#347=CARTESIAN_POINT('',(0.,0.,55.));
#348=CARTESIAN_POINT('',(0.,-15.,2.4));
#349=CARTESIAN_POINT('',(1.83697019872103E-15,-15.,0.));
#350=CARTESIAN_POINT('',(0.,0.,0.));
#351=CARTESIAN_POINT('',(0.,15.,0.));
#352=CARTESIAN_POINT('',(0.,15.,2.4));
#353=CARTESIAN_POINT('',(0.,15.,7.));
#354=CARTESIAN_POINT('',(0.,0.,0.));
#355=CARTESIAN_POINT('',(0.,0.,58.85));
#356=CARTESIAN_POINT('',(0.,-30.,8.67361737988404E-16));
#357=CARTESIAN_POINT('',(16.,-30.,8.67361737988404E-16));
#358=CARTESIAN_POINT('',(-16.,-30.,8.67361737988404E-16));
#359=CARTESIAN_POINT('',(0.,0.,0.));
#360=CARTESIAN_POINT('',(19.2873015219859,28.,8.67361737988404E-16));
#361=CARTESIAN_POINT('',(-34.,28.,8.67361737988404E-16));
#362=CARTESIAN_POINT('',(-19.2873015219859,28.,8.67361737988404E-16));
#363=CARTESIAN_POINT('',(0.,0.,0.));
#364=CARTESIAN_POINT('',(0.,0.,8.67361737988404E-16));
#365=CARTESIAN_POINT('',(-24.,0.,-75.));
#366=CARTESIAN_POINT('',(-28.5649096376599,0.,-75.));
#367=CARTESIAN_POINT('',(-24.,0.,-76.5));
#368=CARTESIAN_POINT('',(-24.,-3.531062163146,-76.5));
#369=CARTESIAN_POINT('',(-24.,0.,-72.96));
#370=CARTESIAN_POINT('',(-24.,0.,-76.5));
#371=CARTESIAN_POINT('',(24.,0.,-75.));
#372=CARTESIAN_POINT('',(24.,4.56490963765987,-75.));
#373=CARTESIAN_POINT('',(-34.,28.,-75.));
#374=CARTESIAN_POINT('',(-19.2873015219859,28.,-75.));
#375=CARTESIAN_POINT('',(19.2873015219859,28.,-75.));
#376=CARTESIAN_POINT('',(0.,0.,-75.));
#377=CARTESIAN_POINT('',(16.,-30.,-75.));
#378=CARTESIAN_POINT('',(34.,-30.,-75.));
#379=CARTESIAN_POINT('',(-16.,-30.,-75.));
#380=CARTESIAN_POINT('',(0.,0.,-75.));
#381=CARTESIAN_POINT('',(0.,0.,-75.));
#382=CARTESIAN_POINT('',(24.,0.,-72.96));
#383=CARTESIAN_POINT('',(24.,3.531062163146,-76.5));
#384=CARTESIAN_POINT('',(24.,0.,-76.5));
#385=CARTESIAN_POINT('',(24.,-3.531062163146,-76.5));
#386=CARTESIAN_POINT('',(24.,0.,-72.96));
#387=CARTESIAN_POINT('',(24.,-4.542235132619,-75.05));
#388=CARTESIAN_POINT('',(24.,0.,-76.5));
#389=CARTESIAN_POINT('',(24.,0.,-72.96));
#390=CARTESIAN_POINT('',(24.,0.,-76.5));
#391=CARTESIAN_POINT('',(16.,-30.,-0.999999999999999));
#392=CARTESIAN_POINT('',(19.28730152199,28.,-73.5));
#393=CARTESIAN_POINT('',(0.,0.,58.85));
#394=CARTESIAN_POINT('',(-19.28730152199,28.,-0.999999999999999));
#395=CARTESIAN_POINT('',(-34.,28.,8.67361737988404E-16));
#396=CARTESIAN_POINT('',(-16.,-30.,-73.5));
#397=CARTESIAN_POINT('',(0.,0.,58.85));
#398=CARTESIAN_POINT('',(34.,-30.,8.67361737988404E-16));
#399=MECHANICAL_DESIGN_GEOMETRIC_PRESENTATION_REPRESENTATION('',(#225,#226,
#227,#228),#400);
#400=(
GEOMETRIC_REPRESENTATION_CONTEXT(3)
GLOBAL_UNCERTAINTY_ASSIGNED_CONTEXT((#401))
GLOBAL_UNIT_ASSIGNED_CONTEXT((#407,#403,#402))
REPRESENTATION_CONTEXT('VDI.30-E2','TOP_LEVEL_ASSEMBLY_PART')
);
#401=UNCERTAINTY_MEASURE_WITH_UNIT(LENGTH_MEASURE(2.E-5),#407,
'DISTANCE_ACCURACY_VALUE','Maximum Tolerance applied to model');
#402=(
NAMED_UNIT(*)
SI_UNIT($,.STERADIAN.)
SOLID_ANGLE_UNIT()
);
#403=(
CONVERSION_BASED_UNIT('DEGREE',#405)
NAMED_UNIT(#404)
PLANE_ANGLE_UNIT()
);
#404=DIMENSIONAL_EXPONENTS(0.,0.,0.,0.,0.,0.,0.);
#405=PLANE_ANGLE_MEASURE_WITH_UNIT(PLANE_ANGLE_MEASURE(0.0174532925),#406);
#406=(
NAMED_UNIT(*)
PLANE_ANGLE_UNIT()
SI_UNIT($,.RADIAN.)
);
#407=(
LENGTH_UNIT()
NAMED_UNIT(*)
SI_UNIT(.MILLI.,.METRE.)
);
ENDSEC;
END-ISO-10303-21;
