ISO-10303-21;
HEADER;
/* Generated by software containing ST-Developer
 * from STEP Tools, Inc. (www.steptools.com) 
 */
/* OPTION: using custom schema-name function */

FILE_DESCRIPTION(
/* description */ (''),
/* implementation_level */ '2;1');

FILE_NAME(
/* name */ 'SVXBR1616H11_SIM.stp',
/* time_stamp */ '2023-02-04T09:25:36+01:00',
/* author */ (''),
/* organization */ (''),
/* preprocessor_version */ 'ST-DEVELOPER v18.102',
/* originating_system */ 'SIEMENS PLM Software NX 2027',
/* authorisation */ '');

FILE_SCHEMA (('AUTOMOTIVE_DESIGN { 1 0 10303 214 3 1 1 1 }'));
ENDSEC;

DATA;
#10=SHAPE_REPRESENTATION_RELATIONSHIP('None',
'relationship between model1-None and model1-None',#22,#11);
#11=ADVANCED_BREP_SHAPE_REPRESENTATION('model1-None',(#63,#64),#588);
#12=SHAPE_DEFINITION_REPRESENTATION(#13,#22);
#13=PRODUCT_DEFINITION_SHAPE('','',#14);
#14=PRODUCT_DEFINITION(' ','',#16,#15);
#15=PRODUCT_DEFINITION_CONTEXT('part definition',#21,'design');
#16=PRODUCT_DEFINITION_FORMATION_WITH_SPECIFIED_SOURCE(' ',' ',#18,
 .NOT_KNOWN.);
#17=PRODUCT_RELATED_PRODUCT_CATEGORY('part','',(#18));
#18=PRODUCT('model1','model1',' ',(#19));
#19=PRODUCT_CONTEXT(' ',#21,'mechanical');
#20=APPLICATION_PROTOCOL_DEFINITION('international standard',
'automotive_design',2010,#21);
#21=APPLICATION_CONTEXT(
'core data for automotive mechanical design processes');
#22=SHAPE_REPRESENTATION('model1-None',(#371),#588);
#23=TOROIDAL_SURFACE('',#399,2.9,1.5);
#24=CONICAL_SURFACE('',#388,0.4,4.99999999999999);
#25=CONICAL_SURFACE('',#393,0.4,4.99999999999999);
#26=CYLINDRICAL_SURFACE('',#383,1.4);
#27=CYLINDRICAL_SURFACE('',#398,1.9);
#28=FACE_BOUND('',#126,.T.);
#29=FACE_BOUND('',#127,.T.);
#30=FACE_BOUND('',#134,.T.);
#31=FACE_BOUND('',#135,.T.);
#32=FACE_BOUND('',#136,.T.);
#33=FACE_BOUND('',#137,.T.);
#34=FACE_BOUND('',#138,.T.);
#35=FACE_BOUND('',#139,.T.);
#36=FACE_BOUND('',#140,.T.);
#37=FACE_BOUND('',#141,.T.);
#38=CIRCLE('',#381,1.4);
#39=CIRCLE('',#382,1.4);
#40=CIRCLE('',#386,0.4);
#41=CIRCLE('',#387,0.121786049987563);
#42=CIRCLE('',#391,0.4);
#43=CIRCLE('',#392,0.121786049987562);
#44=CIRCLE('',#395,1.9);
#45=CIRCLE('',#397,1.9);
#46=PRESENTATION_LAYER_ASSIGNMENT('1','Layer 1',(#63,#64));
#47=STYLED_ITEM('',(#49),#63);
#48=STYLED_ITEM('',(#50),#64);
#49=PRESENTATION_STYLE_ASSIGNMENT((#51));
#50=PRESENTATION_STYLE_ASSIGNMENT((#52));
#51=SURFACE_STYLE_USAGE(.BOTH.,#53);
#52=SURFACE_STYLE_USAGE(.BOTH.,#54);
#53=SURFACE_SIDE_STYLE('',(#55));
#54=SURFACE_SIDE_STYLE('',(#56));
#55=SURFACE_STYLE_FILL_AREA(#57);
#56=SURFACE_STYLE_FILL_AREA(#58);
#57=FILL_AREA_STYLE('',(#59));
#58=FILL_AREA_STYLE('',(#60));
#59=FILL_AREA_STYLE_COLOUR('',#61);
#60=FILL_AREA_STYLE_COLOUR('',#62);
#61=COLOUR_RGB('medium gray',0.490196078431373,0.490196078431373,0.490196078431373);
#62=COLOUR_RGB('light gray',0.8,0.8,0.8);
#63=MANIFOLD_SOLID_BREP('',#65);
#64=MANIFOLD_SOLID_BREP('',#66);
#65=CLOSED_SHELL('',(#67,#68,#69,#70,#71,#72,#73,#74,#75));
#66=CLOSED_SHELL('',(#76,#77,#78,#79,#80,#81,#82,#83,#84,#85,#86));
#67=ADVANCED_FACE('',(#102),#87,.F.);
#68=ADVANCED_FACE('',(#103),#88,.F.);
#69=ADVANCED_FACE('',(#104),#89,.T.);
#70=ADVANCED_FACE('',(#105),#90,.T.);
#71=ADVANCED_FACE('',(#106),#91,.F.);
#72=ADVANCED_FACE('',(#107),#92,.F.);
#73=ADVANCED_FACE('',(#108),#93,.F.);
#74=ADVANCED_FACE('',(#109),#94,.F.);
#75=ADVANCED_FACE('',(#110),#95,.F.);
#76=ADVANCED_FACE('',(#28,#29),#26,.F.);
#77=ADVANCED_FACE('',(#111),#96,.T.);
#78=ADVANCED_FACE('',(#112),#97,.T.);
#79=ADVANCED_FACE('',(#113),#24,.T.);
#80=ADVANCED_FACE('',(#114),#98,.T.);
#81=ADVANCED_FACE('',(#115),#99,.T.);
#82=ADVANCED_FACE('',(#116),#25,.T.);
#83=ADVANCED_FACE('',(#30,#31),#100,.T.);
#84=ADVANCED_FACE('',(#32,#33),#101,.F.);
#85=ADVANCED_FACE('',(#34,#35),#27,.F.);
#86=ADVANCED_FACE('',(#36,#37),#23,.T.);
#87=PLANE('',#372);
#88=PLANE('',#373);
#89=PLANE('',#374);
#90=PLANE('',#375);
#91=PLANE('',#376);
#92=PLANE('',#377);
#93=PLANE('',#378);
#94=PLANE('',#379);
#95=PLANE('',#380);
#96=PLANE('',#384);
#97=PLANE('',#385);
#98=PLANE('',#389);
#99=PLANE('',#390);
#100=PLANE('',#394);
#101=PLANE('',#396);
#102=FACE_OUTER_BOUND('',#117,.T.);
#103=FACE_OUTER_BOUND('',#118,.T.);
#104=FACE_OUTER_BOUND('',#119,.T.);
#105=FACE_OUTER_BOUND('',#120,.T.);
#106=FACE_OUTER_BOUND('',#121,.T.);
#107=FACE_OUTER_BOUND('',#122,.T.);
#108=FACE_OUTER_BOUND('',#123,.T.);
#109=FACE_OUTER_BOUND('',#124,.T.);
#110=FACE_OUTER_BOUND('',#125,.T.);
#111=FACE_OUTER_BOUND('',#128,.T.);
#112=FACE_OUTER_BOUND('',#129,.T.);
#113=FACE_OUTER_BOUND('',#130,.T.);
#114=FACE_OUTER_BOUND('',#131,.T.);
#115=FACE_OUTER_BOUND('',#132,.T.);
#116=FACE_OUTER_BOUND('',#133,.T.);
#117=EDGE_LOOP('',(#142,#143,#144,#145));
#118=EDGE_LOOP('',(#146,#147,#148,#149));
#119=EDGE_LOOP('',(#150,#151,#152,#153,#154,#155,#156));
#120=EDGE_LOOP('',(#157,#158,#159,#160));
#121=EDGE_LOOP('',(#161,#162,#163,#164,#165,#166,#167));
#122=EDGE_LOOP('',(#168,#169,#170,#171));
#123=EDGE_LOOP('',(#172,#173,#174,#175));
#124=EDGE_LOOP('',(#176,#177,#178,#179));
#125=EDGE_LOOP('',(#180,#181,#182,#183));
#126=EDGE_LOOP('',(#184));
#127=EDGE_LOOP('',(#185));
#128=EDGE_LOOP('',(#186,#187,#188,#189));
#129=EDGE_LOOP('',(#190,#191,#192,#193));
#130=EDGE_LOOP('',(#194,#195,#196,#197));
#131=EDGE_LOOP('',(#198,#199,#200,#201));
#132=EDGE_LOOP('',(#202,#203,#204,#205));
#133=EDGE_LOOP('',(#206,#207,#208,#209));
#134=EDGE_LOOP('',(#210));
#135=EDGE_LOOP('',(#211,#212,#213,#214,#215,#216));
#136=EDGE_LOOP('',(#217));
#137=EDGE_LOOP('',(#218,#219,#220,#221,#222,#223));
#138=EDGE_LOOP('',(#224));
#139=EDGE_LOOP('',(#225));
#140=EDGE_LOOP('',(#226));
#141=EDGE_LOOP('',(#227));
#142=ORIENTED_EDGE('',*,*,#258,.T.);
#143=ORIENTED_EDGE('',*,*,#259,.F.);
#144=ORIENTED_EDGE('',*,*,#260,.F.);
#145=ORIENTED_EDGE('',*,*,#261,.T.);
#146=ORIENTED_EDGE('',*,*,#262,.F.);
#147=ORIENTED_EDGE('',*,*,#263,.T.);
#148=ORIENTED_EDGE('',*,*,#264,.F.);
#149=ORIENTED_EDGE('',*,*,#265,.F.);
#150=ORIENTED_EDGE('',*,*,#266,.T.);
#151=ORIENTED_EDGE('',*,*,#258,.F.);
#152=ORIENTED_EDGE('',*,*,#267,.F.);
#153=ORIENTED_EDGE('',*,*,#268,.F.);
#154=ORIENTED_EDGE('',*,*,#269,.F.);
#155=ORIENTED_EDGE('',*,*,#270,.F.);
#156=ORIENTED_EDGE('',*,*,#263,.F.);
#157=ORIENTED_EDGE('',*,*,#259,.T.);
#158=ORIENTED_EDGE('',*,*,#266,.F.);
#159=ORIENTED_EDGE('',*,*,#262,.T.);
#160=ORIENTED_EDGE('',*,*,#271,.T.);
#161=ORIENTED_EDGE('',*,*,#271,.F.);
#162=ORIENTED_EDGE('',*,*,#265,.T.);
#163=ORIENTED_EDGE('',*,*,#272,.T.);
#164=ORIENTED_EDGE('',*,*,#273,.T.);
#165=ORIENTED_EDGE('',*,*,#274,.T.);
#166=ORIENTED_EDGE('',*,*,#275,.T.);
#167=ORIENTED_EDGE('',*,*,#260,.T.);
#168=ORIENTED_EDGE('',*,*,#270,.T.);
#169=ORIENTED_EDGE('',*,*,#276,.F.);
#170=ORIENTED_EDGE('',*,*,#272,.F.);
#171=ORIENTED_EDGE('',*,*,#264,.T.);
#172=ORIENTED_EDGE('',*,*,#269,.T.);
#173=ORIENTED_EDGE('',*,*,#277,.F.);
#174=ORIENTED_EDGE('',*,*,#273,.F.);
#175=ORIENTED_EDGE('',*,*,#276,.T.);
#176=ORIENTED_EDGE('',*,*,#268,.T.);
#177=ORIENTED_EDGE('',*,*,#278,.F.);
#178=ORIENTED_EDGE('',*,*,#274,.F.);
#179=ORIENTED_EDGE('',*,*,#277,.T.);
#180=ORIENTED_EDGE('',*,*,#267,.T.);
#181=ORIENTED_EDGE('',*,*,#261,.F.);
#182=ORIENTED_EDGE('',*,*,#275,.F.);
#183=ORIENTED_EDGE('',*,*,#278,.T.);
#184=ORIENTED_EDGE('',*,*,#279,.T.);
#185=ORIENTED_EDGE('',*,*,#280,.F.);
#186=ORIENTED_EDGE('',*,*,#281,.T.);
#187=ORIENTED_EDGE('',*,*,#282,.F.);
#188=ORIENTED_EDGE('',*,*,#283,.F.);
#189=ORIENTED_EDGE('',*,*,#284,.T.);
#190=ORIENTED_EDGE('',*,*,#285,.T.);
#191=ORIENTED_EDGE('',*,*,#286,.F.);
#192=ORIENTED_EDGE('',*,*,#287,.F.);
#193=ORIENTED_EDGE('',*,*,#282,.T.);
#194=ORIENTED_EDGE('',*,*,#288,.T.);
#195=ORIENTED_EDGE('',*,*,#289,.F.);
#196=ORIENTED_EDGE('',*,*,#290,.F.);
#197=ORIENTED_EDGE('',*,*,#286,.T.);
#198=ORIENTED_EDGE('',*,*,#291,.T.);
#199=ORIENTED_EDGE('',*,*,#292,.F.);
#200=ORIENTED_EDGE('',*,*,#293,.F.);
#201=ORIENTED_EDGE('',*,*,#289,.T.);
#202=ORIENTED_EDGE('',*,*,#294,.T.);
#203=ORIENTED_EDGE('',*,*,#295,.F.);
#204=ORIENTED_EDGE('',*,*,#296,.F.);
#205=ORIENTED_EDGE('',*,*,#292,.T.);
#206=ORIENTED_EDGE('',*,*,#297,.T.);
#207=ORIENTED_EDGE('',*,*,#284,.F.);
#208=ORIENTED_EDGE('',*,*,#298,.F.);
#209=ORIENTED_EDGE('',*,*,#295,.T.);
#210=ORIENTED_EDGE('',*,*,#280,.T.);
#211=ORIENTED_EDGE('',*,*,#283,.T.);
#212=ORIENTED_EDGE('',*,*,#287,.T.);
#213=ORIENTED_EDGE('',*,*,#290,.T.);
#214=ORIENTED_EDGE('',*,*,#293,.T.);
#215=ORIENTED_EDGE('',*,*,#296,.T.);
#216=ORIENTED_EDGE('',*,*,#298,.T.);
#217=ORIENTED_EDGE('',*,*,#299,.F.);
#218=ORIENTED_EDGE('',*,*,#281,.F.);
#219=ORIENTED_EDGE('',*,*,#297,.F.);
#220=ORIENTED_EDGE('',*,*,#294,.F.);
#221=ORIENTED_EDGE('',*,*,#291,.F.);
#222=ORIENTED_EDGE('',*,*,#288,.F.);
#223=ORIENTED_EDGE('',*,*,#285,.F.);
#224=ORIENTED_EDGE('',*,*,#300,.T.);
#225=ORIENTED_EDGE('',*,*,#299,.T.);
#226=ORIENTED_EDGE('',*,*,#279,.F.);
#227=ORIENTED_EDGE('',*,*,#300,.F.);
#228=VERTEX_POINT('',#495);
#229=VERTEX_POINT('',#496);
#230=VERTEX_POINT('',#498);
#231=VERTEX_POINT('',#500);
#232=VERTEX_POINT('',#504);
#233=VERTEX_POINT('',#505);
#234=VERTEX_POINT('',#507);
#235=VERTEX_POINT('',#509);
#236=VERTEX_POINT('',#514);
#237=VERTEX_POINT('',#516);
#238=VERTEX_POINT('',#518);
#239=VERTEX_POINT('',#524);
#240=VERTEX_POINT('',#526);
#241=VERTEX_POINT('',#528);
#242=VERTEX_POINT('',#539);
#243=VERTEX_POINT('',#541);
#244=VERTEX_POINT('',#544);
#245=VERTEX_POINT('',#545);
#246=VERTEX_POINT('',#547);
#247=VERTEX_POINT('',#549);
#248=VERTEX_POINT('',#553);
#249=VERTEX_POINT('',#555);
#250=VERTEX_POINT('',#559);
#251=VERTEX_POINT('',#561);
#252=VERTEX_POINT('',#565);
#253=VERTEX_POINT('',#567);
#254=VERTEX_POINT('',#571);
#255=VERTEX_POINT('',#573);
#256=VERTEX_POINT('',#581);
#257=VERTEX_POINT('',#584);
#258=EDGE_CURVE('',#228,#229,#301,.T.);
#259=EDGE_CURVE('',#230,#229,#302,.T.);
#260=EDGE_CURVE('',#231,#230,#303,.T.);
#261=EDGE_CURVE('',#231,#228,#304,.T.);
#262=EDGE_CURVE('',#232,#233,#305,.T.);
#263=EDGE_CURVE('',#232,#234,#306,.T.);
#264=EDGE_CURVE('',#235,#234,#307,.T.);
#265=EDGE_CURVE('',#233,#235,#308,.T.);
#266=EDGE_CURVE('',#232,#229,#309,.T.);
#267=EDGE_CURVE('',#236,#228,#310,.T.);
#268=EDGE_CURVE('',#237,#236,#311,.T.);
#269=EDGE_CURVE('',#238,#237,#312,.T.);
#270=EDGE_CURVE('',#234,#238,#313,.T.);
#271=EDGE_CURVE('',#233,#230,#314,.T.);
#272=EDGE_CURVE('',#235,#239,#315,.T.);
#273=EDGE_CURVE('',#239,#240,#316,.T.);
#274=EDGE_CURVE('',#240,#241,#317,.T.);
#275=EDGE_CURVE('',#241,#231,#318,.T.);
#276=EDGE_CURVE('',#239,#238,#319,.T.);
#277=EDGE_CURVE('',#240,#237,#320,.T.);
#278=EDGE_CURVE('',#241,#236,#321,.T.);
#279=EDGE_CURVE('',#242,#242,#38,.T.);
#280=EDGE_CURVE('',#243,#243,#39,.T.);
#281=EDGE_CURVE('',#244,#245,#322,.T.);
#282=EDGE_CURVE('',#246,#245,#323,.T.);
#283=EDGE_CURVE('',#247,#246,#324,.T.);
#284=EDGE_CURVE('',#247,#244,#325,.T.);
#285=EDGE_CURVE('',#245,#248,#326,.T.);
#286=EDGE_CURVE('',#249,#248,#327,.T.);
#287=EDGE_CURVE('',#246,#249,#328,.T.);
#288=EDGE_CURVE('',#248,#250,#40,.T.);
#289=EDGE_CURVE('',#251,#250,#329,.T.);
#290=EDGE_CURVE('',#249,#251,#41,.T.);
#291=EDGE_CURVE('',#250,#252,#330,.T.);
#292=EDGE_CURVE('',#253,#252,#331,.T.);
#293=EDGE_CURVE('',#251,#253,#332,.T.);
#294=EDGE_CURVE('',#252,#254,#333,.T.);
#295=EDGE_CURVE('',#255,#254,#334,.T.);
#296=EDGE_CURVE('',#253,#255,#335,.T.);
#297=EDGE_CURVE('',#254,#244,#42,.T.);
#298=EDGE_CURVE('',#255,#247,#43,.T.);
#299=EDGE_CURVE('',#256,#256,#44,.T.);
#300=EDGE_CURVE('',#257,#257,#45,.T.);
#301=LINE('',#494,#336);
#302=LINE('',#497,#337);
#303=LINE('',#499,#338);
#304=LINE('',#501,#339);
#305=LINE('',#503,#340);
#306=LINE('',#506,#341);
#307=LINE('',#508,#342);
#308=LINE('',#510,#343);
#309=LINE('',#512,#344);
#310=LINE('',#513,#345);
#311=LINE('',#515,#346);
#312=LINE('',#517,#347);
#313=LINE('',#519,#348);
#314=LINE('',#521,#349);
#315=LINE('',#523,#350);
#316=LINE('',#525,#351);
#317=LINE('',#527,#352);
#318=LINE('',#529,#353);
#319=LINE('',#531,#354);
#320=LINE('',#533,#355);
#321=LINE('',#535,#356);
#322=LINE('',#543,#357);
#323=LINE('',#546,#358);
#324=LINE('',#548,#359);
#325=LINE('',#550,#360);
#326=LINE('',#552,#361);
#327=LINE('',#554,#362);
#328=LINE('',#556,#363);
#329=LINE('',#560,#364);
#330=LINE('',#564,#365);
#331=LINE('',#566,#366);
#332=LINE('',#568,#367);
#333=LINE('',#570,#368);
#334=LINE('',#572,#369);
#335=LINE('',#574,#370);
#336=VECTOR('',#402,1.);
#337=VECTOR('',#403,1.);
#338=VECTOR('',#404,1.);
#339=VECTOR('',#405,1.);
#340=VECTOR('',#408,1.);
#341=VECTOR('',#409,1.);
#342=VECTOR('',#410,1.);
#343=VECTOR('',#411,1.);
#344=VECTOR('',#414,1.);
#345=VECTOR('',#415,1.);
#346=VECTOR('',#416,1.);
#347=VECTOR('',#417,1.);
#348=VECTOR('',#418,1.);
#349=VECTOR('',#421,1.);
#350=VECTOR('',#424,1.);
#351=VECTOR('',#425,1.);
#352=VECTOR('',#426,1.);
#353=VECTOR('',#427,1.);
#354=VECTOR('',#430,1.);
#355=VECTOR('',#433,1.);
#356=VECTOR('',#436,1.);
#357=VECTOR('',#447,1.);
#358=VECTOR('',#448,1.);
#359=VECTOR('',#449,1.);
#360=VECTOR('',#450,1.);
#361=VECTOR('',#453,1.);
#362=VECTOR('',#454,1.);
#363=VECTOR('',#455,1.);
#364=VECTOR('',#460,1.);
#365=VECTOR('',#465,1.);
#366=VECTOR('',#466,1.);
#367=VECTOR('',#467,1.);
#368=VECTOR('',#470,1.);
#369=VECTOR('',#471,1.);
#370=VECTOR('',#472,1.);
#371=AXIS2_PLACEMENT_3D('',#493,#400,#401);
#372=AXIS2_PLACEMENT_3D('',#502,#406,#407);
#373=AXIS2_PLACEMENT_3D('',#511,#412,#413);
#374=AXIS2_PLACEMENT_3D('',#520,#419,#420);
#375=AXIS2_PLACEMENT_3D('',#522,#422,#423);
#376=AXIS2_PLACEMENT_3D('',#530,#428,#429);
#377=AXIS2_PLACEMENT_3D('',#532,#431,#432);
#378=AXIS2_PLACEMENT_3D('',#534,#434,#435);
#379=AXIS2_PLACEMENT_3D('',#536,#437,#438);
#380=AXIS2_PLACEMENT_3D('',#537,#439,#440);
#381=AXIS2_PLACEMENT_3D('',#538,#441,#442);
#382=AXIS2_PLACEMENT_3D('',#540,#443,#444);
#383=AXIS2_PLACEMENT_3D('',#542,#445,#446);
#384=AXIS2_PLACEMENT_3D('',#551,#451,#452);
#385=AXIS2_PLACEMENT_3D('',#557,#456,#457);
#386=AXIS2_PLACEMENT_3D('',#558,#458,#459);
#387=AXIS2_PLACEMENT_3D('',#562,#461,#462);
#388=AXIS2_PLACEMENT_3D('',#563,#463,#464);
#389=AXIS2_PLACEMENT_3D('',#569,#468,#469);
#390=AXIS2_PLACEMENT_3D('',#575,#473,#474);
#391=AXIS2_PLACEMENT_3D('',#576,#475,#476);
#392=AXIS2_PLACEMENT_3D('',#577,#477,#478);
#393=AXIS2_PLACEMENT_3D('',#578,#479,#480);
#394=AXIS2_PLACEMENT_3D('',#579,#481,#482);
#395=AXIS2_PLACEMENT_3D('',#580,#483,#484);
#396=AXIS2_PLACEMENT_3D('',#582,#485,#486);
#397=AXIS2_PLACEMENT_3D('',#583,#487,#488);
#398=AXIS2_PLACEMENT_3D('',#585,#489,#490);
#399=AXIS2_PLACEMENT_3D('',#586,#491,#492);
#400=DIRECTION('',(0.,0.,1.));
#401=DIRECTION('',(1.,0.,0.));
#402=DIRECTION('',(-0.99026806874157,-0.139173100960069,0.));
#403=DIRECTION('',(0.,0.,1.));
#404=DIRECTION('',(-0.99026806874157,-0.139173100960069,0.));
#405=DIRECTION('',(0.,0.,1.));
#406=DIRECTION('',(-0.139173100960069,0.99026806874157,0.));
#407=DIRECTION('',(-0.99026806874157,-0.139173100960069,0.));
#408=DIRECTION('',(0.,0.,-1.));
#409=DIRECTION('',(0.731353701619113,0.681998360062561,0.));
#410=DIRECTION('',(0.,0.,1.));
#411=DIRECTION('',(0.731353701619113,0.681998360062561,0.));
#412=DIRECTION('',(0.68199836006256,-0.731353701619113,0.));
#413=DIRECTION('',(0.731353701619113,0.68199836006256,0.));
#414=DIRECTION('',(0.430511096808305,-0.902585284349856,0.));
#415=DIRECTION('',(-0.707106781186544,-0.707106781186551,0.));
#416=DIRECTION('',(-1.,-1.722885941297E-16,0.));
#417=DIRECTION('',(5.59835121147259E-17,-1.,0.));
#418=DIRECTION('',(1.,-5.21229518574494E-21,0.));
#419=DIRECTION('',(0.,0.,1.));
#420=DIRECTION('',(1.,0.,0.));
#421=DIRECTION('',(0.430511096808305,-0.902585284349856,0.));
#422=DIRECTION('',(-0.902585284349856,-0.430511096808305,0.));
#423=DIRECTION('',(0.430511096808305,-0.902585284349856,0.));
#424=DIRECTION('',(1.,-5.21229518574494E-21,0.));
#425=DIRECTION('',(5.59835121147259E-17,-1.,0.));
#426=DIRECTION('',(-1.,-1.722885941297E-16,0.));
#427=DIRECTION('',(-0.707106781186544,-0.707106781186551,0.));
#428=DIRECTION('',(0.,0.,1.));
#429=DIRECTION('',(1.,0.,0.));
#430=DIRECTION('',(0.,0.,1.));
#431=DIRECTION('',(-5.21229518574494E-21,-1.,0.));
#432=DIRECTION('',(1.,0.,0.));
#433=DIRECTION('',(0.,0.,1.));
#434=DIRECTION('',(-1.,-5.59835121147259E-17,0.));
#435=DIRECTION('',(5.55111512312578E-17,-1.,0.));
#436=DIRECTION('',(0.,0.,1.));
#437=DIRECTION('',(-1.722885941297E-16,1.,0.));
#438=DIRECTION('',(-1.,-1.72604985859692E-16,0.));
#439=DIRECTION('',(-0.707106781186551,0.707106781186544,0.));
#440=DIRECTION('',(-0.707106781186544,-0.707106781186551,0.));
#441=DIRECTION('',(3.89243698141068E-18,-2.76961282438182E-17,1.));
#442=DIRECTION('',(0.902585284349861,0.430511096808295,0.));
#443=DIRECTION('',(3.89243698141068E-18,-2.76961282438182E-17,1.));
#444=DIRECTION('',(0.902585284349861,0.430511096808295,0.));
#445=DIRECTION('',(3.89243698141068E-18,-2.76961282438182E-17,1.));
#446=DIRECTION('',(0.902585284349861,0.430511096808295,0.));
#447=DIRECTION('',(0.731353701619171,0.681998360062498,1.60419658476906E-17));
#448=DIRECTION('',(-0.0393275542563245,0.08245193214389,0.995818769838144));
#449=DIRECTION('',(0.731353701619171,0.681998360062498,1.60419658476906E-17));
#450=DIRECTION('',(-0.0594400736239317,0.0637416750758679,0.996194698091746));
#451=DIRECTION('',(-0.679403150401525,0.728570679982791,-0.0871557427476581));
#452=DIRECTION('',(-0.731353701619171,-0.681998360062498,-1.60419658476906E-17));
#453=DIRECTION('',(0.99026806874157,0.139173100960065,1.54074395550979E-33));
#454=DIRECTION('',(-0.0121297349846695,0.0863075490504605,0.996194698091746));
#455=DIRECTION('',(0.99026806874157,0.139173100960065,1.54074395550979E-33));
#456=DIRECTION('',(-0.138643505293404,0.986499799769904,-0.0871557427476581));
#457=DIRECTION('',(-0.99026806874157,-0.139173100960065,-1.54074395550979E-33));
#458=DIRECTION('',(-3.89243698141068E-18,2.76961282438182E-17,-1.));
#459=DIRECTION('',(0.902585284349861,0.430511096808296,8.41023420790889E-18));
#460=DIRECTION('',(0.0594400736239318,-0.063741675075868,0.996194698091746));
#461=DIRECTION('',(-3.89243698141068E-18,2.76961282438182E-17,-1.));
#462=DIRECTION('',(-0.902585284349855,-0.430511096808289,0.));
#463=DIRECTION('',(3.89243698141068E-18,-2.76961282438182E-17,1.));
#464=DIRECTION('',(0.902585284349861,0.430511096808295,-1.8934349589808E-18));
#465=DIRECTION('',(-0.731353701619171,-0.681998360062498,-1.60419658476906E-17));
#466=DIRECTION('',(0.0393275542563245,-0.0824519321438901,0.995818769838144));
#467=DIRECTION('',(-0.731353701619171,-0.681998360062498,-1.60419658476906E-17));
#468=DIRECTION('',(0.679403150401526,-0.72857067998279,-0.0871557427476581));
#469=DIRECTION('',(0.731353701619171,0.681998360062498,1.60419658476906E-17));
#470=DIRECTION('',(-0.99026806874157,-0.139173100960064,1.84889274661175E-32));
#471=DIRECTION('',(0.0121297349846694,-0.0863075490504605,0.996194698091746));
#472=DIRECTION('',(-0.99026806874157,-0.139173100960064,1.84889274661175E-32));
#473=DIRECTION('',(0.138643505293403,-0.986499799769905,-0.0871557427476581));
#474=DIRECTION('',(0.99026806874157,0.139173100960064,-1.84889274661175E-32));
#475=DIRECTION('',(-3.89243698141068E-18,2.76961282438182E-17,-1.));
#476=DIRECTION('',(0.902585284349861,0.430511096808294,8.4102342079089E-18));
#477=DIRECTION('',(-3.89243698141068E-18,2.76961282438182E-17,-1.));
#478=DIRECTION('',(-0.902585284349861,-0.430511096808294,0.));
#479=DIRECTION('',(3.89243698141068E-18,-2.76961282438182E-17,1.));
#480=DIRECTION('',(0.902585284349861,0.430511096808295,-1.27289745141559E-19));
#481=DIRECTION('',(-3.89243698141068E-18,2.76961282438182E-17,-1.));
#482=DIRECTION('',(-0.902585284349861,-0.430511096808294,-8.23993651088983E-18));
#483=DIRECTION('',(3.89243698141068E-18,-2.76961282438182E-17,1.));
#484=DIRECTION('',(0.902585284349861,0.430511096808294,8.4102342079089E-18));
#485=DIRECTION('',(-3.89243698141068E-18,2.76961282438182E-17,-1.));
#486=DIRECTION('',(-0.902585284349861,-0.430511096808294,-8.4102342079089E-18));
#487=DIRECTION('',(-3.89243698141068E-18,2.76961282438182E-17,-1.));
#488=DIRECTION('',(0.902585284349861,0.430511096808294,0.));
#489=DIRECTION('',(3.89243698141068E-18,-2.76961282438182E-17,1.));
#490=DIRECTION('',(0.902585284349861,0.430511096808294,0.));
#491=DIRECTION('',(3.89243698141068E-18,-2.76961282438182E-17,1.));
#492=DIRECTION('',(0.902585284349861,0.430511096808294,0.));
#493=CARTESIAN_POINT('',(0.,0.,0.));
#494=CARTESIAN_POINT('',(20.0614046062571,3.27206535377582,-0.135));
#495=CARTESIAN_POINT('',(20.0614046062571,3.27206535377582,-0.135));
#496=CARTESIAN_POINT('',(2.00396843115007,0.734258201141071,-0.135));
#497=CARTESIAN_POINT('',(2.00396843115007,0.734258201141071,-16.));
#498=CARTESIAN_POINT('',(2.00396843115007,0.734258201141071,-16.));
#499=CARTESIAN_POINT('',(20.0614046062571,3.27206535377582,-16.));
#500=CARTESIAN_POINT('',(20.0614046062571,3.27206535377582,-16.));
#501=CARTESIAN_POINT('',(20.0614046062571,3.27206535377582,-16.));
#502=CARTESIAN_POINT('',(20.0614046062571,3.27206535377582,-16.));
#503=CARTESIAN_POINT('',(1.83176399242677,1.09529231488097,-16.));
#504=CARTESIAN_POINT('',(1.83176399242677,1.09529231488087,-0.13500000000001));
#505=CARTESIAN_POINT('',(1.83176399242677,1.09529231488092,-16.));
#506=CARTESIAN_POINT('',(1.34533925248197,0.64169390661167,-0.135));
#507=CARTESIAN_POINT('',(22.5560482130291,20.4210000000006,-0.135));
#508=CARTESIAN_POINT('',(22.5560482130291,20.4210000000006,-16.));
#509=CARTESIAN_POINT('',(22.5560482130291,20.4210000000006,-16.));
#510=CARTESIAN_POINT('',(1.34533925248197,0.64169390661167,-16.));
#511=CARTESIAN_POINT('',(1.34533925248197,0.64169390661167,-16.));
#512=CARTESIAN_POINT('',(1.35820178593757,2.08813612766582,-0.135));
#513=CARTESIAN_POINT('',(21.3453392524819,4.55600000000062,-0.135));
#514=CARTESIAN_POINT('',(21.3453392524819,4.55600000000062,-0.135));
#515=CARTESIAN_POINT('',(101.895000000002,4.55600000000062,-0.135));
#516=CARTESIAN_POINT('',(101.895000000002,4.55600000000062,-0.135));
#517=CARTESIAN_POINT('',(101.895000000002,20.4210000000006,-0.135));
#518=CARTESIAN_POINT('',(101.895000000002,20.4210000000006,-0.135));
#519=CARTESIAN_POINT('',(22.5560482130291,20.4210000000006,-0.135));
#520=CARTESIAN_POINT('',(101.895000000002,14.7730271571108,-0.135));
#521=CARTESIAN_POINT('',(15.0626663919563,-26.6438714210122,-16.));
#522=CARTESIAN_POINT('',(1.35820178593757,2.08813612766582,-20.135));
#523=CARTESIAN_POINT('',(22.5560482130291,20.4210000000006,-16.));
#524=CARTESIAN_POINT('',(101.895000000002,20.4210000000006,-16.));
#525=CARTESIAN_POINT('',(101.895000000002,20.4210000000006,-16.));
#526=CARTESIAN_POINT('',(101.895000000002,4.55600000000062,-16.));
#527=CARTESIAN_POINT('',(101.895000000002,4.55600000000062,-16.));
#528=CARTESIAN_POINT('',(21.3453392524819,4.55600000000062,-16.));
#529=CARTESIAN_POINT('',(21.3453392524819,4.55600000000062,-16.));
#530=CARTESIAN_POINT('',(101.895000000002,14.7730271571108,-16.));
#531=CARTESIAN_POINT('',(101.895000000002,20.4210000000006,-16.));
#532=CARTESIAN_POINT('',(22.5560482130291,20.4210000000006,-16.));
#533=CARTESIAN_POINT('',(101.895000000002,4.55600000000062,-16.));
#534=CARTESIAN_POINT('',(101.895000000002,20.4210000000006,-16.));
#535=CARTESIAN_POINT('',(21.3453392524819,4.55600000000062,-16.));
#536=CARTESIAN_POINT('',(101.895000000002,4.55600000000062,-16.));
#537=CARTESIAN_POINT('',(21.3453392524819,4.55600000000062,-16.));
#538=CARTESIAN_POINT('',(9.52994016921208,4.54554828879152,-1.6180339887499));
#539=CARTESIAN_POINT('',(10.7935595673019,5.14826382432313,-1.6180339887499));
#540=CARTESIAN_POINT('',(9.52994016921208,4.54554828879152,-3.18));
#541=CARTESIAN_POINT('',(10.7935595673019,5.14826382432313,-3.18));
#542=CARTESIAN_POINT('',(9.52994016921208,4.54554828879152,-3.18));
#543=CARTESIAN_POINT('',(0.927823039497774,0.865208981597768,2.03514462008891E-17));
#544=CARTESIAN_POINT('',(0.927823039497774,0.865208981597768,2.03514462008891E-17));
#545=CARTESIAN_POINT('',(8.09673429896518,7.55032688223326,1.77598793599132E-16));
#546=CARTESIAN_POINT('',(8.09673429896518,7.55032688223326,1.77598793599132E-16));
#547=CARTESIAN_POINT('',(8.22232102852187,7.28702882825082,-3.18));
#548=CARTESIAN_POINT('',(1.11756449715276,0.661736179414066,-3.18));
#549=CARTESIAN_POINT('',(1.11756449715276,0.661736179414066,-3.18));
#550=CARTESIAN_POINT('',(0.927823039497774,0.865208981597768,2.03514462008891E-17));
#551=CARTESIAN_POINT('',(0.927823039497774,0.865208981597768,2.03514462008891E-17));
#552=CARTESIAN_POINT('',(8.09673429896518,7.55032688223326,1.77598793599132E-16));
#553=CARTESIAN_POINT('',(17.8035887145174,8.91453630412956,1.77598793599132E-16));
#554=CARTESIAN_POINT('',(17.8035887145174,8.91453630412956,1.25824617443608E-16));
#555=CARTESIAN_POINT('',(17.842308612671,8.63902991315378,-3.18));
#556=CARTESIAN_POINT('',(8.13545419711877,7.27482049125748,-3.18));
#557=CARTESIAN_POINT('',(8.09673429896518,7.55032688223326,1.77598793599132E-16));
#558=CARTESIAN_POINT('',(17.8592579549014,8.51842907663292,1.66411468018085E-16));
#559=CARTESIAN_POINT('',(18.1320572989264,8.22588759598526,1.57247347398243E-16));
#560=CARTESIAN_POINT('',(18.1320572989264,8.22588759598526,1.20773819061459E-16));
#561=CARTESIAN_POINT('',(17.9423158412714,8.42936039816894,-3.18));
#562=CARTESIAN_POINT('',(17.8592579549014,8.51842907663292,-3.18));
#563=CARTESIAN_POINT('',(17.8592579549014,8.51842907663292,1.66411468018085E-16));
#564=CARTESIAN_POINT('',(18.1320572989264,8.22588759598526,1.57247347398243E-16));
#565=CARTESIAN_POINT('',(10.963146039459,1.54076969534977,-4.33334237487128E-31));
#566=CARTESIAN_POINT('',(10.963146039459,1.54076969534977,-2.07620120012219E-17));
#567=CARTESIAN_POINT('',(10.8375593099024,1.80406774933222,-3.18));
#568=CARTESIAN_POINT('',(17.9423158412714,8.42936039816894,-3.18));
#569=CARTESIAN_POINT('',(18.1320572989264,8.22588759598526,1.57247347398243E-16));
#570=CARTESIAN_POINT('',(10.963146039459,1.54076969534977,-4.33334237487128E-31));
#571=CARTESIAN_POINT('',(1.25629162390696,0.176560273453467,-4.33334237487128E-31));
#572=CARTESIAN_POINT('',(1.25629162390696,0.176560273453467,-3.76539462949274E-17));
#573=CARTESIAN_POINT('',(1.21757172575336,0.45206666442927,-3.18));
#574=CARTESIAN_POINT('',(10.9244261413055,1.81627608632557,-3.18));
#575=CARTESIAN_POINT('',(10.963146039459,1.54076969534977,-4.33334237487128E-31));
#576=CARTESIAN_POINT('',(1.20062238352277,0.572667500950121,1.11873255810471E-17));
#577=CARTESIAN_POINT('',(1.20062238352277,0.572667500950121,-3.18));
#578=CARTESIAN_POINT('',(1.20062238352277,0.572667500950121,1.11873255810471E-17));
#579=CARTESIAN_POINT('',(17.8592579549014,8.51842907663292,-3.18));
#580=CARTESIAN_POINT('',(9.52994016921208,4.54554828879152,8.87993967995656E-17));
#581=CARTESIAN_POINT('',(11.2448522094768,5.36351937272728,1.04778841794592E-16));
#582=CARTESIAN_POINT('',(17.8592579549014,8.51842907663292,1.66411468018085E-16));
#583=CARTESIAN_POINT('',(9.52994016921208,4.54554828879152,-0.5));
#584=CARTESIAN_POINT('',(11.2448522094768,5.36351937272728,-0.5));
#585=CARTESIAN_POINT('',(9.52994016921208,4.54554828879152,-0.5));
#586=CARTESIAN_POINT('',(9.52994016921208,4.54554828879152,-1.6180339887499));
#587=MECHANICAL_DESIGN_GEOMETRIC_PRESENTATION_REPRESENTATION('',(#47,#48),
#588);
#588=(
GEOMETRIC_REPRESENTATION_CONTEXT(3)
GLOBAL_UNCERTAINTY_ASSIGNED_CONTEXT((#589))
GLOBAL_UNIT_ASSIGNED_CONTEXT((#595,#591,#590))
REPRESENTATION_CONTEXT('SVXBR1616H11_SIM','TOP_LEVEL_ASSEMBLY_PART')
);
#589=UNCERTAINTY_MEASURE_WITH_UNIT(LENGTH_MEASURE(2.E-5),#595,
'DISTANCE_ACCURACY_VALUE','Maximum Tolerance applied to model');
#590=(
NAMED_UNIT(*)
SI_UNIT($,.STERADIAN.)
SOLID_ANGLE_UNIT()
);
#591=(
CONVERSION_BASED_UNIT('DEGREE',#593)
NAMED_UNIT(#592)
PLANE_ANGLE_UNIT()
);
#592=DIMENSIONAL_EXPONENTS(0.,0.,0.,0.,0.,0.,0.);
#593=PLANE_ANGLE_MEASURE_WITH_UNIT(PLANE_ANGLE_MEASURE(0.0174532925),#594);
#594=(
NAMED_UNIT(*)
PLANE_ANGLE_UNIT()
SI_UNIT($,.RADIAN.)
);
#595=(
LENGTH_UNIT()
NAMED_UNIT(*)
SI_UNIT(.MILLI.,.METRE.)
);
ENDSEC;
END-ISO-10303-21;
