ISO-10303-21;
HEADER;
/* Generated by software containing ST-Developer
 * from STEP Tools, Inc. (www.steptools.com) 
 */
/* OPTION: using custom schema-name function */

FILE_DESCRIPTION(
/* description */ (''),
/* implementation_level */ '2;1');

FILE_NAME(
/* name */ 'STFCL1616H11_SIM.stp',
/* time_stamp */ '2022-08-15T14:05:22+02:00',
/* author */ (''),
/* organization */ (''),
/* preprocessor_version */ 'ST-DEVELOPER v16.7',
/* originating_system */ 'SIEMENS PLM Software NX 12.0',
/* authorisation */ '');

FILE_SCHEMA (('AUTOMOTIVE_DESIGN { 1 0 10303 214 3 1 1 1 }'));
ENDSEC;

DATA;
#10=PROPERTY_DEFINITION_REPRESENTATION(#14,#12);
#11=PROPERTY_DEFINITION_REPRESENTATION(#15,#13);
#12=REPRESENTATION('',(#16),#631);
#13=REPRESENTATION('',(#17),#631);
#14=PROPERTY_DEFINITION('pmi validation property','',#21);
#15=PROPERTY_DEFINITION('pmi validation property','',#21);
#16=VALUE_REPRESENTATION_ITEM('number of annotations',COUNT_MEASURE(0.));
#17=VALUE_REPRESENTATION_ITEM('number of views',COUNT_MEASURE(0.));
#18=SHAPE_REPRESENTATION_RELATIONSHIP('None',
'relationship between krab4E5C1C6Dn86c-None and krab4E5C1C6Dn86c-None',
#30,#19);
#19=ADVANCED_BREP_SHAPE_REPRESENTATION('krab4E5C1C6Dn86c-None',(#74,#75),
#631);
#20=SHAPE_DEFINITION_REPRESENTATION(#21,#30);
#21=PRODUCT_DEFINITION_SHAPE('','',#22);
#22=PRODUCT_DEFINITION(' ','',#24,#23);
#23=PRODUCT_DEFINITION_CONTEXT('part definition',#29,'design');
#24=PRODUCT_DEFINITION_FORMATION_WITH_SPECIFIED_SOURCE(' ',' ',#26,
 .NOT_KNOWN.);
#25=PRODUCT_RELATED_PRODUCT_CATEGORY('part','',(#26));
#26=PRODUCT('krab4E5C1C6Dn86c','krab4E5C1C6Dn86c',' ',(#27));
#27=PRODUCT_CONTEXT(' ',#29,'mechanical');
#28=APPLICATION_PROTOCOL_DEFINITION('international standard',
'automotive_design',2010,#29);
#29=APPLICATION_CONTEXT(
'core data for automotive mechanical design processes');
#30=SHAPE_REPRESENTATION('krab4E5C1C6Dn86c-None',(#398),#631);
#31=TOROIDAL_SURFACE('',#429,2.4,1.);
#32=CYLINDRICAL_SURFACE('',#423,1.4);
#33=CYLINDRICAL_SURFACE('',#424,0.4);
#34=CYLINDRICAL_SURFACE('',#425,0.4);
#35=CYLINDRICAL_SURFACE('',#426,0.4);
#36=CYLINDRICAL_SURFACE('',#428,2.);
#37=ELLIPSE('',#413,0.411884293186225,0.4);
#38=ELLIPSE('',#414,0.411884293186225,0.4);
#39=ELLIPSE('',#415,0.411884293186225,0.4);
#40=ELLIPSE('',#418,0.411884293186225,0.4);
#41=ELLIPSE('',#419,0.411884293186225,0.4);
#42=ELLIPSE('',#420,0.411884293186225,0.4);
#43=FACE_BOUND('',#143,.T.);
#44=FACE_BOUND('',#144,.T.);
#45=FACE_BOUND('',#145,.T.);
#46=FACE_BOUND('',#146,.T.);
#47=FACE_BOUND('',#147,.T.);
#48=FACE_BOUND('',#148,.T.);
#49=FACE_BOUND('',#152,.T.);
#50=FACE_BOUND('',#153,.T.);
#51=FACE_BOUND('',#154,.T.);
#52=FACE_BOUND('',#155,.T.);
#53=CIRCLE('',#412,1.4);
#54=CIRCLE('',#417,2.);
#55=CIRCLE('',#422,1.4);
#56=CIRCLE('',#427,2.);
#57=PRESENTATION_LAYER_ASSIGNMENT('1','Layer 1',(#74,#75));
#58=STYLED_ITEM('',(#60),#74);
#59=STYLED_ITEM('',(#61),#75);
#60=PRESENTATION_STYLE_ASSIGNMENT((#62));
#61=PRESENTATION_STYLE_ASSIGNMENT((#63));
#62=SURFACE_STYLE_USAGE(.BOTH.,#64);
#63=SURFACE_STYLE_USAGE(.BOTH.,#65);
#64=SURFACE_SIDE_STYLE('',(#66));
#65=SURFACE_SIDE_STYLE('',(#67));
#66=SURFACE_STYLE_FILL_AREA(#68);
#67=SURFACE_STYLE_FILL_AREA(#69);
#68=FILL_AREA_STYLE('',(#70));
#69=FILL_AREA_STYLE('',(#71));
#70=FILL_AREA_STYLE_COLOUR('',#72);
#71=FILL_AREA_STYLE_COLOUR('',#73);
#72=COLOUR_RGB('Medium Gray',0.490196078431373,0.490196078431373,0.490196078431373);
#73=COLOUR_RGB('Light Gray',0.8,0.8,0.8);
#74=MANIFOLD_SOLID_BREP('',#76);
#75=MANIFOLD_SOLID_BREP('',#77);
#76=CLOSED_SHELL('',(#78,#79,#80,#81,#82,#83,#84,#85,#86,#87));
#77=CLOSED_SHELL('',(#88,#89,#90,#91,#92,#93,#94,#95,#96,#97,#98));
#78=ADVANCED_FACE('',(#114),#99,.T.);
#79=ADVANCED_FACE('',(#115),#100,.T.);
#80=ADVANCED_FACE('',(#116),#101,.T.);
#81=ADVANCED_FACE('',(#117),#102,.T.);
#82=ADVANCED_FACE('',(#118),#103,.T.);
#83=ADVANCED_FACE('',(#119),#104,.T.);
#84=ADVANCED_FACE('',(#120),#105,.T.);
#85=ADVANCED_FACE('',(#121),#106,.F.);
#86=ADVANCED_FACE('',(#122),#107,.T.);
#87=ADVANCED_FACE('',(#123),#108,.F.);
#88=ADVANCED_FACE('',(#124),#109,.F.);
#89=ADVANCED_FACE('',(#125),#110,.F.);
#90=ADVANCED_FACE('',(#126),#111,.F.);
#91=ADVANCED_FACE('',(#43,#44),#112,.F.);
#92=ADVANCED_FACE('',(#45,#46),#113,.T.);
#93=ADVANCED_FACE('',(#47,#48),#32,.F.);
#94=ADVANCED_FACE('',(#127),#33,.T.);
#95=ADVANCED_FACE('',(#128),#34,.T.);
#96=ADVANCED_FACE('',(#129),#35,.T.);
#97=ADVANCED_FACE('',(#49,#50),#36,.F.);
#98=ADVANCED_FACE('',(#51,#52),#31,.T.);
#99=PLANE('',#399);
#100=PLANE('',#400);
#101=PLANE('',#401);
#102=PLANE('',#402);
#103=PLANE('',#403);
#104=PLANE('',#404);
#105=PLANE('',#405);
#106=PLANE('',#406);
#107=PLANE('',#407);
#108=PLANE('',#408);
#109=PLANE('',#409);
#110=PLANE('',#410);
#111=PLANE('',#411);
#112=PLANE('',#416);
#113=PLANE('',#421);
#114=FACE_OUTER_BOUND('',#130,.T.);
#115=FACE_OUTER_BOUND('',#131,.T.);
#116=FACE_OUTER_BOUND('',#132,.T.);
#117=FACE_OUTER_BOUND('',#133,.T.);
#118=FACE_OUTER_BOUND('',#134,.T.);
#119=FACE_OUTER_BOUND('',#135,.T.);
#120=FACE_OUTER_BOUND('',#136,.T.);
#121=FACE_OUTER_BOUND('',#137,.T.);
#122=FACE_OUTER_BOUND('',#138,.T.);
#123=FACE_OUTER_BOUND('',#139,.T.);
#124=FACE_OUTER_BOUND('',#140,.T.);
#125=FACE_OUTER_BOUND('',#141,.T.);
#126=FACE_OUTER_BOUND('',#142,.T.);
#127=FACE_OUTER_BOUND('',#149,.T.);
#128=FACE_OUTER_BOUND('',#150,.T.);
#129=FACE_OUTER_BOUND('',#151,.T.);
#130=EDGE_LOOP('',(#156,#157,#158,#159));
#131=EDGE_LOOP('',(#160,#161,#162,#163));
#132=EDGE_LOOP('',(#164,#165,#166,#167));
#133=EDGE_LOOP('',(#168,#169,#170,#171));
#134=EDGE_LOOP('',(#172,#173,#174,#175));
#135=EDGE_LOOP('',(#176,#177,#178,#179));
#136=EDGE_LOOP('',(#180,#181,#182,#183));
#137=EDGE_LOOP('',(#184,#185,#186,#187,#188,#189,#190,#191));
#138=EDGE_LOOP('',(#192,#193,#194,#195,#196,#197,#198,#199));
#139=EDGE_LOOP('',(#200,#201,#202,#203));
#140=EDGE_LOOP('',(#204,#205,#206,#207));
#141=EDGE_LOOP('',(#208,#209,#210,#211));
#142=EDGE_LOOP('',(#212,#213,#214,#215));
#143=EDGE_LOOP('',(#216));
#144=EDGE_LOOP('',(#217,#218,#219,#220,#221,#222));
#145=EDGE_LOOP('',(#223));
#146=EDGE_LOOP('',(#224,#225,#226,#227,#228,#229));
#147=EDGE_LOOP('',(#230));
#148=EDGE_LOOP('',(#231));
#149=EDGE_LOOP('',(#232,#233,#234,#235));
#150=EDGE_LOOP('',(#236,#237,#238,#239));
#151=EDGE_LOOP('',(#240,#241,#242,#243));
#152=EDGE_LOOP('',(#244));
#153=EDGE_LOOP('',(#245));
#154=EDGE_LOOP('',(#246));
#155=EDGE_LOOP('',(#247));
#156=ORIENTED_EDGE('',*,*,#280,.T.);
#157=ORIENTED_EDGE('',*,*,#281,.F.);
#158=ORIENTED_EDGE('',*,*,#282,.F.);
#159=ORIENTED_EDGE('',*,*,#283,.T.);
#160=ORIENTED_EDGE('',*,*,#284,.T.);
#161=ORIENTED_EDGE('',*,*,#285,.F.);
#162=ORIENTED_EDGE('',*,*,#286,.F.);
#163=ORIENTED_EDGE('',*,*,#281,.T.);
#164=ORIENTED_EDGE('',*,*,#287,.T.);
#165=ORIENTED_EDGE('',*,*,#288,.F.);
#166=ORIENTED_EDGE('',*,*,#289,.F.);
#167=ORIENTED_EDGE('',*,*,#285,.T.);
#168=ORIENTED_EDGE('',*,*,#290,.T.);
#169=ORIENTED_EDGE('',*,*,#291,.F.);
#170=ORIENTED_EDGE('',*,*,#292,.F.);
#171=ORIENTED_EDGE('',*,*,#288,.T.);
#172=ORIENTED_EDGE('',*,*,#293,.T.);
#173=ORIENTED_EDGE('',*,*,#294,.F.);
#174=ORIENTED_EDGE('',*,*,#295,.F.);
#175=ORIENTED_EDGE('',*,*,#291,.T.);
#176=ORIENTED_EDGE('',*,*,#296,.F.);
#177=ORIENTED_EDGE('',*,*,#294,.T.);
#178=ORIENTED_EDGE('',*,*,#297,.T.);
#179=ORIENTED_EDGE('',*,*,#298,.F.);
#180=ORIENTED_EDGE('',*,*,#299,.T.);
#181=ORIENTED_EDGE('',*,*,#283,.F.);
#182=ORIENTED_EDGE('',*,*,#300,.F.);
#183=ORIENTED_EDGE('',*,*,#301,.F.);
#184=ORIENTED_EDGE('',*,*,#300,.T.);
#185=ORIENTED_EDGE('',*,*,#282,.T.);
#186=ORIENTED_EDGE('',*,*,#286,.T.);
#187=ORIENTED_EDGE('',*,*,#289,.T.);
#188=ORIENTED_EDGE('',*,*,#292,.T.);
#189=ORIENTED_EDGE('',*,*,#295,.T.);
#190=ORIENTED_EDGE('',*,*,#296,.T.);
#191=ORIENTED_EDGE('',*,*,#302,.F.);
#192=ORIENTED_EDGE('',*,*,#297,.F.);
#193=ORIENTED_EDGE('',*,*,#293,.F.);
#194=ORIENTED_EDGE('',*,*,#290,.F.);
#195=ORIENTED_EDGE('',*,*,#287,.F.);
#196=ORIENTED_EDGE('',*,*,#284,.F.);
#197=ORIENTED_EDGE('',*,*,#280,.F.);
#198=ORIENTED_EDGE('',*,*,#299,.F.);
#199=ORIENTED_EDGE('',*,*,#303,.F.);
#200=ORIENTED_EDGE('',*,*,#302,.T.);
#201=ORIENTED_EDGE('',*,*,#298,.T.);
#202=ORIENTED_EDGE('',*,*,#303,.T.);
#203=ORIENTED_EDGE('',*,*,#301,.T.);
#204=ORIENTED_EDGE('',*,*,#304,.T.);
#205=ORIENTED_EDGE('',*,*,#305,.F.);
#206=ORIENTED_EDGE('',*,*,#306,.F.);
#207=ORIENTED_EDGE('',*,*,#307,.F.);
#208=ORIENTED_EDGE('',*,*,#308,.F.);
#209=ORIENTED_EDGE('',*,*,#309,.F.);
#210=ORIENTED_EDGE('',*,*,#310,.T.);
#211=ORIENTED_EDGE('',*,*,#311,.F.);
#212=ORIENTED_EDGE('',*,*,#312,.T.);
#213=ORIENTED_EDGE('',*,*,#313,.F.);
#214=ORIENTED_EDGE('',*,*,#314,.F.);
#215=ORIENTED_EDGE('',*,*,#315,.F.);
#216=ORIENTED_EDGE('',*,*,#316,.T.);
#217=ORIENTED_EDGE('',*,*,#310,.F.);
#218=ORIENTED_EDGE('',*,*,#317,.F.);
#219=ORIENTED_EDGE('',*,*,#304,.F.);
#220=ORIENTED_EDGE('',*,*,#318,.F.);
#221=ORIENTED_EDGE('',*,*,#312,.F.);
#222=ORIENTED_EDGE('',*,*,#319,.F.);
#223=ORIENTED_EDGE('',*,*,#320,.F.);
#224=ORIENTED_EDGE('',*,*,#314,.T.);
#225=ORIENTED_EDGE('',*,*,#321,.F.);
#226=ORIENTED_EDGE('',*,*,#306,.T.);
#227=ORIENTED_EDGE('',*,*,#322,.F.);
#228=ORIENTED_EDGE('',*,*,#308,.T.);
#229=ORIENTED_EDGE('',*,*,#323,.F.);
#230=ORIENTED_EDGE('',*,*,#324,.F.);
#231=ORIENTED_EDGE('',*,*,#316,.F.);
#232=ORIENTED_EDGE('',*,*,#317,.T.);
#233=ORIENTED_EDGE('',*,*,#309,.T.);
#234=ORIENTED_EDGE('',*,*,#322,.T.);
#235=ORIENTED_EDGE('',*,*,#305,.T.);
#236=ORIENTED_EDGE('',*,*,#318,.T.);
#237=ORIENTED_EDGE('',*,*,#307,.T.);
#238=ORIENTED_EDGE('',*,*,#321,.T.);
#239=ORIENTED_EDGE('',*,*,#313,.T.);
#240=ORIENTED_EDGE('',*,*,#319,.T.);
#241=ORIENTED_EDGE('',*,*,#315,.T.);
#242=ORIENTED_EDGE('',*,*,#323,.T.);
#243=ORIENTED_EDGE('',*,*,#311,.T.);
#244=ORIENTED_EDGE('',*,*,#325,.F.);
#245=ORIENTED_EDGE('',*,*,#320,.T.);
#246=ORIENTED_EDGE('',*,*,#325,.T.);
#247=ORIENTED_EDGE('',*,*,#324,.T.);
#248=VERTEX_POINT('',#532);
#249=VERTEX_POINT('',#533);
#250=VERTEX_POINT('',#535);
#251=VERTEX_POINT('',#537);
#252=VERTEX_POINT('',#541);
#253=VERTEX_POINT('',#543);
#254=VERTEX_POINT('',#547);
#255=VERTEX_POINT('',#549);
#256=VERTEX_POINT('',#553);
#257=VERTEX_POINT('',#555);
#258=VERTEX_POINT('',#559);
#259=VERTEX_POINT('',#561);
#260=VERTEX_POINT('',#565);
#261=VERTEX_POINT('',#567);
#262=VERTEX_POINT('',#571);
#263=VERTEX_POINT('',#573);
#264=VERTEX_POINT('',#582);
#265=VERTEX_POINT('',#583);
#266=VERTEX_POINT('',#585);
#267=VERTEX_POINT('',#587);
#268=VERTEX_POINT('',#591);
#269=VERTEX_POINT('',#592);
#270=VERTEX_POINT('',#594);
#271=VERTEX_POINT('',#596);
#272=VERTEX_POINT('',#600);
#273=VERTEX_POINT('',#601);
#274=VERTEX_POINT('',#603);
#275=VERTEX_POINT('',#605);
#276=VERTEX_POINT('',#609);
#277=VERTEX_POINT('',#615);
#278=VERTEX_POINT('',#621);
#279=VERTEX_POINT('',#627);
#280=EDGE_CURVE('',#248,#249,#326,.T.);
#281=EDGE_CURVE('',#250,#249,#327,.T.);
#282=EDGE_CURVE('',#251,#250,#328,.T.);
#283=EDGE_CURVE('',#251,#248,#329,.T.);
#284=EDGE_CURVE('',#249,#252,#330,.T.);
#285=EDGE_CURVE('',#253,#252,#331,.T.);
#286=EDGE_CURVE('',#250,#253,#332,.T.);
#287=EDGE_CURVE('',#252,#254,#333,.T.);
#288=EDGE_CURVE('',#255,#254,#334,.T.);
#289=EDGE_CURVE('',#253,#255,#335,.T.);
#290=EDGE_CURVE('',#254,#256,#336,.T.);
#291=EDGE_CURVE('',#257,#256,#337,.T.);
#292=EDGE_CURVE('',#255,#257,#338,.T.);
#293=EDGE_CURVE('',#256,#258,#339,.T.);
#294=EDGE_CURVE('',#259,#258,#340,.T.);
#295=EDGE_CURVE('',#257,#259,#341,.T.);
#296=EDGE_CURVE('',#259,#260,#342,.T.);
#297=EDGE_CURVE('',#258,#261,#343,.T.);
#298=EDGE_CURVE('',#260,#261,#344,.T.);
#299=EDGE_CURVE('',#262,#248,#345,.T.);
#300=EDGE_CURVE('',#263,#251,#346,.T.);
#301=EDGE_CURVE('',#262,#263,#347,.T.);
#302=EDGE_CURVE('',#263,#260,#348,.T.);
#303=EDGE_CURVE('',#261,#262,#349,.T.);
#304=EDGE_CURVE('',#264,#265,#350,.T.);
#305=EDGE_CURVE('',#266,#265,#351,.T.);
#306=EDGE_CURVE('',#267,#266,#352,.T.);
#307=EDGE_CURVE('',#264,#267,#353,.T.);
#308=EDGE_CURVE('',#268,#269,#354,.T.);
#309=EDGE_CURVE('',#270,#268,#355,.T.);
#310=EDGE_CURVE('',#270,#271,#356,.T.);
#311=EDGE_CURVE('',#269,#271,#357,.T.);
#312=EDGE_CURVE('',#272,#273,#358,.T.);
#313=EDGE_CURVE('',#274,#273,#359,.T.);
#314=EDGE_CURVE('',#275,#274,#360,.T.);
#315=EDGE_CURVE('',#272,#275,#361,.T.);
#316=EDGE_CURVE('',#276,#276,#53,.T.);
#317=EDGE_CURVE('',#265,#270,#37,.T.);
#318=EDGE_CURVE('',#273,#264,#38,.T.);
#319=EDGE_CURVE('',#271,#272,#39,.T.);
#320=EDGE_CURVE('',#277,#277,#54,.T.);
#321=EDGE_CURVE('',#267,#274,#40,.T.);
#322=EDGE_CURVE('',#268,#266,#41,.T.);
#323=EDGE_CURVE('',#275,#269,#42,.T.);
#324=EDGE_CURVE('',#278,#278,#55,.T.);
#325=EDGE_CURVE('',#279,#279,#56,.T.);
#326=LINE('',#531,#362);
#327=LINE('',#534,#363);
#328=LINE('',#536,#364);
#329=LINE('',#538,#365);
#330=LINE('',#540,#366);
#331=LINE('',#542,#367);
#332=LINE('',#544,#368);
#333=LINE('',#546,#369);
#334=LINE('',#548,#370);
#335=LINE('',#550,#371);
#336=LINE('',#552,#372);
#337=LINE('',#554,#373);
#338=LINE('',#556,#374);
#339=LINE('',#558,#375);
#340=LINE('',#560,#376);
#341=LINE('',#562,#377);
#342=LINE('',#564,#378);
#343=LINE('',#566,#379);
#344=LINE('',#568,#380);
#345=LINE('',#570,#381);
#346=LINE('',#572,#382);
#347=LINE('',#574,#383);
#348=LINE('',#576,#384);
#349=LINE('',#578,#385);
#350=LINE('',#581,#386);
#351=LINE('',#584,#387);
#352=LINE('',#586,#388);
#353=LINE('',#588,#389);
#354=LINE('',#590,#390);
#355=LINE('',#593,#391);
#356=LINE('',#595,#392);
#357=LINE('',#597,#393);
#358=LINE('',#599,#394);
#359=LINE('',#602,#395);
#360=LINE('',#604,#396);
#361=LINE('',#606,#397);
#362=VECTOR('',#432,1.);
#363=VECTOR('',#433,1.);
#364=VECTOR('',#434,1.);
#365=VECTOR('',#435,1.);
#366=VECTOR('',#438,1.);
#367=VECTOR('',#439,1.);
#368=VECTOR('',#440,1.);
#369=VECTOR('',#443,1.);
#370=VECTOR('',#444,1.);
#371=VECTOR('',#445,1.);
#372=VECTOR('',#448,1.);
#373=VECTOR('',#449,1.);
#374=VECTOR('',#450,1.);
#375=VECTOR('',#453,1.);
#376=VECTOR('',#454,1.);
#377=VECTOR('',#455,1.);
#378=VECTOR('',#458,1.);
#379=VECTOR('',#459,1.);
#380=VECTOR('',#460,1.);
#381=VECTOR('',#463,1.);
#382=VECTOR('',#464,1.);
#383=VECTOR('',#465,1.);
#384=VECTOR('',#468,1.);
#385=VECTOR('',#471,1.);
#386=VECTOR('',#476,1.);
#387=VECTOR('',#477,1.);
#388=VECTOR('',#478,1.);
#389=VECTOR('',#479,1.);
#390=VECTOR('',#482,1.);
#391=VECTOR('',#483,0.999999999999999);
#392=VECTOR('',#484,1.);
#393=VECTOR('',#485,1.);
#394=VECTOR('',#488,1.);
#395=VECTOR('',#489,1.);
#396=VECTOR('',#490,1.);
#397=VECTOR('',#491,0.999999999999999);
#398=AXIS2_PLACEMENT_3D('',#530,#430,#431);
#399=AXIS2_PLACEMENT_3D('',#539,#436,#437);
#400=AXIS2_PLACEMENT_3D('',#545,#441,#442);
#401=AXIS2_PLACEMENT_3D('',#551,#446,#447);
#402=AXIS2_PLACEMENT_3D('',#557,#451,#452);
#403=AXIS2_PLACEMENT_3D('',#563,#456,#457);
#404=AXIS2_PLACEMENT_3D('',#569,#461,#462);
#405=AXIS2_PLACEMENT_3D('',#575,#466,#467);
#406=AXIS2_PLACEMENT_3D('',#577,#469,#470);
#407=AXIS2_PLACEMENT_3D('',#579,#472,#473);
#408=AXIS2_PLACEMENT_3D('',#580,#474,#475);
#409=AXIS2_PLACEMENT_3D('',#589,#480,#481);
#410=AXIS2_PLACEMENT_3D('',#598,#486,#487);
#411=AXIS2_PLACEMENT_3D('',#607,#492,#493);
#412=AXIS2_PLACEMENT_3D('',#608,#494,#495);
#413=AXIS2_PLACEMENT_3D('',#610,#496,#497);
#414=AXIS2_PLACEMENT_3D('',#611,#498,#499);
#415=AXIS2_PLACEMENT_3D('',#612,#500,#501);
#416=AXIS2_PLACEMENT_3D('',#613,#502,#503);
#417=AXIS2_PLACEMENT_3D('',#614,#504,#505);
#418=AXIS2_PLACEMENT_3D('',#616,#506,#507);
#419=AXIS2_PLACEMENT_3D('',#617,#508,#509);
#420=AXIS2_PLACEMENT_3D('',#618,#510,#511);
#421=AXIS2_PLACEMENT_3D('',#619,#512,#513);
#422=AXIS2_PLACEMENT_3D('',#620,#514,#515);
#423=AXIS2_PLACEMENT_3D('',#622,#516,#517);
#424=AXIS2_PLACEMENT_3D('',#623,#518,#519);
#425=AXIS2_PLACEMENT_3D('',#624,#520,#521);
#426=AXIS2_PLACEMENT_3D('',#625,#522,#523);
#427=AXIS2_PLACEMENT_3D('',#626,#524,#525);
#428=AXIS2_PLACEMENT_3D('',#628,#526,#527);
#429=AXIS2_PLACEMENT_3D('',#629,#528,#529);
#430=DIRECTION('',(0.,0.,1.));
#431=DIRECTION('',(1.,0.,0.));
#432=DIRECTION('',(-0.707106781186548,-0.707106781186548,0.));
#433=DIRECTION('',(0.,0.,1.));
#434=DIRECTION('',(-0.707106781186548,-0.707106781186548,0.));
#435=DIRECTION('',(0.,0.,1.));
#436=DIRECTION('',(0.707106781186548,-0.707106781186548,0.));
#437=DIRECTION('',(-0.707106781186548,-0.707106781186548,0.));
#438=DIRECTION('',(-1.33440267382831E-16,-1.,0.));
#439=DIRECTION('',(0.,0.,1.));
#440=DIRECTION('',(-1.33440267382831E-16,-1.,0.));
#441=DIRECTION('',(1.,-1.33440267382831E-16,0.));
#442=DIRECTION('',(-1.33573707650214E-16,-1.,0.));
#443=DIRECTION('',(-1.,0.,0.));
#444=DIRECTION('',(0.,0.,1.));
#445=DIRECTION('',(-1.,0.,0.));
#446=DIRECTION('',(0.,-1.,0.));
#447=DIRECTION('',(0.,0.,-1.));
#448=DIRECTION('',(0.,1.,0.));
#449=DIRECTION('',(0.,0.,1.));
#450=DIRECTION('',(0.,1.,0.));
#451=DIRECTION('',(-1.,0.,0.));
#452=DIRECTION('',(0.,0.,-1.));
#453=DIRECTION('',(0.707106781186547,0.707106781186548,0.));
#454=DIRECTION('',(0.,0.,1.));
#455=DIRECTION('',(0.707106781186547,0.707106781186548,0.));
#456=DIRECTION('',(-0.707106781186548,0.707106781186547,0.));
#457=DIRECTION('',(0.707106781186548,0.707106781186548,0.));
#458=DIRECTION('',(0.999847695156391,0.0174524064372837,0.));
#459=DIRECTION('',(0.999847695156391,0.0174524064372837,0.));
#460=DIRECTION('',(0.,0.,1.));
#461=DIRECTION('',(-0.0174524064372837,0.999847695156391,0.));
#462=DIRECTION('',(0.999847695156391,0.0174524064372837,0.));
#463=DIRECTION('',(-0.0348994967025013,-0.999390827019096,0.));
#464=DIRECTION('',(-0.0348994967025013,-0.999390827019096,0.));
#465=DIRECTION('',(0.,0.,-1.));
#466=DIRECTION('',(0.999390827019096,-0.0348994967025013,0.));
#467=DIRECTION('',(-0.0348994967025013,-0.999390827019096,0.));
#468=DIRECTION('',(-0.70090926429985,0.713250449154183,0.));
#469=DIRECTION('',(0.,0.,1.));
#470=DIRECTION('',(-1.,0.,0.));
#471=DIRECTION('',(0.70090926429985,-0.713250449154183,0.));
#472=DIRECTION('',(0.,0.,1.));
#473=DIRECTION('',(-1.,0.,0.));
#474=DIRECTION('',(-0.713250449154182,-0.70090926429985,0.));
#475=DIRECTION('',(-0.70090926429985,0.713250449154183,0.));
#476=DIRECTION('',(-1.,4.9960036108132E-16,0.));
#477=DIRECTION('',(0.206532855354804,-0.119241799635598,-0.971146524927447));
#478=DIRECTION('',(-1.,4.9960036108132E-16,0.));
#479=DIRECTION('',(0.206532855354804,0.119241799635598,0.971146524927447));
#480=DIRECTION('',(-1.27675647831893E-15,-0.992546151641322,0.121869343405147));
#481=DIRECTION('',(-1.,4.9960036108132E-16,0.));
#482=DIRECTION('',(0.5,-0.866025403784439,0.));
#483=DIRECTION('',(-0.206532855354804,0.119241799635598,0.971146524927446));
#484=DIRECTION('',(0.5,-0.866025403784439,0.));
#485=DIRECTION('',(9.71445146547012E-17,0.238483599271196,-0.971146524927447));
#486=DIRECTION('',(0.859570181749867,0.496273075820661,0.121869343405147));
#487=DIRECTION('',(-0.105541947331387,-0.0609346717025737,0.992546151641322));
#488=DIRECTION('',(0.5,0.866025403784439,0.));
#489=DIRECTION('',(-0.206532855354804,-0.119241799635598,-0.971146524927447));
#490=DIRECTION('',(0.5,0.866025403784439,0.));
#491=DIRECTION('',(8.32667268468867E-17,-0.238483599271196,0.971146524927446));
#492=DIRECTION('',(-0.859570181749867,0.496273075820662,0.121869343405147));
#493=DIRECTION('',(0.5,0.866025403784439,0.));
#494=DIRECTION('',(0.,0.,1.));
#495=DIRECTION('',(0.5,-0.866025403784439,0.));
#496=DIRECTION('',(0.,0.,1.));
#497=DIRECTION('',(-0.866025403784439,0.5,0.));
#498=DIRECTION('',(0.,0.,1.));
#499=DIRECTION('',(0.866025403784439,0.5,0.));
#500=DIRECTION('',(0.,0.,1.));
#501=DIRECTION('',(0.,-1.,0.));
#502=DIRECTION('',(0.,0.,1.));
#503=DIRECTION('',(-0.5,0.866025403784439,0.));
#504=DIRECTION('',(0.,0.,1.));
#505=DIRECTION('',(0.5,-0.866025403784439,0.));
#506=DIRECTION('',(0.,0.,-1.));
#507=DIRECTION('',(0.866025403784439,0.5,0.));
#508=DIRECTION('',(0.,0.,-1.));
#509=DIRECTION('',(-0.866025403784439,0.5,0.));
#510=DIRECTION('',(0.,0.,-1.));
#511=DIRECTION('',(0.,-1.,0.));
#512=DIRECTION('',(0.,0.,1.));
#513=DIRECTION('',(-0.5,0.866025403784439,0.));
#514=DIRECTION('',(0.,0.,-1.));
#515=DIRECTION('',(-0.5,0.866025403784439,0.));
#516=DIRECTION('',(0.,0.,-1.));
#517=DIRECTION('',(0.5,-0.866025403784439,0.));
#518=DIRECTION('',(-0.206532855354804,0.119241799635598,0.971146524927447));
#519=DIRECTION('',(-0.489062604699629,0.847081279421728,-0.208017005885735));
#520=DIRECTION('',(0.206532855354804,0.119241799635598,0.971146524927447));
#521=DIRECTION('',(-0.841037561384147,-0.485573262463724,0.238483599271196));
#522=DIRECTION('',(-9.71445146547012E-17,-0.238483599271196,0.971146524927446));
#523=DIRECTION('',(-0.489062604699627,0.847081279421727,0.208017005885735));
#524=DIRECTION('',(0.,0.,1.));
#525=DIRECTION('',(0.5,-0.866025403784439,0.));
#526=DIRECTION('',(0.,0.,-1.));
#527=DIRECTION('',(0.5,-0.866025403784439,0.));
#528=DIRECTION('',(0.,0.,1.));
#529=DIRECTION('',(-0.5,0.866025403784439,0.));
#530=CARTESIAN_POINT('',(0.,0.,0.));
#531=CARTESIAN_POINT('',(-1.37774652145037,-13.3042876541462,0.02));
#532=CARTESIAN_POINT('',(-1.37774652145037,-13.3042876541462,0.02));
#533=CARTESIAN_POINT('',(-4.52906051929733,-16.4556016519931,0.02));
#534=CARTESIAN_POINT('',(-4.52906051929733,-16.4556016519931,-15.98));
#535=CARTESIAN_POINT('',(-4.52906051929733,-16.4556016519931,-15.98));
#536=CARTESIAN_POINT('',(-1.37774652145037,-13.3042876541462,-15.98));
#537=CARTESIAN_POINT('',(-1.37774652145037,-13.3042876541462,-15.98));
#538=CARTESIAN_POINT('',(-1.37774652145037,-13.3042876541462,-15.98));
#539=CARTESIAN_POINT('',(-1.37774652145037,-13.3042876541462,-15.98));
#540=CARTESIAN_POINT('',(-4.52906051929733,-16.4556016519931,0.02));
#541=CARTESIAN_POINT('',(-4.52906051929733,-100.955601651993,0.02));
#542=CARTESIAN_POINT('',(-4.52906051929733,-100.955601651993,-15.98));
#543=CARTESIAN_POINT('',(-4.52906051929733,-100.955601651993,-15.98));
#544=CARTESIAN_POINT('',(-4.52906051929733,-16.4556016519931,-15.98));
#545=CARTESIAN_POINT('',(-4.52906051929733,-16.4556016519931,-15.98));
#546=CARTESIAN_POINT('',(-4.52906051929733,-100.955601651993,0.02));
#547=CARTESIAN_POINT('',(-20.5290605192973,-100.955601651993,0.02));
#548=CARTESIAN_POINT('',(-20.5290605192973,-100.955601651993,-15.98));
#549=CARTESIAN_POINT('',(-20.5290605192973,-100.955601651993,-15.98));
#550=CARTESIAN_POINT('',(-4.52906051929733,-100.955601651993,-15.98));
#551=CARTESIAN_POINT('',(-4.52906051929733,-100.955601651993,-15.98));
#552=CARTESIAN_POINT('',(-20.5290605192973,-100.955601651993,0.02));
#553=CARTESIAN_POINT('',(-20.5290605192973,-8.65808040516046,0.02));
#554=CARTESIAN_POINT('',(-20.5290605192973,-8.65808040516046,-15.98));
#555=CARTESIAN_POINT('',(-20.5290605192973,-8.65808040516046,-15.98));
#556=CARTESIAN_POINT('',(-20.5290605192973,-100.955601651993,-15.98));
#557=CARTESIAN_POINT('',(-20.5290605192973,-100.955601651993,-15.98));
#558=CARTESIAN_POINT('',(-20.5290605192973,-8.65808040516046,0.02));
#559=CARTESIAN_POINT('',(-12.5290605192973,-0.658080405160459,0.02));
#560=CARTESIAN_POINT('',(-12.5290605192973,-0.658080405160459,-15.98));
#561=CARTESIAN_POINT('',(-12.5290605192973,-0.658080405160459,-15.98));
#562=CARTESIAN_POINT('',(-20.5290605192973,-8.65808040516046,-15.98));
#563=CARTESIAN_POINT('',(-20.5290605192973,-8.65808040516046,-15.98));
#564=CARTESIAN_POINT('',(-12.5290605192973,-0.658080405160459,-15.98));
#565=CARTESIAN_POINT('',(-1.32899959735989,-0.462582614568047,-15.98));
#566=CARTESIAN_POINT('',(-12.5290605192973,-0.658080405160459,0.02));
#567=CARTESIAN_POINT('',(-1.32899959735989,-0.462582614568047,0.02));
#568=CARTESIAN_POINT('',(-1.32899959735989,-0.462582614568047,-15.98));
#569=CARTESIAN_POINT('',(-12.5290605192973,-0.658080405160459,-15.98));
#570=CARTESIAN_POINT('',(-0.92906051929733,-0.455601651993133,0.02));
#571=CARTESIAN_POINT('',(-0.94302031797833,-0.855357982800772,0.02));
#572=CARTESIAN_POINT('',(-0.92906051929733,-0.455601651993133,-15.98));
#573=CARTESIAN_POINT('',(-0.94302031797833,-0.855357982800772,-15.98));
#574=CARTESIAN_POINT('',(-0.94302031797833,-0.855357982800772,-15.98));
#575=CARTESIAN_POINT('',(-0.92906051929733,-0.455601651993133,-15.98));
#576=CARTESIAN_POINT('',(-1.32899959735989,-0.462582614568047,-15.98));
#577=CARTESIAN_POINT('',(-89.0290605192973,-100.955601651993,-15.98));
#578=CARTESIAN_POINT('',(5.82511522750199,-7.742662750519,0.02));
#579=CARTESIAN_POINT('',(-89.0290605192973,-100.955601651993,0.02));
#580=CARTESIAN_POINT('',(-1.32899959735989,-0.462582614568047,-15.98));
#581=CARTESIAN_POINT('',(-8.56519716263549E-15,-0.292227254948913,-2.38));
#582=CARTESIAN_POINT('',(-1.1938085983278,-0.292227254948913,-2.38));
#583=CARTESIAN_POINT('',(-9.80471402973458,-0.292227254948907,-2.38));
#584=CARTESIAN_POINT('',(-9.87104801441791,-0.253929311035564,-2.06808827729063));
#585=CARTESIAN_POINT('',(-10.3108664826625,5.19739416435239E-15,0.));
#586=CARTESIAN_POINT('',(-5.09575021068187E-15,-6.7762635780344E-18,0.));
#587=CARTESIAN_POINT('',(-0.687656145399905,-2.60886147754325E-15,0.));
#588=CARTESIAN_POINT('',(-0.658323608405333,0.0169351481298279,0.13792571317839));
#589=CARTESIAN_POINT('',(-5.09575021068187E-15,-6.7762635780344E-18,0.));
#590=CARTESIAN_POINT('',(-10.9985226280624,7.3657985093234E-15,0.));
#591=CARTESIAN_POINT('',(-10.6546945553624,-0.595527690984792,0.));
#592=CARTESIAN_POINT('',(-5.84308938673114,-8.92947230901521,0.));
#593=CARTESIAN_POINT('',(-10.684027092357,-0.578592542854963,0.137925713178391));
#594=CARTESIAN_POINT('',(-10.1485421024345,-0.887754945933699,-2.38));
#595=CARTESIAN_POINT('',(-7.99581574458284,-4.61638637252554,-2.38));
#596=CARTESIAN_POINT('',(-5.84308938673114,-8.34501779911738,-2.38));
#597=CARTESIAN_POINT('',(-5.84308938673114,-8.42161368694406,-2.06808827729063));
#598=CARTESIAN_POINT('',(-10.9985226280624,7.3657985093234E-15,0.));
#599=CARTESIAN_POINT('',(-0.253076226463957,0.146113627474453,-2.38));
#600=CARTESIAN_POINT('',(-5.15543324133125,-8.34501779911738,-2.38));
#601=CARTESIAN_POINT('',(-0.849980525627854,-0.887754945933706,-2.38));
#602=CARTESIAN_POINT('',(-0.783646540944534,-0.849457002020371,-2.06808827729063));
#603=CARTESIAN_POINT('',(-0.343828072699957,-0.595527690984797,0.));
#604=CARTESIAN_POINT('',(-5.49926131403119,-9.525,0.));
#605=CARTESIAN_POINT('',(-5.15543324133125,-8.92947230901521,0.));
#606=CARTESIAN_POINT('',(-5.15543324133125,-8.96334260527487,0.13792571317839));
#607=CARTESIAN_POINT('',(-5.49926131403119,-9.525,0.));
#608=CARTESIAN_POINT('',(-5.49926131403119,-3.175,-2.38));
#609=CARTESIAN_POINT('',(-4.79926131403119,-4.38743556529822,-2.38));
#610=CARTESIAN_POINT('',(-9.79434689240664,-0.695231185132447,-2.38));
#611=CARTESIAN_POINT('',(-1.20417573565574,-0.695231185132453,-2.38));
#612=CARTESIAN_POINT('',(-5.49926131403119,-8.1345376297351,-2.38));
#613=CARTESIAN_POINT('',(-4.22838847269347E-15,-1.30781887056064E-15,-2.38));
#614=CARTESIAN_POINT('',(-5.49926131403119,-3.175,0.));
#615=CARTESIAN_POINT('',(-4.49926131403119,-4.90705080756888,0.));
#616=CARTESIAN_POINT('',(-0.698023282727837,-0.403003930183539,0.));
#617=CARTESIAN_POINT('',(-10.3004993453346,-0.403003930183531,0.));
#618=CARTESIAN_POINT('',(-5.4992613140312,-8.71899213963292,0.));
#619=CARTESIAN_POINT('',(-4.22838847269347E-15,-1.30781887056064E-15,0.));
#620=CARTESIAN_POINT('',(-5.49926131403119,-3.175,-1.41651513899117));
#621=CARTESIAN_POINT('',(-6.19926131403119,-1.96256443470179,-1.41651513899117));
#622=CARTESIAN_POINT('',(-5.49926131403119,-3.175,0.));
#623=CARTESIAN_POINT('',(-10.3401990196571,-0.380083312526698,0.18667345054045));
#624=CARTESIAN_POINT('',(-0.658323608405329,-0.380083312526699,0.18667345054045));
#625=CARTESIAN_POINT('',(-5.49926131403119,-8.7648333749466,0.18667345054045));
#626=CARTESIAN_POINT('',(-5.49926131403119,-3.175,-0.5));
#627=CARTESIAN_POINT('',(-4.49926131403119,-4.90705080756888,-0.5));
#628=CARTESIAN_POINT('',(-5.49926131403119,-3.175,0.));
#629=CARTESIAN_POINT('',(-5.49926131403119,-3.175,-1.41651513899117));
#630=MECHANICAL_DESIGN_GEOMETRIC_PRESENTATION_REPRESENTATION('',(#58,#59),
#631);
#631=(
GEOMETRIC_REPRESENTATION_CONTEXT(3)
GLOBAL_UNCERTAINTY_ASSIGNED_CONTEXT((#632))
GLOBAL_UNIT_ASSIGNED_CONTEXT((#638,#634,#633))
REPRESENTATION_CONTEXT('STFCL1616H11_SIM','TOP_LEVEL_ASSEMBLY_PART')
);
#632=UNCERTAINTY_MEASURE_WITH_UNIT(LENGTH_MEASURE(2.E-5),#638,
'DISTANCE_ACCURACY_VALUE','Maximum Tolerance applied to model');
#633=(
NAMED_UNIT(*)
SI_UNIT($,.STERADIAN.)
SOLID_ANGLE_UNIT()
);
#634=(
CONVERSION_BASED_UNIT('DEGREE',#636)
NAMED_UNIT(#635)
PLANE_ANGLE_UNIT()
);
#635=DIMENSIONAL_EXPONENTS(0.,0.,0.,0.,0.,0.,0.);
#636=PLANE_ANGLE_MEASURE_WITH_UNIT(PLANE_ANGLE_MEASURE(0.0174532925),#637);
#637=(
NAMED_UNIT(*)
PLANE_ANGLE_UNIT()
SI_UNIT($,.RADIAN.)
);
#638=(
LENGTH_UNIT()
NAMED_UNIT(*)
SI_UNIT(.MILLI.,.METRE.)
);
ENDSEC;
END-ISO-10303-21;
