ISO-10303-21;
HEADER;
/* Generated by software containing ST-Developer
 * from STEP Tools, Inc. (www.steptools.com) 
 */
/* OPTION: using custom schema-name function */

FILE_DESCRIPTION(
/* description */ (''),
/* implementation_level */ '2;1');

FILE_NAME(
/* name */ 'SRSCL1616H06_SIM.stp',
/* time_stamp */ '2022-08-15T13:51:06+02:00',
/* author */ (''),
/* organization */ (''),
/* preprocessor_version */ 'ST-DEVELOPER v16.7',
/* originating_system */ 'SIEMENS PLM Software NX 12.0',
/* authorisation */ '');

FILE_SCHEMA (('AUTOMOTIVE_DESIGN { 1 0 10303 214 3 1 1 1 }'));
ENDSEC;

DATA;
#10=PROPERTY_DEFINITION_REPRESENTATION(#14,#12);
#11=PROPERTY_DEFINITION_REPRESENTATION(#15,#13);
#12=REPRESENTATION('',(#16),#630);
#13=REPRESENTATION('',(#17),#630);
#14=PROPERTY_DEFINITION('pmi validation property','',#21);
#15=PROPERTY_DEFINITION('pmi validation property','',#21);
#16=VALUE_REPRESENTATION_ITEM('number of annotations',COUNT_MEASURE(0.));
#17=VALUE_REPRESENTATION_ITEM('number of views',COUNT_MEASURE(0.));
#18=SHAPE_REPRESENTATION_RELATIONSHIP('None',
'relationship between krab4E5C1C6Dn85p-None and krab4E5C1C6Dn85p-None',
#30,#19);
#19=ADVANCED_BREP_SHAPE_REPRESENTATION('krab4E5C1C6Dn85p-None',(#61,#62),
#630);
#20=SHAPE_DEFINITION_REPRESENTATION(#21,#30);
#21=PRODUCT_DEFINITION_SHAPE('','',#22);
#22=PRODUCT_DEFINITION(' ','',#24,#23);
#23=PRODUCT_DEFINITION_CONTEXT('part definition',#29,'design');
#24=PRODUCT_DEFINITION_FORMATION_WITH_SPECIFIED_SOURCE(' ',' ',#26,
 .NOT_KNOWN.);
#25=PRODUCT_RELATED_PRODUCT_CATEGORY('part','',(#26));
#26=PRODUCT('krab4E5C1C6Dn85p','krab4E5C1C6Dn85p',' ',(#27));
#27=PRODUCT_CONTEXT(' ',#29,'mechanical');
#28=APPLICATION_PROTOCOL_DEFINITION('international standard',
'automotive_design',2010,#29);
#29=APPLICATION_CONTEXT(
'core data for automotive mechanical design processes');
#30=SHAPE_REPRESENTATION('krab4E5C1C6Dn85p-None',(#391),#630);
#31=CONICAL_SURFACE('',#417,3.,7.);
#32=FACE_BOUND('',#138,.T.);
#33=FACE_BOUND('',#139,.T.);
#34=FACE_BOUND('',#140,.T.);
#35=FACE_BOUND('',#141,.T.);
#36=FACE_BOUND('',#142,.T.);
#37=FACE_BOUND('',#143,.T.);
#38=FACE_BOUND('',#144,.T.);
#39=FACE_BOUND('',#145,.T.);
#40=FACE_BOUND('',#146,.T.);
#41=FACE_BOUND('',#147,.T.);
#42=FACE_BOUND('',#148,.T.);
#43=FACE_BOUND('',#149,.T.);
#44=PRESENTATION_LAYER_ASSIGNMENT('1','Layer 1',(#61,#62));
#45=STYLED_ITEM('',(#47),#61);
#46=STYLED_ITEM('',(#48),#62);
#47=PRESENTATION_STYLE_ASSIGNMENT((#49));
#48=PRESENTATION_STYLE_ASSIGNMENT((#50));
#49=SURFACE_STYLE_USAGE(.BOTH.,#51);
#50=SURFACE_STYLE_USAGE(.BOTH.,#52);
#51=SURFACE_SIDE_STYLE('',(#53));
#52=SURFACE_SIDE_STYLE('',(#54));
#53=SURFACE_STYLE_FILL_AREA(#55);
#54=SURFACE_STYLE_FILL_AREA(#56);
#55=FILL_AREA_STYLE('',(#57));
#56=FILL_AREA_STYLE('',(#58));
#57=FILL_AREA_STYLE_COLOUR('',#59);
#58=FILL_AREA_STYLE_COLOUR('',#60);
#59=COLOUR_RGB('Medium Gray',0.490196078431373,0.490196078431373,0.490196078431373);
#60=COLOUR_RGB('Light Gray',0.8,0.8,0.8);
#61=MANIFOLD_SOLID_BREP('',#63);
#62=MANIFOLD_SOLID_BREP('',#64);
#63=CLOSED_SHELL('',(#74,#75,#76,#77,#78,#79,#80,#81,#82,#83,#84,#85,#86,
#87,#88));
#64=CLOSED_SHELL('',(#89,#90,#91,#92,#93,#94));
#65=TOROIDAL_SURFACE('',#413,2.90419601084501,0.3);
#66=TOROIDAL_SURFACE('',#426,2.2,0.8);
#67=CYLINDRICAL_SURFACE('',#403,2.6);
#68=CYLINDRICAL_SURFACE('',#411,0.3);
#69=CYLINDRICAL_SURFACE('',#414,0.3);
#70=CYLINDRICAL_SURFACE('',#423,1.4);
#71=CYLINDRICAL_SURFACE('',#425,2.);
#72=ELLIPSE('',#394,0.391622186799684,0.3);
#73=ELLIPSE('',#400,0.391622186799684,0.3);
#74=ADVANCED_FACE('',(#108),#95,.T.);
#75=ADVANCED_FACE('',(#109),#96,.T.);
#76=ADVANCED_FACE('',(#110),#97,.T.);
#77=ADVANCED_FACE('',(#111),#98,.T.);
#78=ADVANCED_FACE('',(#112),#99,.T.);
#79=ADVANCED_FACE('',(#113),#100,.F.);
#80=ADVANCED_FACE('',(#114),#101,.F.);
#81=ADVANCED_FACE('',(#115),#67,.T.);
#82=ADVANCED_FACE('',(#116),#102,.F.);
#83=ADVANCED_FACE('',(#117),#103,.T.);
#84=ADVANCED_FACE('',(#118),#104,.T.);
#85=ADVANCED_FACE('',(#119),#105,.F.);
#86=ADVANCED_FACE('',(#120),#68,.F.);
#87=ADVANCED_FACE('',(#121),#65,.F.);
#88=ADVANCED_FACE('',(#122),#69,.F.);
#89=ADVANCED_FACE('',(#32,#33),#31,.T.);
#90=ADVANCED_FACE('',(#34,#35),#106,.F.);
#91=ADVANCED_FACE('',(#36,#37),#107,.T.);
#92=ADVANCED_FACE('',(#38,#39),#70,.F.);
#93=ADVANCED_FACE('',(#40,#41),#71,.F.);
#94=ADVANCED_FACE('',(#42,#43),#66,.T.);
#95=PLANE('',#393);
#96=PLANE('',#395);
#97=PLANE('',#396);
#98=PLANE('',#397);
#99=PLANE('',#398);
#100=PLANE('',#399);
#101=PLANE('',#401);
#102=PLANE('',#404);
#103=PLANE('',#406);
#104=PLANE('',#408);
#105=PLANE('',#409);
#106=PLANE('',#419);
#107=PLANE('',#421);
#108=FACE_OUTER_BOUND('',#123,.T.);
#109=FACE_OUTER_BOUND('',#124,.T.);
#110=FACE_OUTER_BOUND('',#125,.T.);
#111=FACE_OUTER_BOUND('',#126,.T.);
#112=FACE_OUTER_BOUND('',#127,.T.);
#113=FACE_OUTER_BOUND('',#128,.T.);
#114=FACE_OUTER_BOUND('',#129,.T.);
#115=FACE_OUTER_BOUND('',#130,.T.);
#116=FACE_OUTER_BOUND('',#131,.T.);
#117=FACE_OUTER_BOUND('',#132,.T.);
#118=FACE_OUTER_BOUND('',#133,.T.);
#119=FACE_OUTER_BOUND('',#134,.T.);
#120=FACE_OUTER_BOUND('',#135,.T.);
#121=FACE_OUTER_BOUND('',#136,.T.);
#122=FACE_OUTER_BOUND('',#137,.T.);
#123=EDGE_LOOP('',(#162,#163,#164,#165));
#124=EDGE_LOOP('',(#166,#167,#168,#169,#170,#171,#172,#173));
#125=EDGE_LOOP('',(#174,#175,#176,#177));
#126=EDGE_LOOP('',(#178,#179,#180,#181));
#127=EDGE_LOOP('',(#182,#183,#184,#185));
#128=EDGE_LOOP('',(#186,#187,#188,#189));
#129=EDGE_LOOP('',(#190,#191,#192,#193,#194,#195,#196,#197));
#130=EDGE_LOOP('',(#198,#199,#200,#201));
#131=EDGE_LOOP('',(#202,#203,#204,#205,#206,#207,#208));
#132=EDGE_LOOP('',(#209,#210,#211,#212,#213,#214,#215,#216,#217));
#133=EDGE_LOOP('',(#218,#219,#220,#221,#222,#223));
#134=EDGE_LOOP('',(#224,#225,#226,#227));
#135=EDGE_LOOP('',(#228,#229,#230,#231));
#136=EDGE_LOOP('',(#232,#233,#234,#235));
#137=EDGE_LOOP('',(#236,#237,#238,#239));
#138=EDGE_LOOP('',(#240));
#139=EDGE_LOOP('',(#241));
#140=EDGE_LOOP('',(#242));
#141=EDGE_LOOP('',(#243));
#142=EDGE_LOOP('',(#244));
#143=EDGE_LOOP('',(#245));
#144=EDGE_LOOP('',(#246));
#145=EDGE_LOOP('',(#247));
#146=EDGE_LOOP('',(#248));
#147=EDGE_LOOP('',(#249));
#148=EDGE_LOOP('',(#250));
#149=EDGE_LOOP('',(#251));
#150=CIRCLE('',#392,2.6);
#151=CIRCLE('',#402,2.6);
#152=CIRCLE('',#405,3.2);
#153=CIRCLE('',#407,2.90419601084501);
#154=CIRCLE('',#410,0.3);
#155=CIRCLE('',#412,0.3);
#156=CIRCLE('',#415,2.70777274505108);
#157=CIRCLE('',#416,3.);
#158=CIRCLE('',#418,1.4);
#159=CIRCLE('',#420,2.);
#160=CIRCLE('',#422,1.4);
#161=CIRCLE('',#424,2.);
#162=ORIENTED_EDGE('',*,*,#284,.T.);
#163=ORIENTED_EDGE('',*,*,#285,.F.);
#164=ORIENTED_EDGE('',*,*,#286,.F.);
#165=ORIENTED_EDGE('',*,*,#287,.T.);
#166=ORIENTED_EDGE('',*,*,#288,.T.);
#167=ORIENTED_EDGE('',*,*,#289,.F.);
#168=ORIENTED_EDGE('',*,*,#290,.F.);
#169=ORIENTED_EDGE('',*,*,#291,.T.);
#170=ORIENTED_EDGE('',*,*,#292,.F.);
#171=ORIENTED_EDGE('',*,*,#293,.F.);
#172=ORIENTED_EDGE('',*,*,#294,.T.);
#173=ORIENTED_EDGE('',*,*,#285,.T.);
#174=ORIENTED_EDGE('',*,*,#295,.T.);
#175=ORIENTED_EDGE('',*,*,#296,.F.);
#176=ORIENTED_EDGE('',*,*,#297,.F.);
#177=ORIENTED_EDGE('',*,*,#292,.T.);
#178=ORIENTED_EDGE('',*,*,#298,.T.);
#179=ORIENTED_EDGE('',*,*,#299,.F.);
#180=ORIENTED_EDGE('',*,*,#300,.F.);
#181=ORIENTED_EDGE('',*,*,#296,.T.);
#182=ORIENTED_EDGE('',*,*,#301,.T.);
#183=ORIENTED_EDGE('',*,*,#302,.F.);
#184=ORIENTED_EDGE('',*,*,#303,.F.);
#185=ORIENTED_EDGE('',*,*,#299,.T.);
#186=ORIENTED_EDGE('',*,*,#304,.F.);
#187=ORIENTED_EDGE('',*,*,#305,.F.);
#188=ORIENTED_EDGE('',*,*,#306,.T.);
#189=ORIENTED_EDGE('',*,*,#302,.T.);
#190=ORIENTED_EDGE('',*,*,#287,.F.);
#191=ORIENTED_EDGE('',*,*,#307,.F.);
#192=ORIENTED_EDGE('',*,*,#308,.T.);
#193=ORIENTED_EDGE('',*,*,#305,.T.);
#194=ORIENTED_EDGE('',*,*,#309,.F.);
#195=ORIENTED_EDGE('',*,*,#310,.F.);
#196=ORIENTED_EDGE('',*,*,#311,.T.);
#197=ORIENTED_EDGE('',*,*,#312,.F.);
#198=ORIENTED_EDGE('',*,*,#286,.T.);
#199=ORIENTED_EDGE('',*,*,#294,.F.);
#200=ORIENTED_EDGE('',*,*,#313,.F.);
#201=ORIENTED_EDGE('',*,*,#307,.T.);
#202=ORIENTED_EDGE('',*,*,#293,.T.);
#203=ORIENTED_EDGE('',*,*,#297,.T.);
#204=ORIENTED_EDGE('',*,*,#300,.T.);
#205=ORIENTED_EDGE('',*,*,#303,.T.);
#206=ORIENTED_EDGE('',*,*,#306,.F.);
#207=ORIENTED_EDGE('',*,*,#308,.F.);
#208=ORIENTED_EDGE('',*,*,#313,.T.);
#209=ORIENTED_EDGE('',*,*,#314,.T.);
#210=ORIENTED_EDGE('',*,*,#315,.T.);
#211=ORIENTED_EDGE('',*,*,#316,.T.);
#212=ORIENTED_EDGE('',*,*,#309,.T.);
#213=ORIENTED_EDGE('',*,*,#304,.T.);
#214=ORIENTED_EDGE('',*,*,#301,.F.);
#215=ORIENTED_EDGE('',*,*,#298,.F.);
#216=ORIENTED_EDGE('',*,*,#295,.F.);
#217=ORIENTED_EDGE('',*,*,#291,.F.);
#218=ORIENTED_EDGE('',*,*,#317,.F.);
#219=ORIENTED_EDGE('',*,*,#318,.F.);
#220=ORIENTED_EDGE('',*,*,#289,.T.);
#221=ORIENTED_EDGE('',*,*,#319,.F.);
#222=ORIENTED_EDGE('',*,*,#311,.F.);
#223=ORIENTED_EDGE('',*,*,#320,.F.);
#224=ORIENTED_EDGE('',*,*,#288,.F.);
#225=ORIENTED_EDGE('',*,*,#284,.F.);
#226=ORIENTED_EDGE('',*,*,#312,.T.);
#227=ORIENTED_EDGE('',*,*,#319,.T.);
#228=ORIENTED_EDGE('',*,*,#290,.T.);
#229=ORIENTED_EDGE('',*,*,#318,.T.);
#230=ORIENTED_EDGE('',*,*,#321,.T.);
#231=ORIENTED_EDGE('',*,*,#314,.F.);
#232=ORIENTED_EDGE('',*,*,#321,.F.);
#233=ORIENTED_EDGE('',*,*,#317,.T.);
#234=ORIENTED_EDGE('',*,*,#322,.T.);
#235=ORIENTED_EDGE('',*,*,#315,.F.);
#236=ORIENTED_EDGE('',*,*,#322,.F.);
#237=ORIENTED_EDGE('',*,*,#320,.T.);
#238=ORIENTED_EDGE('',*,*,#310,.T.);
#239=ORIENTED_EDGE('',*,*,#316,.F.);
#240=ORIENTED_EDGE('',*,*,#323,.F.);
#241=ORIENTED_EDGE('',*,*,#324,.T.);
#242=ORIENTED_EDGE('',*,*,#325,.T.);
#243=ORIENTED_EDGE('',*,*,#323,.T.);
#244=ORIENTED_EDGE('',*,*,#326,.F.);
#245=ORIENTED_EDGE('',*,*,#324,.F.);
#246=ORIENTED_EDGE('',*,*,#327,.F.);
#247=ORIENTED_EDGE('',*,*,#325,.F.);
#248=ORIENTED_EDGE('',*,*,#328,.F.);
#249=ORIENTED_EDGE('',*,*,#326,.T.);
#250=ORIENTED_EDGE('',*,*,#327,.T.);
#251=ORIENTED_EDGE('',*,*,#328,.T.);
#252=VERTEX_POINT('',#532);
#253=VERTEX_POINT('',#533);
#254=VERTEX_POINT('',#535);
#255=VERTEX_POINT('',#537);
#256=VERTEX_POINT('',#541);
#257=VERTEX_POINT('',#543);
#258=VERTEX_POINT('',#545);
#259=VERTEX_POINT('',#547);
#260=VERTEX_POINT('',#549);
#261=VERTEX_POINT('',#551);
#262=VERTEX_POINT('',#555);
#263=VERTEX_POINT('',#557);
#264=VERTEX_POINT('',#561);
#265=VERTEX_POINT('',#563);
#266=VERTEX_POINT('',#567);
#267=VERTEX_POINT('',#569);
#268=VERTEX_POINT('',#573);
#269=VERTEX_POINT('',#575);
#270=VERTEX_POINT('',#579);
#271=VERTEX_POINT('',#582);
#272=VERTEX_POINT('',#584);
#273=VERTEX_POINT('',#586);
#274=VERTEX_POINT('',#593);
#275=VERTEX_POINT('',#595);
#276=VERTEX_POINT('',#599);
#277=VERTEX_POINT('',#600);
#278=VERTEX_POINT('',#612);
#279=VERTEX_POINT('',#614);
#280=VERTEX_POINT('',#617);
#281=VERTEX_POINT('',#620);
#282=VERTEX_POINT('',#623);
#283=VERTEX_POINT('',#626);
#284=EDGE_CURVE('',#252,#253,#329,.T.);
#285=EDGE_CURVE('',#254,#253,#330,.T.);
#286=EDGE_CURVE('',#255,#254,#150,.T.);
#287=EDGE_CURVE('',#255,#252,#331,.T.);
#288=EDGE_CURVE('',#253,#256,#332,.T.);
#289=EDGE_CURVE('',#257,#256,#333,.T.);
#290=EDGE_CURVE('',#258,#257,#72,.T.);
#291=EDGE_CURVE('',#258,#259,#334,.T.);
#292=EDGE_CURVE('',#260,#259,#335,.T.);
#293=EDGE_CURVE('',#261,#260,#336,.T.);
#294=EDGE_CURVE('',#261,#254,#337,.T.);
#295=EDGE_CURVE('',#259,#262,#338,.T.);
#296=EDGE_CURVE('',#263,#262,#339,.T.);
#297=EDGE_CURVE('',#260,#263,#340,.T.);
#298=EDGE_CURVE('',#262,#264,#341,.T.);
#299=EDGE_CURVE('',#265,#264,#342,.T.);
#300=EDGE_CURVE('',#263,#265,#343,.T.);
#301=EDGE_CURVE('',#264,#266,#344,.T.);
#302=EDGE_CURVE('',#267,#266,#345,.T.);
#303=EDGE_CURVE('',#265,#267,#346,.T.);
#304=EDGE_CURVE('',#268,#266,#347,.T.);
#305=EDGE_CURVE('',#269,#268,#348,.T.);
#306=EDGE_CURVE('',#269,#267,#349,.T.);
#307=EDGE_CURVE('',#270,#255,#350,.T.);
#308=EDGE_CURVE('',#270,#269,#351,.T.);
#309=EDGE_CURVE('',#271,#268,#352,.T.);
#310=EDGE_CURVE('',#272,#271,#73,.T.);
#311=EDGE_CURVE('',#272,#273,#353,.T.);
#312=EDGE_CURVE('',#252,#273,#354,.T.);
#313=EDGE_CURVE('',#270,#261,#151,.T.);
#314=EDGE_CURVE('',#258,#274,#355,.T.);
#315=EDGE_CURVE('',#274,#275,#152,.T.);
#316=EDGE_CURVE('',#275,#271,#356,.T.);
#317=EDGE_CURVE('',#276,#277,#153,.T.);
#318=EDGE_CURVE('',#257,#276,#357,.T.);
#319=EDGE_CURVE('',#273,#256,#358,.T.);
#320=EDGE_CURVE('',#277,#272,#359,.T.);
#321=EDGE_CURVE('',#276,#274,#154,.T.);
#322=EDGE_CURVE('',#277,#275,#155,.T.);
#323=EDGE_CURVE('',#278,#278,#156,.T.);
#324=EDGE_CURVE('',#279,#279,#157,.T.);
#325=EDGE_CURVE('',#280,#280,#158,.T.);
#326=EDGE_CURVE('',#281,#281,#159,.T.);
#327=EDGE_CURVE('',#282,#282,#160,.T.);
#328=EDGE_CURVE('',#283,#283,#161,.T.);
#329=LINE('',#531,#360);
#330=LINE('',#534,#361);
#331=LINE('',#538,#362);
#332=LINE('',#540,#363);
#333=LINE('',#542,#364);
#334=LINE('',#546,#365);
#335=LINE('',#548,#366);
#336=LINE('',#550,#367);
#337=LINE('',#552,#368);
#338=LINE('',#554,#369);
#339=LINE('',#556,#370);
#340=LINE('',#558,#371);
#341=LINE('',#560,#372);
#342=LINE('',#562,#373);
#343=LINE('',#564,#374);
#344=LINE('',#566,#375);
#345=LINE('',#568,#376);
#346=LINE('',#570,#377);
#347=LINE('',#572,#378);
#348=LINE('',#574,#379);
#349=LINE('',#576,#380);
#350=LINE('',#578,#381);
#351=LINE('',#580,#382);
#352=LINE('',#581,#383);
#353=LINE('',#585,#384);
#354=LINE('',#587,#385);
#355=LINE('',#592,#386);
#356=LINE('',#596,#387);
#357=LINE('',#601,#388);
#358=LINE('',#602,#389);
#359=LINE('',#603,#390);
#360=VECTOR('',#429,1.);
#361=VECTOR('',#430,0.999999999999999);
#362=VECTOR('',#433,1.);
#363=VECTOR('',#436,1.);
#364=VECTOR('',#437,0.999999999999999);
#365=VECTOR('',#440,0.999999999999999);
#366=VECTOR('',#441,1.);
#367=VECTOR('',#442,0.999999999999999);
#368=VECTOR('',#443,1.);
#369=VECTOR('',#446,1.);
#370=VECTOR('',#447,1.);
#371=VECTOR('',#448,1.);
#372=VECTOR('',#451,1.);
#373=VECTOR('',#452,1.);
#374=VECTOR('',#453,1.);
#375=VECTOR('',#456,1.);
#376=VECTOR('',#457,1.);
#377=VECTOR('',#458,1.);
#378=VECTOR('',#461,1.);
#379=VECTOR('',#462,1.);
#380=VECTOR('',#463,1.);
#381=VECTOR('',#466,1.);
#382=VECTOR('',#467,1.);
#383=VECTOR('',#468,1.);
#384=VECTOR('',#471,1.);
#385=VECTOR('',#472,1.);
#386=VECTOR('',#481,1.);
#387=VECTOR('',#484,1.);
#388=VECTOR('',#489,1.);
#389=VECTOR('',#490,1.);
#390=VECTOR('',#491,1.);
#391=AXIS2_PLACEMENT_3D('',#530,#427,#428);
#392=AXIS2_PLACEMENT_3D('',#536,#431,#432);
#393=AXIS2_PLACEMENT_3D('',#539,#434,#435);
#394=AXIS2_PLACEMENT_3D('',#544,#438,#439);
#395=AXIS2_PLACEMENT_3D('',#553,#444,#445);
#396=AXIS2_PLACEMENT_3D('',#559,#449,#450);
#397=AXIS2_PLACEMENT_3D('',#565,#454,#455);
#398=AXIS2_PLACEMENT_3D('',#571,#459,#460);
#399=AXIS2_PLACEMENT_3D('',#577,#464,#465);
#400=AXIS2_PLACEMENT_3D('',#583,#469,#470);
#401=AXIS2_PLACEMENT_3D('',#588,#473,#474);
#402=AXIS2_PLACEMENT_3D('',#589,#475,#476);
#403=AXIS2_PLACEMENT_3D('',#590,#477,#478);
#404=AXIS2_PLACEMENT_3D('',#591,#479,#480);
#405=AXIS2_PLACEMENT_3D('',#594,#482,#483);
#406=AXIS2_PLACEMENT_3D('',#597,#485,#486);
#407=AXIS2_PLACEMENT_3D('',#598,#487,#488);
#408=AXIS2_PLACEMENT_3D('',#604,#492,#493);
#409=AXIS2_PLACEMENT_3D('',#605,#494,#495);
#410=AXIS2_PLACEMENT_3D('',#606,#496,#497);
#411=AXIS2_PLACEMENT_3D('',#607,#498,#499);
#412=AXIS2_PLACEMENT_3D('',#608,#500,#501);
#413=AXIS2_PLACEMENT_3D('',#609,#502,#503);
#414=AXIS2_PLACEMENT_3D('',#610,#504,#505);
#415=AXIS2_PLACEMENT_3D('',#611,#506,#507);
#416=AXIS2_PLACEMENT_3D('',#613,#508,#509);
#417=AXIS2_PLACEMENT_3D('',#615,#510,#511);
#418=AXIS2_PLACEMENT_3D('',#616,#512,#513);
#419=AXIS2_PLACEMENT_3D('',#618,#514,#515);
#420=AXIS2_PLACEMENT_3D('',#619,#516,#517);
#421=AXIS2_PLACEMENT_3D('',#621,#518,#519);
#422=AXIS2_PLACEMENT_3D('',#622,#520,#521);
#423=AXIS2_PLACEMENT_3D('',#624,#522,#523);
#424=AXIS2_PLACEMENT_3D('',#625,#524,#525);
#425=AXIS2_PLACEMENT_3D('',#627,#526,#527);
#426=AXIS2_PLACEMENT_3D('',#628,#528,#529);
#427=DIRECTION('',(0.,0.,1.));
#428=DIRECTION('',(1.,0.,0.));
#429=DIRECTION('',(0.766223631786837,-0.642574000478848,0.));
#430=DIRECTION('',(-0.5,-0.866025403784438,0.));
#431=DIRECTION('',(0.,0.,-1.));
#432=DIRECTION('',(-1.,0.,0.));
#433=DIRECTION('',(-0.866025403784439,-0.5,0.));
#434=DIRECTION('',(0.,0.,1.));
#435=DIRECTION('',(-1.,0.,0.));
#436=DIRECTION('',(0.,0.,-1.));
#437=DIRECTION('',(0.5,0.866025403784438,0.));
#438=DIRECTION('',(0.866025403784437,-0.499999999999999,0.));
#439=DIRECTION('',(0.5,0.866025403784438,0.));
#440=DIRECTION('',(-0.5,-0.866025403784438,0.));
#441=DIRECTION('',(0.,0.,1.));
#442=DIRECTION('',(-0.5,-0.866025403784438,0.));
#443=DIRECTION('',(0.,0.,1.));
#444=DIRECTION('',(0.866025403784438,-0.5,0.));
#445=DIRECTION('',(-0.5,-0.866025403784438,0.));
#446=DIRECTION('',(-0.965925826289069,-0.258819045102518,0.));
#447=DIRECTION('',(0.,0.,1.));
#448=DIRECTION('',(-0.965925826289069,-0.258819045102518,0.));
#449=DIRECTION('',(0.258819045102518,-0.965925826289069,0.));
#450=DIRECTION('',(-0.965925826289069,-0.258819045102518,0.));
#451=DIRECTION('',(-1.32711085593854E-16,-1.,0.));
#452=DIRECTION('',(0.,0.,1.));
#453=DIRECTION('',(-1.32711085593854E-16,-1.,0.));
#454=DIRECTION('',(1.,-1.32711085593854E-16,0.));
#455=DIRECTION('',(-1.32706345912226E-16,-1.,0.));
#456=DIRECTION('',(-1.,0.,0.));
#457=DIRECTION('',(0.,0.,1.));
#458=DIRECTION('',(-1.,0.,0.));
#459=DIRECTION('',(0.,-1.,0.));
#460=DIRECTION('',(0.,0.,-1.));
#461=DIRECTION('',(-7.62918129787533E-17,-1.,0.));
#462=DIRECTION('',(0.,0.,1.));
#463=DIRECTION('',(-7.62918129787533E-17,-1.,0.));
#464=DIRECTION('',(1.,-7.62918129787533E-17,0.));
#465=DIRECTION('',(-7.63278329429795E-17,-1.,0.));
#466=DIRECTION('',(0.,0.,1.));
#467=DIRECTION('',(-0.866025403784439,-0.5,0.));
#468=DIRECTION('',(-0.866025403784439,-0.5,0.));
#469=DIRECTION('',(-0.5,0.866025403784439,0.));
#470=DIRECTION('',(-0.866025403784439,-0.5,0.));
#471=DIRECTION('',(0.866025403784439,0.5,0.));
#472=DIRECTION('',(0.,0.,-1.));
#473=DIRECTION('',(0.5,-0.866025403784439,0.));
#474=DIRECTION('',(-0.866025403784439,-0.5,0.));
#475=DIRECTION('',(0.,0.,-1.));
#476=DIRECTION('',(-1.,0.,0.));
#477=DIRECTION('',(0.,0.,1.));
#478=DIRECTION('',(-1.,0.,0.));
#479=DIRECTION('',(0.,0.,1.));
#480=DIRECTION('',(-1.,0.,0.));
#481=DIRECTION('',(-0.984807753012208,-0.173648177666931,0.));
#482=DIRECTION('',(0.,0.,-1.));
#483=DIRECTION('',(0.866025403784439,0.5,0.));
#484=DIRECTION('',(0.173648177666931,0.984807753012208,0.));
#485=DIRECTION('',(0.,0.,1.));
#486=DIRECTION('',(-1.,0.,0.));
#487=DIRECTION('',(0.,0.,-1.));
#488=DIRECTION('',(-1.,0.,0.));
#489=DIRECTION('',(-0.984807753012208,-0.173648177666931,0.));
#490=DIRECTION('',(0.766223631786837,-0.642574000478848,0.));
#491=DIRECTION('',(0.173648177666931,0.984807753012208,0.));
#492=DIRECTION('',(0.,0.,1.));
#493=DIRECTION('',(-1.,0.,0.));
#494=DIRECTION('',(0.642574000478848,0.766223631786837,0.));
#495=DIRECTION('',(0.766223631786837,-0.642574000478848,0.));
#496=DIRECTION('',(-0.984807753012208,-0.173648177666931,0.));
#497=DIRECTION('',(0.173648177666931,-0.984807753012208,0.));
#498=DIRECTION('',(0.984807753012208,0.173648177666931,0.));
#499=DIRECTION('',(0.173648177666932,-0.984807753012208,0.));
#500=DIRECTION('',(0.173648177666924,0.984807753012209,0.));
#501=DIRECTION('',(-0.984807753012208,0.173648177666924,0.));
#502=DIRECTION('',(0.,0.,-1.));
#503=DIRECTION('',(1.,0.,0.));
#504=DIRECTION('',(-0.173648177666931,-0.984807753012208,0.));
#505=DIRECTION('',(-0.984807753012208,0.173648177666931,0.));
#506=DIRECTION('',(0.,0.,-1.));
#507=DIRECTION('',(-1.,0.,0.));
#508=DIRECTION('',(0.,0.,-1.));
#509=DIRECTION('',(-1.,0.,0.));
#510=DIRECTION('',(0.,0.,1.));
#511=DIRECTION('',(-1.,0.,-2.02801075556495E-16));
#512=DIRECTION('',(0.,0.,1.));
#513=DIRECTION('',(1.,0.,0.));
#514=DIRECTION('',(0.,0.,1.));
#515=DIRECTION('',(-1.,0.,0.));
#516=DIRECTION('',(0.,0.,1.));
#517=DIRECTION('',(1.,0.,0.));
#518=DIRECTION('',(0.,0.,1.));
#519=DIRECTION('',(-1.,0.,0.));
#520=DIRECTION('',(0.,0.,-1.));
#521=DIRECTION('',(-1.,0.,0.));
#522=DIRECTION('',(0.,0.,-1.));
#523=DIRECTION('',(1.,0.,0.));
#524=DIRECTION('',(0.,0.,1.));
#525=DIRECTION('',(1.,0.,0.));
#526=DIRECTION('',(0.,0.,-1.));
#527=DIRECTION('',(1.,0.,0.));
#528=DIRECTION('',(0.,0.,1.));
#529=DIRECTION('',(-1.,0.,0.));
#530=CARTESIAN_POINT('',(0.,0.,0.));
#531=CARTESIAN_POINT('',(-5.5090058267879,0.0444044886693078,-8.88178419700125E-16));
#532=CARTESIAN_POINT('',(-4.56161404766597,-0.750101580154883,-8.88178419700125E-16));
#533=CARTESIAN_POINT('',(-0.510832058033121,-4.14718707864833,-8.88178419700125E-16));
#534=CARTESIAN_POINT('',(-0.395144772533193,-3.94681082237272,0.));
#535=CARTESIAN_POINT('',(-0.395144772533191,-3.94681082237272,0.));
#536=CARTESIAN_POINT('',(-2.64681082237273,-2.64681082237272,0.));
#537=CARTESIAN_POINT('',(-3.94681082237273,-0.395144772533184,0.));
#538=CARTESIAN_POINT('',(-3.94681082237273,-0.395144772533184,0.));
#539=CARTESIAN_POINT('',(-2.64681082237273,-2.64681082237272,0.));
#540=CARTESIAN_POINT('',(-0.510832058033123,-4.14718707864833,-16.));
#541=CARTESIAN_POINT('',(-0.510832058033122,-4.14718707864833,-0.25));
#542=CARTESIAN_POINT('',(-0.395144772533193,-3.94681082237272,-0.25));
#543=CARTESIAN_POINT('',(-1.25605088768128,-5.43794395435595,-0.25));
#544=CARTESIAN_POINT('',(-1.25605088768128,-5.43794395435595,0.049999999999999));
#545=CARTESIAN_POINT('',(-1.44912322950951,-5.77235505993876,-8.88178419700125E-16));
#546=CARTESIAN_POINT('',(-0.395144772533193,-3.94681082237272,0.));
#547=CARTESIAN_POINT('',(-3.22340541118638,-8.84550194556724,0.));
#548=CARTESIAN_POINT('',(-3.22340541118638,-8.84550194556724,-16.));
#549=CARTESIAN_POINT('',(-3.22340541118638,-8.84550194556724,-16.));
#550=CARTESIAN_POINT('',(-0.395144772533193,-3.94681082237272,-16.));
#551=CARTESIAN_POINT('',(-0.395144772533191,-3.94681082237272,-16.));
#552=CARTESIAN_POINT('',(-0.395144772533191,-3.94681082237272,-16.));
#553=CARTESIAN_POINT('',(-0.395144772533193,-3.94681082237272,-16.));
#554=CARTESIAN_POINT('',(-3.22340541118638,-8.84550194556724,0.));
#555=CARTESIAN_POINT('',(-3.8,-9.,0.));
#556=CARTESIAN_POINT('',(-3.8,-9.,-16.));
#557=CARTESIAN_POINT('',(-3.8,-9.,-16.));
#558=CARTESIAN_POINT('',(-3.22340541118638,-8.84550194556724,-16.));
#559=CARTESIAN_POINT('',(-3.22340541118638,-8.84550194556724,-16.));
#560=CARTESIAN_POINT('',(-3.8,-9.,0.));
#561=CARTESIAN_POINT('',(-3.8,-100.5,0.));
#562=CARTESIAN_POINT('',(-3.8,-100.5,-16.));
#563=CARTESIAN_POINT('',(-3.8,-100.5,-16.));
#564=CARTESIAN_POINT('',(-3.8,-9.,-16.));
#565=CARTESIAN_POINT('',(-3.8,-9.,-16.));
#566=CARTESIAN_POINT('',(-3.8,-100.5,0.));
#567=CARTESIAN_POINT('',(-19.8,-100.5,0.));
#568=CARTESIAN_POINT('',(-19.8,-100.5,-16.));
#569=CARTESIAN_POINT('',(-19.8,-100.5,-16.));
#570=CARTESIAN_POINT('',(-3.8,-100.5,-16.));
#571=CARTESIAN_POINT('',(-3.8,-100.5,-16.));
#572=CARTESIAN_POINT('',(-19.8,-9.54798781175036,0.));
#573=CARTESIAN_POINT('',(-19.8,-9.54798781175036,0.));
#574=CARTESIAN_POINT('',(-19.8,-9.54798781175036,-16.));
#575=CARTESIAN_POINT('',(-19.8,-9.54798781175036,-16.));
#576=CARTESIAN_POINT('',(-19.8,-9.54798781175036,-16.));
#577=CARTESIAN_POINT('',(-19.8,-9.54798781175036,-16.));
#578=CARTESIAN_POINT('',(-3.94681082237273,-0.395144772533184,-16.));
#579=CARTESIAN_POINT('',(-3.94681082237273,-0.395144772533184,-16.));
#580=CARTESIAN_POINT('',(-3.94681082237273,-0.395144772533184,-16.));
#581=CARTESIAN_POINT('',(-3.94681082237273,-0.395144772533184,0.));
#582=CARTESIAN_POINT('',(-5.77235505993878,-1.44912322950951,-8.88178419700125E-16));
#583=CARTESIAN_POINT('',(-5.43794395435596,-1.25605088768127,0.049999999999999));
#584=CARTESIAN_POINT('',(-5.43794395435596,-1.25605088768127,-0.25));
#585=CARTESIAN_POINT('',(-3.94681082237273,-0.395144772533184,-0.25));
#586=CARTESIAN_POINT('',(-4.56161404766597,-0.750101580154884,-0.25));
#587=CARTESIAN_POINT('',(-4.56161404766597,-0.750101580154884,-16.));
#588=CARTESIAN_POINT('',(-3.94681082237273,-0.395144772533184,-16.));
#589=CARTESIAN_POINT('',(-2.64681082237273,-2.64681082237272,-16.));
#590=CARTESIAN_POINT('',(-2.64681082237273,-2.64681082237272,-16.));
#591=CARTESIAN_POINT('',(-2.64681082237273,-2.64681082237272,-16.));
#592=CARTESIAN_POINT('',(0.927386211600824,-5.35331232556261,-8.88178419700125E-16));
#593=CARTESIAN_POINT('',(-2.19720267101654,-5.90426164918977,-8.88178419700125E-16));
#594=CARTESIAN_POINT('',(-2.75287683955071,-2.75287683955071,-8.88178419700125E-16));
#595=CARTESIAN_POINT('',(-5.90426164918979,-2.19720267101654,0.));
#596=CARTESIAN_POINT('',(-5.90426164918978,-2.19720267101652,-8.88178419700125E-16));
#597=CARTESIAN_POINT('',(-2.64681082237273,-2.64681082237272,0.));
#598=CARTESIAN_POINT('',(-2.75287683955071,-2.75287683955071,-0.25));
#599=CARTESIAN_POINT('',(-2.24856849467991,-5.61295158729801,-0.25));
#600=CARTESIAN_POINT('',(-5.61295158729801,-2.24856849467991,-0.25));
#601=CARTESIAN_POINT('',(-2.24856849467991,-5.61295158729801,-0.25));
#602=CARTESIAN_POINT('',(-5.5090058267879,0.0444044886693078,-0.25));
#603=CARTESIAN_POINT('',(-5.48104499804701,-1.50048905317288,-0.25));
#604=CARTESIAN_POINT('',(-2.75287683955071,-2.75287683955071,-0.25));
#605=CARTESIAN_POINT('',(-5.5090058267879,0.0444044886693078,-0.25));
#606=CARTESIAN_POINT('',(-2.24856849467991,-5.61295158729801,0.0499999999999991));
#607=CARTESIAN_POINT('',(0.876020387937453,-5.06200226367085,0.049999999999999));
#608=CARTESIAN_POINT('',(-5.61295158729801,-2.24856849467991,0.0499999999999991));
#609=CARTESIAN_POINT('',(-2.75287683955071,-2.75287683955071,0.049999999999999));
#610=CARTESIAN_POINT('',(-5.61295158729802,-2.2485684946799,0.049999999999999));
#611=CARTESIAN_POINT('',(-2.64681082237273,-2.64681082237272,-2.35));
#612=CARTESIAN_POINT('',(-5.35458356742382,-2.64681082237272,-2.35));
#613=CARTESIAN_POINT('',(-2.64681082237273,-2.64681082237272,0.03));
#614=CARTESIAN_POINT('',(-5.64681082237273,-2.64681082237272,0.03));
#615=CARTESIAN_POINT('',(-2.64681082237273,-2.64681082237272,0.03));
#616=CARTESIAN_POINT('',(-2.64681082237273,-2.64681082237272,-2.35));
#617=CARTESIAN_POINT('',(-1.24681082237273,-2.64681082237272,-2.35));
#618=CARTESIAN_POINT('',(-2.64681082237273,-2.64681082237272,-2.35));
#619=CARTESIAN_POINT('',(-2.64681082237273,-2.64681082237272,0.03));
#620=CARTESIAN_POINT('',(-0.64681082237273,-2.64681082237272,0.03));
#621=CARTESIAN_POINT('',(-2.64681082237273,-2.64681082237272,0.03));
#622=CARTESIAN_POINT('',(-2.64681082237273,-2.64681082237272,-1.14459666924148));
#623=CARTESIAN_POINT('',(-4.04681082237273,-2.64681082237272,-1.14459666924148));
#624=CARTESIAN_POINT('',(-2.64681082237273,-2.64681082237272,-2.35));
#625=CARTESIAN_POINT('',(-2.64681082237273,-2.64681082237272,-0.37));
#626=CARTESIAN_POINT('',(-0.64681082237273,-2.64681082237272,-0.37));
#627=CARTESIAN_POINT('',(-2.64681082237273,-2.64681082237272,0.03));
#628=CARTESIAN_POINT('',(-2.64681082237273,-2.64681082237272,-1.14459666924148));
#629=MECHANICAL_DESIGN_GEOMETRIC_PRESENTATION_REPRESENTATION('',(#45,#46),
#630);
#630=(
GEOMETRIC_REPRESENTATION_CONTEXT(3)
GLOBAL_UNCERTAINTY_ASSIGNED_CONTEXT((#631))
GLOBAL_UNIT_ASSIGNED_CONTEXT((#637,#633,#632))
REPRESENTATION_CONTEXT('SRSCL1616H06_SIM','TOP_LEVEL_ASSEMBLY_PART')
);
#631=UNCERTAINTY_MEASURE_WITH_UNIT(LENGTH_MEASURE(2.E-5),#637,
'DISTANCE_ACCURACY_VALUE','Maximum Tolerance applied to model');
#632=(
NAMED_UNIT(*)
SI_UNIT($,.STERADIAN.)
SOLID_ANGLE_UNIT()
);
#633=(
CONVERSION_BASED_UNIT('DEGREE',#635)
NAMED_UNIT(#634)
PLANE_ANGLE_UNIT()
);
#634=DIMENSIONAL_EXPONENTS(0.,0.,0.,0.,0.,0.,0.);
#635=PLANE_ANGLE_MEASURE_WITH_UNIT(PLANE_ANGLE_MEASURE(0.0174532925),#636);
#636=(
NAMED_UNIT(*)
PLANE_ANGLE_UNIT()
SI_UNIT($,.RADIAN.)
);
#637=(
LENGTH_UNIT()
NAMED_UNIT(*)
SI_UNIT(.MILLI.,.METRE.)
);
ENDSEC;
END-ISO-10303-21;
