ISO-10303-21;
HEADER;
/* Generated by software containing ST-Developer
 * from STEP Tools, Inc. (www.steptools.com) 
 */
/* OPTION: using custom schema-name function */

FILE_DESCRIPTION(
/* description */ (''),
/* implementation_level */ '2;1');

FILE_NAME(
/* name */ 'SRDCN3225P12M_SIM.stp',
/* time_stamp */ '2022-12-07T09:17:25+01:00',
/* author */ (''),
/* organization */ (''),
/* preprocessor_version */ 'ST-DEVELOPER v18.102',
/* originating_system */ 'SIEMENS PLM Software NX 2027',
/* authorisation */ '');

FILE_SCHEMA (('AUTOMOTIVE_DESIGN { 1 0 10303 214 3 1 1 1 }'));
ENDSEC;

DATA;
#10=SHAPE_REPRESENTATION_RELATIONSHIP('None',
'relationship between model1-None and model1-None',#22,#11);
#11=ADVANCED_BREP_SHAPE_REPRESENTATION('model1-None',(#106,#107),#591);
#12=SHAPE_DEFINITION_REPRESENTATION(#13,#22);
#13=PRODUCT_DEFINITION_SHAPE('','',#14);
#14=PRODUCT_DEFINITION(' ','',#16,#15);
#15=PRODUCT_DEFINITION_CONTEXT('part definition',#21,'design');
#16=PRODUCT_DEFINITION_FORMATION_WITH_SPECIFIED_SOURCE(' ',' ',#18,
 .NOT_KNOWN.);
#17=PRODUCT_RELATED_PRODUCT_CATEGORY('part','',(#18));
#18=PRODUCT('model1','model1',' ',(#19));
#19=PRODUCT_CONTEXT(' ',#21,'mechanical');
#20=APPLICATION_PROTOCOL_DEFINITION('international standard',
'automotive_design',2010,#21);
#21=APPLICATION_CONTEXT(
'core data for automotive mechanical design processes');
#22=SHAPE_REPRESENTATION('model1-None',(#360),#591);
#23=FACE_OUTER_BOUND('',#174,.T.);
#24=FACE_OUTER_BOUND('',#175,.T.);
#25=FACE_OUTER_BOUND('',#176,.T.);
#26=FACE_OUTER_BOUND('',#177,.T.);
#27=FACE_OUTER_BOUND('',#178,.T.);
#28=FACE_OUTER_BOUND('',#179,.T.);
#29=FACE_OUTER_BOUND('',#180,.T.);
#30=FACE_OUTER_BOUND('',#181,.T.);
#31=FACE_OUTER_BOUND('',#182,.T.);
#32=FACE_OUTER_BOUND('',#183,.T.);
#33=FACE_OUTER_BOUND('',#184,.T.);
#34=FACE_OUTER_BOUND('',#185,.T.);
#35=FACE_OUTER_BOUND('',#186,.T.);
#36=FACE_OUTER_BOUND('',#187,.T.);
#37=LINE('',#516,#63);
#38=LINE('',#519,#64);
#39=LINE('',#521,#65);
#40=LINE('',#523,#66);
#41=LINE('',#525,#67);
#42=LINE('',#527,#68);
#43=LINE('',#529,#69);
#44=LINE('',#535,#70);
#45=LINE('',#537,#71);
#46=LINE('',#539,#72);
#47=LINE('',#541,#73);
#48=LINE('',#547,#74);
#49=LINE('',#549,#75);
#50=LINE('',#551,#76);
#51=LINE('',#553,#77);
#52=LINE('',#559,#78);
#53=LINE('',#561,#79);
#54=LINE('',#563,#80);
#55=LINE('',#565,#81);
#56=LINE('',#571,#82);
#57=LINE('',#573,#83);
#58=LINE('',#575,#84);
#59=LINE('',#577,#85);
#60=LINE('',#583,#86);
#61=LINE('',#585,#87);
#62=LINE('',#586,#88);
#63=VECTOR('',#423,1.);
#64=VECTOR('',#424,1.);
#65=VECTOR('',#425,1.);
#66=VECTOR('',#426,1.);
#67=VECTOR('',#429,1.);
#68=VECTOR('',#430,1.);
#69=VECTOR('',#431,1.);
#70=VECTOR('',#438,1.);
#71=VECTOR('',#441,1.);
#72=VECTOR('',#442,1.);
#73=VECTOR('',#443,1.);
#74=VECTOR('',#450,1.);
#75=VECTOR('',#453,1.);
#76=VECTOR('',#454,1.);
#77=VECTOR('',#455,1.);
#78=VECTOR('',#462,1.);
#79=VECTOR('',#465,1.);
#80=VECTOR('',#466,1.);
#81=VECTOR('',#467,1.);
#82=VECTOR('',#474,1.);
#83=VECTOR('',#477,1.);
#84=VECTOR('',#478,1.);
#85=VECTOR('',#479,1.);
#86=VECTOR('',#486,1.);
#87=VECTOR('',#489,1.);
#88=VECTOR('',#490,1.);
#89=PRESENTATION_LAYER_ASSIGNMENT('1','Layer 1',(#106,#107));
#90=STYLED_ITEM('',(#92),#106);
#91=STYLED_ITEM('',(#93),#107);
#92=PRESENTATION_STYLE_ASSIGNMENT((#94));
#93=PRESENTATION_STYLE_ASSIGNMENT((#95));
#94=SURFACE_STYLE_USAGE(.BOTH.,#96);
#95=SURFACE_STYLE_USAGE(.BOTH.,#97);
#96=SURFACE_SIDE_STYLE('',(#98));
#97=SURFACE_SIDE_STYLE('',(#99));
#98=SURFACE_STYLE_FILL_AREA(#100);
#99=SURFACE_STYLE_FILL_AREA(#101);
#100=FILL_AREA_STYLE('',(#102));
#101=FILL_AREA_STYLE('',(#103));
#102=FILL_AREA_STYLE_COLOUR('',#104);
#103=FILL_AREA_STYLE_COLOUR('',#105);
#104=COLOUR_RGB('light gray',0.8,0.8,0.8);
#105=COLOUR_RGB('medium gray',0.490196078431373,0.490196078431373,0.490196078431373);
#106=MANIFOLD_SOLID_BREP('',#108);
#107=MANIFOLD_SOLID_BREP('',#109);
#108=CLOSED_SHELL('',(#129,#130,#131,#132,#133,#134));
#109=CLOSED_SHELL('',(#135,#136,#137,#138,#139,#140,#141,#142,#143,#144,
#145,#146,#147,#148));
#110=TOROIDAL_SURFACE('',#372,4.2,2.);
#111=CYLINDRICAL_SURFACE('',#369,2.2);
#112=CYLINDRICAL_SURFACE('',#371,3.);
#113=CYLINDRICAL_SURFACE('',#377,11.);
#114=CYLINDRICAL_SURFACE('',#381,4.);
#115=CYLINDRICAL_SURFACE('',#385,5.2);
#116=CYLINDRICAL_SURFACE('',#389,4.);
#117=CYLINDRICAL_SURFACE('',#393,11.);
#118=PLANE('',#365);
#119=PLANE('',#367);
#120=PLANE('',#373);
#121=PLANE('',#374);
#122=PLANE('',#378);
#123=PLANE('',#382);
#124=PLANE('',#386);
#125=PLANE('',#390);
#126=PLANE('',#394);
#127=PLANE('',#395);
#128=PLANE('',#396);
#129=ADVANCED_FACE('',(#150,#151),#149,.T.);
#130=ADVANCED_FACE('',(#152,#153),#118,.F.);
#131=ADVANCED_FACE('',(#154,#155),#119,.T.);
#132=ADVANCED_FACE('',(#156,#157),#111,.F.);
#133=ADVANCED_FACE('',(#158,#159),#112,.F.);
#134=ADVANCED_FACE('',(#160,#161),#110,.T.);
#135=ADVANCED_FACE('',(#23),#120,.T.);
#136=ADVANCED_FACE('',(#24),#121,.T.);
#137=ADVANCED_FACE('',(#25),#113,.F.);
#138=ADVANCED_FACE('',(#26),#122,.T.);
#139=ADVANCED_FACE('',(#27),#114,.F.);
#140=ADVANCED_FACE('',(#28),#123,.T.);
#141=ADVANCED_FACE('',(#29),#115,.T.);
#142=ADVANCED_FACE('',(#30),#124,.T.);
#143=ADVANCED_FACE('',(#31),#116,.F.);
#144=ADVANCED_FACE('',(#32),#125,.T.);
#145=ADVANCED_FACE('',(#33),#117,.F.);
#146=ADVANCED_FACE('',(#34),#126,.T.);
#147=ADVANCED_FACE('',(#35),#127,.F.);
#148=ADVANCED_FACE('',(#36),#128,.T.);
#149=CONICAL_SURFACE('',#363,6.,7.);
#150=FACE_BOUND('',#162,.T.);
#151=FACE_BOUND('',#163,.T.);
#152=FACE_BOUND('',#164,.T.);
#153=FACE_BOUND('',#165,.T.);
#154=FACE_BOUND('',#166,.T.);
#155=FACE_BOUND('',#167,.T.);
#156=FACE_BOUND('',#168,.T.);
#157=FACE_BOUND('',#169,.T.);
#158=FACE_BOUND('',#170,.T.);
#159=FACE_BOUND('',#171,.T.);
#160=FACE_BOUND('',#172,.T.);
#161=FACE_BOUND('',#173,.T.);
#162=EDGE_LOOP('',(#188));
#163=EDGE_LOOP('',(#189));
#164=EDGE_LOOP('',(#190));
#165=EDGE_LOOP('',(#191));
#166=EDGE_LOOP('',(#192));
#167=EDGE_LOOP('',(#193));
#168=EDGE_LOOP('',(#194));
#169=EDGE_LOOP('',(#195));
#170=EDGE_LOOP('',(#196));
#171=EDGE_LOOP('',(#197));
#172=EDGE_LOOP('',(#198));
#173=EDGE_LOOP('',(#199));
#174=EDGE_LOOP('',(#200,#201,#202,#203));
#175=EDGE_LOOP('',(#204,#205,#206,#207));
#176=EDGE_LOOP('',(#208,#209,#210,#211));
#177=EDGE_LOOP('',(#212,#213,#214,#215));
#178=EDGE_LOOP('',(#216,#217,#218,#219));
#179=EDGE_LOOP('',(#220,#221,#222,#223));
#180=EDGE_LOOP('',(#224,#225,#226,#227));
#181=EDGE_LOOP('',(#228,#229,#230,#231));
#182=EDGE_LOOP('',(#232,#233,#234,#235));
#183=EDGE_LOOP('',(#236,#237,#238,#239));
#184=EDGE_LOOP('',(#240,#241,#242,#243));
#185=EDGE_LOOP('',(#244,#245,#246,#247));
#186=EDGE_LOOP('',(#248,#249,#250,#251,#252,#253,#254,#255,#256,#257,#258,
#259));
#187=EDGE_LOOP('',(#260,#261,#262,#263,#264,#265,#266,#267,#268,#269,#270,
#271));
#188=ORIENTED_EDGE('',*,*,#302,.T.);
#189=ORIENTED_EDGE('',*,*,#303,.F.);
#190=ORIENTED_EDGE('',*,*,#304,.F.);
#191=ORIENTED_EDGE('',*,*,#302,.F.);
#192=ORIENTED_EDGE('',*,*,#305,.T.);
#193=ORIENTED_EDGE('',*,*,#303,.T.);
#194=ORIENTED_EDGE('',*,*,#306,.T.);
#195=ORIENTED_EDGE('',*,*,#304,.T.);
#196=ORIENTED_EDGE('',*,*,#307,.T.);
#197=ORIENTED_EDGE('',*,*,#305,.F.);
#198=ORIENTED_EDGE('',*,*,#306,.F.);
#199=ORIENTED_EDGE('',*,*,#307,.F.);
#200=ORIENTED_EDGE('',*,*,#308,.F.);
#201=ORIENTED_EDGE('',*,*,#309,.F.);
#202=ORIENTED_EDGE('',*,*,#310,.T.);
#203=ORIENTED_EDGE('',*,*,#311,.T.);
#204=ORIENTED_EDGE('',*,*,#312,.F.);
#205=ORIENTED_EDGE('',*,*,#311,.F.);
#206=ORIENTED_EDGE('',*,*,#313,.T.);
#207=ORIENTED_EDGE('',*,*,#314,.T.);
#208=ORIENTED_EDGE('',*,*,#315,.T.);
#209=ORIENTED_EDGE('',*,*,#314,.F.);
#210=ORIENTED_EDGE('',*,*,#316,.F.);
#211=ORIENTED_EDGE('',*,*,#317,.T.);
#212=ORIENTED_EDGE('',*,*,#318,.F.);
#213=ORIENTED_EDGE('',*,*,#317,.F.);
#214=ORIENTED_EDGE('',*,*,#319,.T.);
#215=ORIENTED_EDGE('',*,*,#320,.T.);
#216=ORIENTED_EDGE('',*,*,#321,.T.);
#217=ORIENTED_EDGE('',*,*,#320,.F.);
#218=ORIENTED_EDGE('',*,*,#322,.F.);
#219=ORIENTED_EDGE('',*,*,#323,.T.);
#220=ORIENTED_EDGE('',*,*,#324,.F.);
#221=ORIENTED_EDGE('',*,*,#323,.F.);
#222=ORIENTED_EDGE('',*,*,#325,.T.);
#223=ORIENTED_EDGE('',*,*,#326,.T.);
#224=ORIENTED_EDGE('',*,*,#327,.F.);
#225=ORIENTED_EDGE('',*,*,#326,.F.);
#226=ORIENTED_EDGE('',*,*,#328,.T.);
#227=ORIENTED_EDGE('',*,*,#329,.T.);
#228=ORIENTED_EDGE('',*,*,#330,.F.);
#229=ORIENTED_EDGE('',*,*,#329,.F.);
#230=ORIENTED_EDGE('',*,*,#331,.T.);
#231=ORIENTED_EDGE('',*,*,#332,.T.);
#232=ORIENTED_EDGE('',*,*,#333,.T.);
#233=ORIENTED_EDGE('',*,*,#332,.F.);
#234=ORIENTED_EDGE('',*,*,#334,.F.);
#235=ORIENTED_EDGE('',*,*,#335,.T.);
#236=ORIENTED_EDGE('',*,*,#336,.F.);
#237=ORIENTED_EDGE('',*,*,#335,.F.);
#238=ORIENTED_EDGE('',*,*,#337,.T.);
#239=ORIENTED_EDGE('',*,*,#338,.T.);
#240=ORIENTED_EDGE('',*,*,#339,.T.);
#241=ORIENTED_EDGE('',*,*,#338,.F.);
#242=ORIENTED_EDGE('',*,*,#340,.F.);
#243=ORIENTED_EDGE('',*,*,#341,.T.);
#244=ORIENTED_EDGE('',*,*,#342,.F.);
#245=ORIENTED_EDGE('',*,*,#341,.F.);
#246=ORIENTED_EDGE('',*,*,#343,.T.);
#247=ORIENTED_EDGE('',*,*,#309,.T.);
#248=ORIENTED_EDGE('',*,*,#310,.F.);
#249=ORIENTED_EDGE('',*,*,#343,.F.);
#250=ORIENTED_EDGE('',*,*,#340,.T.);
#251=ORIENTED_EDGE('',*,*,#337,.F.);
#252=ORIENTED_EDGE('',*,*,#334,.T.);
#253=ORIENTED_EDGE('',*,*,#331,.F.);
#254=ORIENTED_EDGE('',*,*,#328,.F.);
#255=ORIENTED_EDGE('',*,*,#325,.F.);
#256=ORIENTED_EDGE('',*,*,#322,.T.);
#257=ORIENTED_EDGE('',*,*,#319,.F.);
#258=ORIENTED_EDGE('',*,*,#316,.T.);
#259=ORIENTED_EDGE('',*,*,#313,.F.);
#260=ORIENTED_EDGE('',*,*,#308,.T.);
#261=ORIENTED_EDGE('',*,*,#312,.T.);
#262=ORIENTED_EDGE('',*,*,#315,.F.);
#263=ORIENTED_EDGE('',*,*,#318,.T.);
#264=ORIENTED_EDGE('',*,*,#321,.F.);
#265=ORIENTED_EDGE('',*,*,#324,.T.);
#266=ORIENTED_EDGE('',*,*,#327,.T.);
#267=ORIENTED_EDGE('',*,*,#330,.T.);
#268=ORIENTED_EDGE('',*,*,#333,.F.);
#269=ORIENTED_EDGE('',*,*,#336,.T.);
#270=ORIENTED_EDGE('',*,*,#339,.F.);
#271=ORIENTED_EDGE('',*,*,#342,.T.);
#272=VERTEX_POINT('',#499);
#273=VERTEX_POINT('',#501);
#274=VERTEX_POINT('',#504);
#275=VERTEX_POINT('',#507);
#276=VERTEX_POINT('',#510);
#277=VERTEX_POINT('',#513);
#278=VERTEX_POINT('',#517);
#279=VERTEX_POINT('',#518);
#280=VERTEX_POINT('',#520);
#281=VERTEX_POINT('',#522);
#282=VERTEX_POINT('',#526);
#283=VERTEX_POINT('',#528);
#284=VERTEX_POINT('',#532);
#285=VERTEX_POINT('',#534);
#286=VERTEX_POINT('',#538);
#287=VERTEX_POINT('',#540);
#288=VERTEX_POINT('',#544);
#289=VERTEX_POINT('',#546);
#290=VERTEX_POINT('',#550);
#291=VERTEX_POINT('',#552);
#292=VERTEX_POINT('',#556);
#293=VERTEX_POINT('',#558);
#294=VERTEX_POINT('',#562);
#295=VERTEX_POINT('',#564);
#296=VERTEX_POINT('',#568);
#297=VERTEX_POINT('',#570);
#298=VERTEX_POINT('',#574);
#299=VERTEX_POINT('',#576);
#300=VERTEX_POINT('',#580);
#301=VERTEX_POINT('',#582);
#302=EDGE_CURVE('',#272,#272,#344,.T.);
#303=EDGE_CURVE('',#273,#273,#345,.T.);
#304=EDGE_CURVE('',#274,#274,#346,.T.);
#305=EDGE_CURVE('',#275,#275,#347,.T.);
#306=EDGE_CURVE('',#276,#276,#348,.T.);
#307=EDGE_CURVE('',#277,#277,#349,.T.);
#308=EDGE_CURVE('',#278,#279,#37,.T.);
#309=EDGE_CURVE('',#280,#278,#38,.T.);
#310=EDGE_CURVE('',#280,#281,#39,.T.);
#311=EDGE_CURVE('',#281,#279,#40,.T.);
#312=EDGE_CURVE('',#279,#282,#41,.T.);
#313=EDGE_CURVE('',#281,#283,#42,.T.);
#314=EDGE_CURVE('',#283,#282,#43,.T.);
#315=EDGE_CURVE('',#284,#282,#350,.T.);
#316=EDGE_CURVE('',#285,#283,#351,.T.);
#317=EDGE_CURVE('',#285,#284,#44,.T.);
#318=EDGE_CURVE('',#284,#286,#45,.T.);
#319=EDGE_CURVE('',#285,#287,#46,.T.);
#320=EDGE_CURVE('',#287,#286,#47,.T.);
#321=EDGE_CURVE('',#288,#286,#352,.T.);
#322=EDGE_CURVE('',#289,#287,#353,.T.);
#323=EDGE_CURVE('',#289,#288,#48,.T.);
#324=EDGE_CURVE('',#288,#290,#49,.T.);
#325=EDGE_CURVE('',#289,#291,#50,.T.);
#326=EDGE_CURVE('',#291,#290,#51,.T.);
#327=EDGE_CURVE('',#290,#292,#354,.T.);
#328=EDGE_CURVE('',#291,#293,#355,.T.);
#329=EDGE_CURVE('',#293,#292,#52,.T.);
#330=EDGE_CURVE('',#292,#294,#53,.T.);
#331=EDGE_CURVE('',#293,#295,#54,.T.);
#332=EDGE_CURVE('',#295,#294,#55,.T.);
#333=EDGE_CURVE('',#296,#294,#356,.T.);
#334=EDGE_CURVE('',#297,#295,#357,.T.);
#335=EDGE_CURVE('',#297,#296,#56,.T.);
#336=EDGE_CURVE('',#296,#298,#57,.T.);
#337=EDGE_CURVE('',#297,#299,#58,.T.);
#338=EDGE_CURVE('',#299,#298,#59,.T.);
#339=EDGE_CURVE('',#300,#298,#358,.T.);
#340=EDGE_CURVE('',#301,#299,#359,.T.);
#341=EDGE_CURVE('',#301,#300,#60,.T.);
#342=EDGE_CURVE('',#300,#278,#61,.T.);
#343=EDGE_CURVE('',#301,#280,#62,.T.);
#344=CIRCLE('',#361,5.41554549010217);
#345=CIRCLE('',#362,6.);
#346=CIRCLE('',#364,2.2);
#347=CIRCLE('',#366,3.);
#348=CIRCLE('',#368,2.2);
#349=CIRCLE('',#370,3.);
#350=CIRCLE('',#375,11.);
#351=CIRCLE('',#376,11.);
#352=CIRCLE('',#379,4.);
#353=CIRCLE('',#380,4.);
#354=CIRCLE('',#383,5.2);
#355=CIRCLE('',#384,5.2);
#356=CIRCLE('',#387,4.);
#357=CIRCLE('',#388,4.);
#358=CIRCLE('',#391,11.);
#359=CIRCLE('',#392,11.);
#360=AXIS2_PLACEMENT_3D('',#497,#397,#398);
#361=AXIS2_PLACEMENT_3D('',#498,#399,#400);
#362=AXIS2_PLACEMENT_3D('',#500,#401,#402);
#363=AXIS2_PLACEMENT_3D('',#502,#403,#404);
#364=AXIS2_PLACEMENT_3D('',#503,#405,#406);
#365=AXIS2_PLACEMENT_3D('',#505,#407,#408);
#366=AXIS2_PLACEMENT_3D('',#506,#409,#410);
#367=AXIS2_PLACEMENT_3D('',#508,#411,#412);
#368=AXIS2_PLACEMENT_3D('',#509,#413,#414);
#369=AXIS2_PLACEMENT_3D('',#511,#415,#416);
#370=AXIS2_PLACEMENT_3D('',#512,#417,#418);
#371=AXIS2_PLACEMENT_3D('',#514,#419,#420);
#372=AXIS2_PLACEMENT_3D('',#515,#421,#422);
#373=AXIS2_PLACEMENT_3D('',#524,#427,#428);
#374=AXIS2_PLACEMENT_3D('',#530,#432,#433);
#375=AXIS2_PLACEMENT_3D('',#531,#434,#435);
#376=AXIS2_PLACEMENT_3D('',#533,#436,#437);
#377=AXIS2_PLACEMENT_3D('',#536,#439,#440);
#378=AXIS2_PLACEMENT_3D('',#542,#444,#445);
#379=AXIS2_PLACEMENT_3D('',#543,#446,#447);
#380=AXIS2_PLACEMENT_3D('',#545,#448,#449);
#381=AXIS2_PLACEMENT_3D('',#548,#451,#452);
#382=AXIS2_PLACEMENT_3D('',#554,#456,#457);
#383=AXIS2_PLACEMENT_3D('',#555,#458,#459);
#384=AXIS2_PLACEMENT_3D('',#557,#460,#461);
#385=AXIS2_PLACEMENT_3D('',#560,#463,#464);
#386=AXIS2_PLACEMENT_3D('',#566,#468,#469);
#387=AXIS2_PLACEMENT_3D('',#567,#470,#471);
#388=AXIS2_PLACEMENT_3D('',#569,#472,#473);
#389=AXIS2_PLACEMENT_3D('',#572,#475,#476);
#390=AXIS2_PLACEMENT_3D('',#578,#480,#481);
#391=AXIS2_PLACEMENT_3D('',#579,#482,#483);
#392=AXIS2_PLACEMENT_3D('',#581,#484,#485);
#393=AXIS2_PLACEMENT_3D('',#584,#487,#488);
#394=AXIS2_PLACEMENT_3D('',#587,#491,#492);
#395=AXIS2_PLACEMENT_3D('',#588,#493,#494);
#396=AXIS2_PLACEMENT_3D('',#589,#495,#496);
#397=DIRECTION('',(0.,0.,1.));
#398=DIRECTION('',(1.,0.,0.));
#399=DIRECTION('',(0.,0.,1.));
#400=DIRECTION('',(1.,0.,0.));
#401=DIRECTION('',(0.,0.,1.));
#402=DIRECTION('',(1.,0.,0.));
#403=DIRECTION('',(0.,0.,1.));
#404=DIRECTION('',(1.,0.,2.04680321412342E-17));
#405=DIRECTION('',(0.,0.,-1.));
#406=DIRECTION('',(-1.,0.,0.));
#407=DIRECTION('',(0.,0.,1.));
#408=DIRECTION('',(1.,0.,0.));
#409=DIRECTION('',(0.,0.,-1.));
#410=DIRECTION('',(-1.,0.,0.));
#411=DIRECTION('',(0.,0.,1.));
#412=DIRECTION('',(1.,0.,0.));
#413=DIRECTION('',(0.,0.,1.));
#414=DIRECTION('',(1.,0.,0.));
#415=DIRECTION('',(0.,0.,-1.));
#416=DIRECTION('',(-1.,0.,0.));
#417=DIRECTION('',(0.,0.,-1.));
#418=DIRECTION('',(-1.,0.,0.));
#419=DIRECTION('',(0.,0.,-1.));
#420=DIRECTION('',(-1.,0.,0.));
#421=DIRECTION('',(0.,0.,1.));
#422=DIRECTION('',(1.,0.,0.));
#423=DIRECTION('',(1.,0.,0.));
#424=DIRECTION('',(0.,0.,1.));
#425=DIRECTION('',(1.,0.,0.));
#426=DIRECTION('',(0.,0.,1.));
#427=DIRECTION('',(0.,-1.,0.));
#428=DIRECTION('',(0.,0.,-1.));
#429=DIRECTION('',(0.,1.,0.));
#430=DIRECTION('',(0.,1.,0.));
#431=DIRECTION('',(0.,0.,1.));
#432=DIRECTION('',(1.,0.,0.));
#433=DIRECTION('',(0.,0.,-1.));
#434=DIRECTION('',(0.,0.,1.));
#435=DIRECTION('',(1.,0.,0.));
#436=DIRECTION('',(0.,0.,1.));
#437=DIRECTION('',(1.,0.,0.));
#438=DIRECTION('',(0.,0.,1.));
#439=DIRECTION('',(0.,0.,1.));
#440=DIRECTION('',(1.,0.,0.));
#441=DIRECTION('',(-9.29744880970893E-17,1.,0.));
#442=DIRECTION('',(-9.29744880970893E-17,1.,0.));
#443=DIRECTION('',(0.,0.,1.));
#444=DIRECTION('',(1.,9.29744880970893E-17,0.));
#445=DIRECTION('',(-9.28077059647592E-17,1.,0.));
#446=DIRECTION('',(0.,0.,1.));
#447=DIRECTION('',(1.,0.,0.));
#448=DIRECTION('',(0.,0.,1.));
#449=DIRECTION('',(1.,0.,0.));
#450=DIRECTION('',(0.,0.,1.));
#451=DIRECTION('',(0.,0.,1.));
#452=DIRECTION('',(1.,0.,0.));
#453=DIRECTION('',(0.,1.,0.));
#454=DIRECTION('',(0.,1.,0.));
#455=DIRECTION('',(0.,0.,1.));
#456=DIRECTION('',(1.,0.,0.));
#457=DIRECTION('',(0.,0.,-1.));
#458=DIRECTION('',(0.,0.,1.));
#459=DIRECTION('',(1.,0.,0.));
#460=DIRECTION('',(0.,0.,1.));
#461=DIRECTION('',(1.,0.,0.));
#462=DIRECTION('',(0.,0.,1.));
#463=DIRECTION('',(0.,0.,1.));
#464=DIRECTION('',(1.,0.,0.));
#465=DIRECTION('',(0.,-1.,0.));
#466=DIRECTION('',(0.,-1.,0.));
#467=DIRECTION('',(0.,0.,1.));
#468=DIRECTION('',(-1.,0.,0.));
#469=DIRECTION('',(0.,0.,1.));
#470=DIRECTION('',(0.,0.,1.));
#471=DIRECTION('',(1.,0.,0.));
#472=DIRECTION('',(0.,0.,1.));
#473=DIRECTION('',(1.,0.,0.));
#474=DIRECTION('',(0.,0.,1.));
#475=DIRECTION('',(0.,0.,1.));
#476=DIRECTION('',(1.,0.,0.));
#477=DIRECTION('',(1.39461732145634E-16,-1.,0.));
#478=DIRECTION('',(1.39461732145634E-16,-1.,0.));
#479=DIRECTION('',(0.,0.,1.));
#480=DIRECTION('',(-1.,-1.39461732145634E-16,0.));
#481=DIRECTION('',(1.39645239816133E-16,-1.,0.));
#482=DIRECTION('',(0.,0.,1.));
#483=DIRECTION('',(1.,0.,0.));
#484=DIRECTION('',(0.,0.,1.));
#485=DIRECTION('',(1.,0.,0.));
#486=DIRECTION('',(0.,0.,1.));
#487=DIRECTION('',(0.,0.,1.));
#488=DIRECTION('',(1.,0.,0.));
#489=DIRECTION('',(1.16743308575396E-16,-1.,0.));
#490=DIRECTION('',(1.16743308575396E-16,-1.,0.));
#491=DIRECTION('',(-1.,-1.16743308575396E-16,0.));
#492=DIRECTION('',(1.16226472890446E-16,-1.,0.));
#493=DIRECTION('',(0.,0.,1.));
#494=DIRECTION('',(1.,0.,0.));
#495=DIRECTION('',(0.,0.,1.));
#496=DIRECTION('',(1.,0.,0.));
#497=CARTESIAN_POINT('',(0.,0.,0.));
#498=CARTESIAN_POINT('',(0.,-6.00000000000001,-4.76));
#499=CARTESIAN_POINT('',(5.41554549010217,-6.00000000000001,-4.76));
#500=CARTESIAN_POINT('',(0.,-6.00000000000001,-2.63596653185538E-15));
#501=CARTESIAN_POINT('',(6.,-6.00000000000001,-2.63596653185538E-15));
#502=CARTESIAN_POINT('',(0.,-6.00000000000001,-2.63596653185538E-15));
#503=CARTESIAN_POINT('',(0.,-6.00000000000001,-4.76));
#504=CARTESIAN_POINT('',(-2.2,-6.00000000000001,-4.76));
#505=CARTESIAN_POINT('',(0.,-6.00000000000001,-4.76));
#506=CARTESIAN_POINT('',(0.,-6.00000000000001,-2.63596653185538E-15));
#507=CARTESIAN_POINT('',(-3.,-6.00000000000001,-2.63596653185538E-15));
#508=CARTESIAN_POINT('',(0.,-6.00000000000001,-2.63596653185538E-15));
#509=CARTESIAN_POINT('',(0.,-6.00000000000001,-2.3));
#510=CARTESIAN_POINT('',(2.2,-6.00000000000001,-2.3));
#511=CARTESIAN_POINT('',(0.,-6.00000000000001,-4.76));
#512=CARTESIAN_POINT('',(0.,-6.00000000000001,-0.7));
#513=CARTESIAN_POINT('',(-3.,-6.00000000000001,-0.7));
#514=CARTESIAN_POINT('',(0.,-6.00000000000001,-2.63596653185538E-15));
#515=CARTESIAN_POINT('',(0.,-6.00000000000001,-2.3));
#516=CARTESIAN_POINT('',(-12.5,-171.8,-0.04));
#517=CARTESIAN_POINT('',(-12.5,-171.8,-0.04));
#518=CARTESIAN_POINT('',(12.5,-171.8,-0.04));
#519=CARTESIAN_POINT('',(-12.5,-171.8,-32.04));
#520=CARTESIAN_POINT('',(-12.5,-171.8,-32.04));
#521=CARTESIAN_POINT('',(-12.5,-171.8,-32.04));
#522=CARTESIAN_POINT('',(12.5,-171.8,-32.04));
#523=CARTESIAN_POINT('',(12.5,-171.8,-32.04));
#524=CARTESIAN_POINT('',(-12.5,-171.8,-32.04));
#525=CARTESIAN_POINT('',(12.5,-171.8,-0.04));
#526=CARTESIAN_POINT('',(12.5,-38.0663284576328,-0.04));
#527=CARTESIAN_POINT('',(12.5,-171.8,-32.04));
#528=CARTESIAN_POINT('',(12.5,-38.0663284576328,-32.04));
#529=CARTESIAN_POINT('',(12.5,-38.0663284576328,-32.04));
#530=CARTESIAN_POINT('',(12.5,-171.8,-32.04));
#531=CARTESIAN_POINT('',(16.45,-27.8,-0.04));
#532=CARTESIAN_POINT('',(5.45,-27.8,-0.04));
#533=CARTESIAN_POINT('',(16.45,-27.8,-32.04));
#534=CARTESIAN_POINT('',(5.45,-27.8,-32.04));
#535=CARTESIAN_POINT('',(5.45,-27.8,-32.04));
#536=CARTESIAN_POINT('',(16.45,-27.8,-32.04));
#537=CARTESIAN_POINT('',(5.45,-27.8,-0.04));
#538=CARTESIAN_POINT('',(5.45,-9.14194109070752,-0.04));
#539=CARTESIAN_POINT('',(5.45,-27.8,-32.04));
#540=CARTESIAN_POINT('',(5.45,-9.14194109070752,-32.04));
#541=CARTESIAN_POINT('',(5.45,-9.14194109070752,-32.04));
#542=CARTESIAN_POINT('',(5.45,-27.8,-32.04));
#543=CARTESIAN_POINT('',(9.2,-7.75000000000001,-0.04));
#544=CARTESIAN_POINT('',(5.2,-7.75000000000001,-0.04));
#545=CARTESIAN_POINT('',(9.2,-7.75000000000001,-32.04));
#546=CARTESIAN_POINT('',(5.2,-7.75000000000001,-32.04));
#547=CARTESIAN_POINT('',(5.2,-7.75000000000001,-32.04));
#548=CARTESIAN_POINT('',(9.2,-7.75000000000001,-32.04));
#549=CARTESIAN_POINT('',(5.2,-7.75000000000001,-0.04));
#550=CARTESIAN_POINT('',(5.2,-6.00000000000001,-0.04));
#551=CARTESIAN_POINT('',(5.2,-7.75000000000001,-32.04));
#552=CARTESIAN_POINT('',(5.2,-6.00000000000001,-32.04));
#553=CARTESIAN_POINT('',(5.2,-6.00000000000001,-32.04));
#554=CARTESIAN_POINT('',(5.2,-7.75000000000001,-32.04));
#555=CARTESIAN_POINT('',(0.,-6.00000000000001,-0.04));
#556=CARTESIAN_POINT('',(-5.2,-6.00000000000001,-0.04));
#557=CARTESIAN_POINT('',(0.,-6.00000000000001,-32.04));
#558=CARTESIAN_POINT('',(-5.2,-6.00000000000001,-32.04));
#559=CARTESIAN_POINT('',(-5.2,-6.00000000000001,-32.04));
#560=CARTESIAN_POINT('',(0.,-6.00000000000001,-32.04));
#561=CARTESIAN_POINT('',(-5.2,-6.00000000000001,-0.04));
#562=CARTESIAN_POINT('',(-5.2,-7.75000000000001,-0.04));
#563=CARTESIAN_POINT('',(-5.2,-6.00000000000001,-32.04));
#564=CARTESIAN_POINT('',(-5.2,-7.75000000000001,-32.04));
#565=CARTESIAN_POINT('',(-5.2,-7.75000000000001,-32.04));
#566=CARTESIAN_POINT('',(-5.2,-6.00000000000001,-32.04));
#567=CARTESIAN_POINT('',(-9.2,-7.75000000000001,-0.04));
#568=CARTESIAN_POINT('',(-5.45,-9.14194109070752,-0.04));
#569=CARTESIAN_POINT('',(-9.2,-7.75000000000001,-32.04));
#570=CARTESIAN_POINT('',(-5.45,-9.14194109070752,-32.04));
#571=CARTESIAN_POINT('',(-5.45,-9.14194109070752,-32.04));
#572=CARTESIAN_POINT('',(-9.2,-7.75000000000001,-32.04));
#573=CARTESIAN_POINT('',(-5.45,-9.14194109070752,-0.04));
#574=CARTESIAN_POINT('',(-5.45,-27.8,-0.04));
#575=CARTESIAN_POINT('',(-5.45,-9.14194109070752,-32.04));
#576=CARTESIAN_POINT('',(-5.45,-27.8,-32.04));
#577=CARTESIAN_POINT('',(-5.45,-27.8,-32.04));
#578=CARTESIAN_POINT('',(-5.45,-9.14194109070752,-32.04));
#579=CARTESIAN_POINT('',(-16.45,-27.8,-0.04));
#580=CARTESIAN_POINT('',(-12.5,-38.0663284576328,-0.04));
#581=CARTESIAN_POINT('',(-16.45,-27.8,-32.04));
#582=CARTESIAN_POINT('',(-12.5,-38.0663284576328,-32.04));
#583=CARTESIAN_POINT('',(-12.5,-38.0663284576328,-32.04));
#584=CARTESIAN_POINT('',(-16.45,-27.8,-32.04));
#585=CARTESIAN_POINT('',(-12.5,-38.0663284576328,-0.04));
#586=CARTESIAN_POINT('',(-12.5,-38.0663284576328,-32.04));
#587=CARTESIAN_POINT('',(-12.5,-38.0663284576328,-32.04));
#588=CARTESIAN_POINT('',(16.45,-27.8,-32.04));
#589=CARTESIAN_POINT('',(16.45,-27.8,-0.04));
#590=MECHANICAL_DESIGN_GEOMETRIC_PRESENTATION_REPRESENTATION('',(#90,#91),
#591);
#591=(
GEOMETRIC_REPRESENTATION_CONTEXT(3)
GLOBAL_UNCERTAINTY_ASSIGNED_CONTEXT((#592))
GLOBAL_UNIT_ASSIGNED_CONTEXT((#598,#594,#593))
REPRESENTATION_CONTEXT('SRDCN3225P12M_SIM','TOP_LEVEL_ASSEMBLY_PART')
);
#592=UNCERTAINTY_MEASURE_WITH_UNIT(LENGTH_MEASURE(2.E-5),#598,
'DISTANCE_ACCURACY_VALUE','Maximum Tolerance applied to model');
#593=(
NAMED_UNIT(*)
SI_UNIT($,.STERADIAN.)
SOLID_ANGLE_UNIT()
);
#594=(
CONVERSION_BASED_UNIT('DEGREE',#596)
NAMED_UNIT(#595)
PLANE_ANGLE_UNIT()
);
#595=DIMENSIONAL_EXPONENTS(0.,0.,0.,0.,0.,0.,0.);
#596=PLANE_ANGLE_MEASURE_WITH_UNIT(PLANE_ANGLE_MEASURE(0.0174532925),#597);
#597=(
NAMED_UNIT(*)
PLANE_ANGLE_UNIT()
SI_UNIT($,.RADIAN.)
);
#598=(
LENGTH_UNIT()
NAMED_UNIT(*)
SI_UNIT(.MILLI.,.METRE.)
);
ENDSEC;
END-ISO-10303-21;
