ISO-10303-21;
HEADER;
/* Generated by software containing ST-Developer
 * from STEP Tools, Inc. (www.steptools.com) 
 */
/* OPTION: using custom schema-name function */

FILE_DESCRIPTION(
/* description */ (''),
/* implementation_level */ '2;1');

FILE_NAME(
/* name */ 'SRDCN3225P10M_SIM.stp',
/* time_stamp */ '2021-10-19T14:01:52+02:00',
/* author */ (''),
/* organization */ (''),
/* preprocessor_version */ 'ST-DEVELOPER v16.7',
/* originating_system */ 'SIEMENS PLM Software NX 12.0',
/* authorisation */ '');

FILE_SCHEMA (('AUTOMOTIVE_DESIGN { 1 0 10303 214 3 1 1 1 }'));
ENDSEC;

DATA;
#10=SHAPE_REPRESENTATION_RELATIONSHIP('None',
'relationship between model1-None and model1-None',#22,#11);
#11=ADVANCED_BREP_SHAPE_REPRESENTATION('model1-None',(#54,#55),#591);
#12=SHAPE_DEFINITION_REPRESENTATION(#13,#22);
#13=PRODUCT_DEFINITION_SHAPE('','',#14);
#14=PRODUCT_DEFINITION(' ','',#16,#15);
#15=PRODUCT_DEFINITION_CONTEXT('part definition',#21,'design');
#16=PRODUCT_DEFINITION_FORMATION_WITH_SPECIFIED_SOURCE(' ',' ',#18,
 .NOT_KNOWN.);
#17=PRODUCT_RELATED_PRODUCT_CATEGORY('part','',(#18));
#18=PRODUCT('model1','model1',' ',(#19));
#19=PRODUCT_CONTEXT(' ',#21,'mechanical');
#20=APPLICATION_PROTOCOL_DEFINITION('international standard',
'automotive_design',2010,#21);
#21=APPLICATION_CONTEXT(
'core data for automotive mechanical design processes');
#22=SHAPE_REPRESENTATION('model1-None',(#360),#591);
#23=TOROIDAL_SURFACE('',#396,4.2,2.);
#24=CONICAL_SURFACE('',#387,5.,7.);
#25=FACE_BOUND('',#140,.T.);
#26=FACE_BOUND('',#141,.T.);
#27=FACE_BOUND('',#142,.T.);
#28=FACE_BOUND('',#143,.T.);
#29=FACE_BOUND('',#144,.T.);
#30=FACE_BOUND('',#145,.T.);
#31=FACE_BOUND('',#146,.T.);
#32=FACE_BOUND('',#147,.T.);
#33=FACE_BOUND('',#148,.T.);
#34=FACE_BOUND('',#149,.T.);
#35=FACE_BOUND('',#150,.T.);
#36=FACE_BOUND('',#151,.T.);
#37=PRESENTATION_LAYER_ASSIGNMENT('1','Layer 1',(#54,#55));
#38=STYLED_ITEM('',(#40),#54);
#39=STYLED_ITEM('',(#41),#55);
#40=PRESENTATION_STYLE_ASSIGNMENT((#42));
#41=PRESENTATION_STYLE_ASSIGNMENT((#43));
#42=SURFACE_STYLE_USAGE(.BOTH.,#44);
#43=SURFACE_STYLE_USAGE(.BOTH.,#45);
#44=SURFACE_SIDE_STYLE('',(#46));
#45=SURFACE_SIDE_STYLE('',(#47));
#46=SURFACE_STYLE_FILL_AREA(#48);
#47=SURFACE_STYLE_FILL_AREA(#49);
#48=FILL_AREA_STYLE('',(#50));
#49=FILL_AREA_STYLE('',(#51));
#50=FILL_AREA_STYLE_COLOUR('',#52);
#51=FILL_AREA_STYLE_COLOUR('',#53);
#52=COLOUR_RGB('St\X2\0159\X0\edn\X\ED \X2\0161\X0\ed\X\E1',0.490196078431373,
0.490196078431373,0.490196078431373);
#53=COLOUR_RGB('Sv\X2\011B\X0\tl\X\E1 \X2\0161\X0\ed\X\E1',0.8,0.8,0.8);
#54=MANIFOLD_SOLID_BREP('',#56);
#55=MANIFOLD_SOLID_BREP('',#57);
#56=CLOSED_SHELL('',(#81,#82,#83,#84,#85,#86,#87,#88,#89,#90,#91,#92,#93,
#94));
#57=CLOSED_SHELL('',(#95,#96,#97,#98,#99,#100));
#58=CYLINDRICAL_SURFACE('',#365,8.);
#59=CYLINDRICAL_SURFACE('',#369,3.);
#60=CYLINDRICAL_SURFACE('',#373,4.25);
#61=CYLINDRICAL_SURFACE('',#377,3.);
#62=CYLINDRICAL_SURFACE('',#381,8.);
#63=CYLINDRICAL_SURFACE('',#393,2.2);
#64=CYLINDRICAL_SURFACE('',#395,3.);
#65=CIRCLE('',#363,8.);
#66=CIRCLE('',#364,8.);
#67=CIRCLE('',#367,3.);
#68=CIRCLE('',#368,3.);
#69=CIRCLE('',#371,4.25);
#70=CIRCLE('',#372,4.25);
#71=CIRCLE('',#375,3.);
#72=CIRCLE('',#376,3.);
#73=CIRCLE('',#379,8.);
#74=CIRCLE('',#380,8.);
#75=CIRCLE('',#385,4.51254529321547);
#76=CIRCLE('',#386,5.);
#77=CIRCLE('',#388,2.2);
#78=CIRCLE('',#390,3.);
#79=CIRCLE('',#392,2.2);
#80=CIRCLE('',#394,3.);
#81=ADVANCED_FACE('',(#112),#101,.T.);
#82=ADVANCED_FACE('',(#113),#102,.T.);
#83=ADVANCED_FACE('',(#114),#58,.F.);
#84=ADVANCED_FACE('',(#115),#103,.T.);
#85=ADVANCED_FACE('',(#116),#59,.F.);
#86=ADVANCED_FACE('',(#117),#104,.T.);
#87=ADVANCED_FACE('',(#118),#60,.T.);
#88=ADVANCED_FACE('',(#119),#105,.T.);
#89=ADVANCED_FACE('',(#120),#61,.F.);
#90=ADVANCED_FACE('',(#121),#106,.T.);
#91=ADVANCED_FACE('',(#122),#62,.F.);
#92=ADVANCED_FACE('',(#123),#107,.T.);
#93=ADVANCED_FACE('',(#124),#108,.F.);
#94=ADVANCED_FACE('',(#125),#109,.T.);
#95=ADVANCED_FACE('',(#25,#26),#24,.T.);
#96=ADVANCED_FACE('',(#27,#28),#110,.F.);
#97=ADVANCED_FACE('',(#29,#30),#111,.T.);
#98=ADVANCED_FACE('',(#31,#32),#63,.F.);
#99=ADVANCED_FACE('',(#33,#34),#64,.F.);
#100=ADVANCED_FACE('',(#35,#36),#23,.T.);
#101=PLANE('',#361);
#102=PLANE('',#362);
#103=PLANE('',#366);
#104=PLANE('',#370);
#105=PLANE('',#374);
#106=PLANE('',#378);
#107=PLANE('',#382);
#108=PLANE('',#383);
#109=PLANE('',#384);
#110=PLANE('',#389);
#111=PLANE('',#391);
#112=FACE_OUTER_BOUND('',#126,.T.);
#113=FACE_OUTER_BOUND('',#127,.T.);
#114=FACE_OUTER_BOUND('',#128,.T.);
#115=FACE_OUTER_BOUND('',#129,.T.);
#116=FACE_OUTER_BOUND('',#130,.T.);
#117=FACE_OUTER_BOUND('',#131,.T.);
#118=FACE_OUTER_BOUND('',#132,.T.);
#119=FACE_OUTER_BOUND('',#133,.T.);
#120=FACE_OUTER_BOUND('',#134,.T.);
#121=FACE_OUTER_BOUND('',#135,.T.);
#122=FACE_OUTER_BOUND('',#136,.T.);
#123=FACE_OUTER_BOUND('',#137,.T.);
#124=FACE_OUTER_BOUND('',#138,.T.);
#125=FACE_OUTER_BOUND('',#139,.T.);
#126=EDGE_LOOP('',(#152,#153,#154,#155));
#127=EDGE_LOOP('',(#156,#157,#158,#159));
#128=EDGE_LOOP('',(#160,#161,#162,#163));
#129=EDGE_LOOP('',(#164,#165,#166,#167));
#130=EDGE_LOOP('',(#168,#169,#170,#171));
#131=EDGE_LOOP('',(#172,#173,#174,#175));
#132=EDGE_LOOP('',(#176,#177,#178,#179));
#133=EDGE_LOOP('',(#180,#181,#182,#183));
#134=EDGE_LOOP('',(#184,#185,#186,#187));
#135=EDGE_LOOP('',(#188,#189,#190,#191));
#136=EDGE_LOOP('',(#192,#193,#194,#195));
#137=EDGE_LOOP('',(#196,#197,#198,#199));
#138=EDGE_LOOP('',(#200,#201,#202,#203,#204,#205,#206,#207,#208,#209,#210,
#211));
#139=EDGE_LOOP('',(#212,#213,#214,#215,#216,#217,#218,#219,#220,#221,#222,
#223));
#140=EDGE_LOOP('',(#224));
#141=EDGE_LOOP('',(#225));
#142=EDGE_LOOP('',(#226));
#143=EDGE_LOOP('',(#227));
#144=EDGE_LOOP('',(#228));
#145=EDGE_LOOP('',(#229));
#146=EDGE_LOOP('',(#230));
#147=EDGE_LOOP('',(#231));
#148=EDGE_LOOP('',(#232));
#149=EDGE_LOOP('',(#233));
#150=EDGE_LOOP('',(#234));
#151=EDGE_LOOP('',(#235));
#152=ORIENTED_EDGE('',*,*,#266,.F.);
#153=ORIENTED_EDGE('',*,*,#267,.F.);
#154=ORIENTED_EDGE('',*,*,#268,.T.);
#155=ORIENTED_EDGE('',*,*,#269,.T.);
#156=ORIENTED_EDGE('',*,*,#270,.F.);
#157=ORIENTED_EDGE('',*,*,#269,.F.);
#158=ORIENTED_EDGE('',*,*,#271,.T.);
#159=ORIENTED_EDGE('',*,*,#272,.T.);
#160=ORIENTED_EDGE('',*,*,#273,.T.);
#161=ORIENTED_EDGE('',*,*,#272,.F.);
#162=ORIENTED_EDGE('',*,*,#274,.F.);
#163=ORIENTED_EDGE('',*,*,#275,.T.);
#164=ORIENTED_EDGE('',*,*,#276,.F.);
#165=ORIENTED_EDGE('',*,*,#275,.F.);
#166=ORIENTED_EDGE('',*,*,#277,.T.);
#167=ORIENTED_EDGE('',*,*,#278,.T.);
#168=ORIENTED_EDGE('',*,*,#279,.T.);
#169=ORIENTED_EDGE('',*,*,#278,.F.);
#170=ORIENTED_EDGE('',*,*,#280,.F.);
#171=ORIENTED_EDGE('',*,*,#281,.T.);
#172=ORIENTED_EDGE('',*,*,#282,.F.);
#173=ORIENTED_EDGE('',*,*,#281,.F.);
#174=ORIENTED_EDGE('',*,*,#283,.T.);
#175=ORIENTED_EDGE('',*,*,#284,.T.);
#176=ORIENTED_EDGE('',*,*,#285,.F.);
#177=ORIENTED_EDGE('',*,*,#284,.F.);
#178=ORIENTED_EDGE('',*,*,#286,.T.);
#179=ORIENTED_EDGE('',*,*,#287,.T.);
#180=ORIENTED_EDGE('',*,*,#288,.F.);
#181=ORIENTED_EDGE('',*,*,#287,.F.);
#182=ORIENTED_EDGE('',*,*,#289,.T.);
#183=ORIENTED_EDGE('',*,*,#290,.T.);
#184=ORIENTED_EDGE('',*,*,#291,.T.);
#185=ORIENTED_EDGE('',*,*,#290,.F.);
#186=ORIENTED_EDGE('',*,*,#292,.F.);
#187=ORIENTED_EDGE('',*,*,#293,.T.);
#188=ORIENTED_EDGE('',*,*,#294,.F.);
#189=ORIENTED_EDGE('',*,*,#293,.F.);
#190=ORIENTED_EDGE('',*,*,#295,.T.);
#191=ORIENTED_EDGE('',*,*,#296,.T.);
#192=ORIENTED_EDGE('',*,*,#297,.T.);
#193=ORIENTED_EDGE('',*,*,#296,.F.);
#194=ORIENTED_EDGE('',*,*,#298,.F.);
#195=ORIENTED_EDGE('',*,*,#299,.T.);
#196=ORIENTED_EDGE('',*,*,#300,.F.);
#197=ORIENTED_EDGE('',*,*,#299,.F.);
#198=ORIENTED_EDGE('',*,*,#301,.T.);
#199=ORIENTED_EDGE('',*,*,#267,.T.);
#200=ORIENTED_EDGE('',*,*,#268,.F.);
#201=ORIENTED_EDGE('',*,*,#301,.F.);
#202=ORIENTED_EDGE('',*,*,#298,.T.);
#203=ORIENTED_EDGE('',*,*,#295,.F.);
#204=ORIENTED_EDGE('',*,*,#292,.T.);
#205=ORIENTED_EDGE('',*,*,#289,.F.);
#206=ORIENTED_EDGE('',*,*,#286,.F.);
#207=ORIENTED_EDGE('',*,*,#283,.F.);
#208=ORIENTED_EDGE('',*,*,#280,.T.);
#209=ORIENTED_EDGE('',*,*,#277,.F.);
#210=ORIENTED_EDGE('',*,*,#274,.T.);
#211=ORIENTED_EDGE('',*,*,#271,.F.);
#212=ORIENTED_EDGE('',*,*,#266,.T.);
#213=ORIENTED_EDGE('',*,*,#270,.T.);
#214=ORIENTED_EDGE('',*,*,#273,.F.);
#215=ORIENTED_EDGE('',*,*,#276,.T.);
#216=ORIENTED_EDGE('',*,*,#279,.F.);
#217=ORIENTED_EDGE('',*,*,#282,.T.);
#218=ORIENTED_EDGE('',*,*,#285,.T.);
#219=ORIENTED_EDGE('',*,*,#288,.T.);
#220=ORIENTED_EDGE('',*,*,#291,.F.);
#221=ORIENTED_EDGE('',*,*,#294,.T.);
#222=ORIENTED_EDGE('',*,*,#297,.F.);
#223=ORIENTED_EDGE('',*,*,#300,.T.);
#224=ORIENTED_EDGE('',*,*,#302,.T.);
#225=ORIENTED_EDGE('',*,*,#303,.F.);
#226=ORIENTED_EDGE('',*,*,#304,.F.);
#227=ORIENTED_EDGE('',*,*,#302,.F.);
#228=ORIENTED_EDGE('',*,*,#305,.T.);
#229=ORIENTED_EDGE('',*,*,#303,.T.);
#230=ORIENTED_EDGE('',*,*,#306,.T.);
#231=ORIENTED_EDGE('',*,*,#304,.T.);
#232=ORIENTED_EDGE('',*,*,#307,.T.);
#233=ORIENTED_EDGE('',*,*,#305,.F.);
#234=ORIENTED_EDGE('',*,*,#306,.F.);
#235=ORIENTED_EDGE('',*,*,#307,.F.);
#236=VERTEX_POINT('',#499);
#237=VERTEX_POINT('',#500);
#238=VERTEX_POINT('',#502);
#239=VERTEX_POINT('',#504);
#240=VERTEX_POINT('',#508);
#241=VERTEX_POINT('',#510);
#242=VERTEX_POINT('',#514);
#243=VERTEX_POINT('',#516);
#244=VERTEX_POINT('',#520);
#245=VERTEX_POINT('',#522);
#246=VERTEX_POINT('',#526);
#247=VERTEX_POINT('',#528);
#248=VERTEX_POINT('',#532);
#249=VERTEX_POINT('',#534);
#250=VERTEX_POINT('',#538);
#251=VERTEX_POINT('',#540);
#252=VERTEX_POINT('',#544);
#253=VERTEX_POINT('',#546);
#254=VERTEX_POINT('',#550);
#255=VERTEX_POINT('',#552);
#256=VERTEX_POINT('',#556);
#257=VERTEX_POINT('',#558);
#258=VERTEX_POINT('',#562);
#259=VERTEX_POINT('',#564);
#260=VERTEX_POINT('',#573);
#261=VERTEX_POINT('',#575);
#262=VERTEX_POINT('',#578);
#263=VERTEX_POINT('',#581);
#264=VERTEX_POINT('',#584);
#265=VERTEX_POINT('',#587);
#266=EDGE_CURVE('',#236,#237,#308,.T.);
#267=EDGE_CURVE('',#238,#236,#309,.T.);
#268=EDGE_CURVE('',#238,#239,#310,.T.);
#269=EDGE_CURVE('',#239,#237,#311,.T.);
#270=EDGE_CURVE('',#237,#240,#312,.T.);
#271=EDGE_CURVE('',#239,#241,#313,.T.);
#272=EDGE_CURVE('',#241,#240,#314,.T.);
#273=EDGE_CURVE('',#242,#240,#65,.T.);
#274=EDGE_CURVE('',#243,#241,#66,.T.);
#275=EDGE_CURVE('',#243,#242,#315,.T.);
#276=EDGE_CURVE('',#242,#244,#316,.T.);
#277=EDGE_CURVE('',#243,#245,#317,.T.);
#278=EDGE_CURVE('',#245,#244,#318,.T.);
#279=EDGE_CURVE('',#246,#244,#67,.T.);
#280=EDGE_CURVE('',#247,#245,#68,.T.);
#281=EDGE_CURVE('',#247,#246,#319,.T.);
#282=EDGE_CURVE('',#246,#248,#320,.T.);
#283=EDGE_CURVE('',#247,#249,#321,.T.);
#284=EDGE_CURVE('',#249,#248,#322,.T.);
#285=EDGE_CURVE('',#248,#250,#69,.T.);
#286=EDGE_CURVE('',#249,#251,#70,.T.);
#287=EDGE_CURVE('',#251,#250,#323,.T.);
#288=EDGE_CURVE('',#250,#252,#324,.T.);
#289=EDGE_CURVE('',#251,#253,#325,.T.);
#290=EDGE_CURVE('',#253,#252,#326,.T.);
#291=EDGE_CURVE('',#254,#252,#71,.T.);
#292=EDGE_CURVE('',#255,#253,#72,.T.);
#293=EDGE_CURVE('',#255,#254,#327,.T.);
#294=EDGE_CURVE('',#254,#256,#328,.T.);
#295=EDGE_CURVE('',#255,#257,#329,.T.);
#296=EDGE_CURVE('',#257,#256,#330,.T.);
#297=EDGE_CURVE('',#258,#256,#73,.T.);
#298=EDGE_CURVE('',#259,#257,#74,.T.);
#299=EDGE_CURVE('',#259,#258,#331,.T.);
#300=EDGE_CURVE('',#258,#236,#332,.T.);
#301=EDGE_CURVE('',#259,#238,#333,.T.);
#302=EDGE_CURVE('',#260,#260,#75,.T.);
#303=EDGE_CURVE('',#261,#261,#76,.T.);
#304=EDGE_CURVE('',#262,#262,#77,.T.);
#305=EDGE_CURVE('',#263,#263,#78,.T.);
#306=EDGE_CURVE('',#264,#264,#79,.T.);
#307=EDGE_CURVE('',#265,#265,#80,.T.);
#308=LINE('',#498,#334);
#309=LINE('',#501,#335);
#310=LINE('',#503,#336);
#311=LINE('',#505,#337);
#312=LINE('',#507,#338);
#313=LINE('',#509,#339);
#314=LINE('',#511,#340);
#315=LINE('',#517,#341);
#316=LINE('',#519,#342);
#317=LINE('',#521,#343);
#318=LINE('',#523,#344);
#319=LINE('',#529,#345);
#320=LINE('',#531,#346);
#321=LINE('',#533,#347);
#322=LINE('',#535,#348);
#323=LINE('',#541,#349);
#324=LINE('',#543,#350);
#325=LINE('',#545,#351);
#326=LINE('',#547,#352);
#327=LINE('',#553,#353);
#328=LINE('',#555,#354);
#329=LINE('',#557,#355);
#330=LINE('',#559,#356);
#331=LINE('',#565,#357);
#332=LINE('',#567,#358);
#333=LINE('',#568,#359);
#334=VECTOR('',#399,1.);
#335=VECTOR('',#400,1.);
#336=VECTOR('',#401,1.);
#337=VECTOR('',#402,1.);
#338=VECTOR('',#405,1.);
#339=VECTOR('',#406,1.);
#340=VECTOR('',#407,1.);
#341=VECTOR('',#414,1.);
#342=VECTOR('',#417,1.);
#343=VECTOR('',#418,1.);
#344=VECTOR('',#419,1.);
#345=VECTOR('',#426,1.);
#346=VECTOR('',#429,1.);
#347=VECTOR('',#430,1.);
#348=VECTOR('',#431,1.);
#349=VECTOR('',#438,1.);
#350=VECTOR('',#441,1.);
#351=VECTOR('',#442,1.);
#352=VECTOR('',#443,1.);
#353=VECTOR('',#450,1.);
#354=VECTOR('',#453,1.);
#355=VECTOR('',#454,1.);
#356=VECTOR('',#455,1.);
#357=VECTOR('',#462,1.);
#358=VECTOR('',#465,1.);
#359=VECTOR('',#466,1.);
#360=AXIS2_PLACEMENT_3D('',#497,#397,#398);
#361=AXIS2_PLACEMENT_3D('',#506,#403,#404);
#362=AXIS2_PLACEMENT_3D('',#512,#408,#409);
#363=AXIS2_PLACEMENT_3D('',#513,#410,#411);
#364=AXIS2_PLACEMENT_3D('',#515,#412,#413);
#365=AXIS2_PLACEMENT_3D('',#518,#415,#416);
#366=AXIS2_PLACEMENT_3D('',#524,#420,#421);
#367=AXIS2_PLACEMENT_3D('',#525,#422,#423);
#368=AXIS2_PLACEMENT_3D('',#527,#424,#425);
#369=AXIS2_PLACEMENT_3D('',#530,#427,#428);
#370=AXIS2_PLACEMENT_3D('',#536,#432,#433);
#371=AXIS2_PLACEMENT_3D('',#537,#434,#435);
#372=AXIS2_PLACEMENT_3D('',#539,#436,#437);
#373=AXIS2_PLACEMENT_3D('',#542,#439,#440);
#374=AXIS2_PLACEMENT_3D('',#548,#444,#445);
#375=AXIS2_PLACEMENT_3D('',#549,#446,#447);
#376=AXIS2_PLACEMENT_3D('',#551,#448,#449);
#377=AXIS2_PLACEMENT_3D('',#554,#451,#452);
#378=AXIS2_PLACEMENT_3D('',#560,#456,#457);
#379=AXIS2_PLACEMENT_3D('',#561,#458,#459);
#380=AXIS2_PLACEMENT_3D('',#563,#460,#461);
#381=AXIS2_PLACEMENT_3D('',#566,#463,#464);
#382=AXIS2_PLACEMENT_3D('',#569,#467,#468);
#383=AXIS2_PLACEMENT_3D('',#570,#469,#470);
#384=AXIS2_PLACEMENT_3D('',#571,#471,#472);
#385=AXIS2_PLACEMENT_3D('',#572,#473,#474);
#386=AXIS2_PLACEMENT_3D('',#574,#475,#476);
#387=AXIS2_PLACEMENT_3D('',#576,#477,#478);
#388=AXIS2_PLACEMENT_3D('',#577,#479,#480);
#389=AXIS2_PLACEMENT_3D('',#579,#481,#482);
#390=AXIS2_PLACEMENT_3D('',#580,#483,#484);
#391=AXIS2_PLACEMENT_3D('',#582,#485,#486);
#392=AXIS2_PLACEMENT_3D('',#583,#487,#488);
#393=AXIS2_PLACEMENT_3D('',#585,#489,#490);
#394=AXIS2_PLACEMENT_3D('',#586,#491,#492);
#395=AXIS2_PLACEMENT_3D('',#588,#493,#494);
#396=AXIS2_PLACEMENT_3D('',#589,#495,#496);
#397=DIRECTION('',(0.,0.,1.));
#398=DIRECTION('',(1.,0.,0.));
#399=DIRECTION('',(1.,0.,0.));
#400=DIRECTION('',(0.,0.,1.));
#401=DIRECTION('',(1.,0.,0.));
#402=DIRECTION('',(0.,0.,1.));
#403=DIRECTION('',(0.,-1.,0.));
#404=DIRECTION('',(0.,0.,-1.));
#405=DIRECTION('',(0.,1.,0.));
#406=DIRECTION('',(0.,1.,0.));
#407=DIRECTION('',(0.,0.,1.));
#408=DIRECTION('',(1.,0.,0.));
#409=DIRECTION('',(0.,0.,-1.));
#410=DIRECTION('',(0.,0.,1.));
#411=DIRECTION('',(1.,0.,0.));
#412=DIRECTION('',(0.,0.,1.));
#413=DIRECTION('',(1.,0.,0.));
#414=DIRECTION('',(0.,0.,1.));
#415=DIRECTION('',(0.,0.,1.));
#416=DIRECTION('',(1.,0.,0.));
#417=DIRECTION('',(6.26682864217508E-17,1.,0.));
#418=DIRECTION('',(6.26682864217508E-17,1.,0.));
#419=DIRECTION('',(0.,0.,1.));
#420=DIRECTION('',(1.,-6.26682864217508E-17,0.));
#421=DIRECTION('',(6.24500451351651E-17,1.,0.));
#422=DIRECTION('',(0.,0.,1.));
#423=DIRECTION('',(1.,0.,0.));
#424=DIRECTION('',(0.,0.,1.));
#425=DIRECTION('',(1.,0.,0.));
#426=DIRECTION('',(0.,0.,1.));
#427=DIRECTION('',(0.,0.,1.));
#428=DIRECTION('',(1.,0.,0.));
#429=DIRECTION('',(0.,1.,0.));
#430=DIRECTION('',(0.,1.,0.));
#431=DIRECTION('',(0.,0.,1.));
#432=DIRECTION('',(1.,0.,0.));
#433=DIRECTION('',(0.,0.,-1.));
#434=DIRECTION('',(0.,0.,1.));
#435=DIRECTION('',(1.,0.,0.));
#436=DIRECTION('',(0.,0.,1.));
#437=DIRECTION('',(1.,0.,0.));
#438=DIRECTION('',(0.,0.,1.));
#439=DIRECTION('',(0.,0.,1.));
#440=DIRECTION('',(1.,0.,0.));
#441=DIRECTION('',(3.94255335449275E-16,-1.,0.));
#442=DIRECTION('',(3.94255335449275E-16,-1.,0.));
#443=DIRECTION('',(0.,0.,1.));
#444=DIRECTION('',(-1.,-3.94255335449275E-16,0.));
#445=DIRECTION('',(3.94649590784724E-16,-1.,0.));
#446=DIRECTION('',(0.,0.,1.));
#447=DIRECTION('',(1.,0.,0.));
#448=DIRECTION('',(0.,0.,1.));
#449=DIRECTION('',(1.,0.,0.));
#450=DIRECTION('',(0.,0.,1.));
#451=DIRECTION('',(0.,0.,1.));
#452=DIRECTION('',(1.,0.,0.));
#453=DIRECTION('',(1.13586269139423E-16,-1.,0.));
#454=DIRECTION('',(1.13586269139423E-16,-1.,0.));
#455=DIRECTION('',(0.,0.,1.));
#456=DIRECTION('',(-1.,-1.13586269139423E-16,0.));
#457=DIRECTION('',(1.13624387676481E-16,-1.,0.));
#458=DIRECTION('',(0.,0.,1.));
#459=DIRECTION('',(1.,0.,0.));
#460=DIRECTION('',(0.,0.,1.));
#461=DIRECTION('',(1.,0.,0.));
#462=DIRECTION('',(0.,0.,1.));
#463=DIRECTION('',(0.,0.,1.));
#464=DIRECTION('',(1.,0.,0.));
#465=DIRECTION('',(1.48880067377271E-16,-1.,0.));
#466=DIRECTION('',(1.48880067377271E-16,-1.,0.));
#467=DIRECTION('',(-1.,-1.48880067377271E-16,0.));
#468=DIRECTION('',(1.49186218934005E-16,-1.,0.));
#469=DIRECTION('',(0.,0.,1.));
#470=DIRECTION('',(1.,0.,0.));
#471=DIRECTION('',(0.,0.,1.));
#472=DIRECTION('',(1.,0.,0.));
#473=DIRECTION('',(0.,0.,1.));
#474=DIRECTION('',(1.,0.,0.));
#475=DIRECTION('',(0.,0.,1.));
#476=DIRECTION('',(1.,0.,0.));
#477=DIRECTION('',(0.,0.,1.));
#478=DIRECTION('',(1.,0.,8.16325546554275E-16));
#479=DIRECTION('',(0.,0.,-1.));
#480=DIRECTION('',(-1.,0.,0.));
#481=DIRECTION('',(0.,0.,1.));
#482=DIRECTION('',(1.,0.,0.));
#483=DIRECTION('',(0.,0.,-1.));
#484=DIRECTION('',(-1.,0.,0.));
#485=DIRECTION('',(0.,0.,1.));
#486=DIRECTION('',(1.,0.,0.));
#487=DIRECTION('',(0.,0.,1.));
#488=DIRECTION('',(1.,0.,0.));
#489=DIRECTION('',(0.,0.,-1.));
#490=DIRECTION('',(-1.,0.,0.));
#491=DIRECTION('',(0.,0.,-1.));
#492=DIRECTION('',(-1.,0.,0.));
#493=DIRECTION('',(0.,0.,-1.));
#494=DIRECTION('',(-1.,0.,0.));
#495=DIRECTION('',(0.,0.,1.));
#496=DIRECTION('',(1.,0.,0.));
#497=CARTESIAN_POINT('',(0.,0.,0.));
#498=CARTESIAN_POINT('',(-12.5412,-171.37,0.));
#499=CARTESIAN_POINT('',(-12.5412,-171.37,0.));
#500=CARTESIAN_POINT('',(12.4588,-171.37,0.));
#501=CARTESIAN_POINT('',(-12.5412,-171.37,-32.));
#502=CARTESIAN_POINT('',(-12.5412,-171.37,-32.));
#503=CARTESIAN_POINT('',(-12.5412,-171.37,-32.));
#504=CARTESIAN_POINT('',(12.4588,-171.37,-32.));
#505=CARTESIAN_POINT('',(12.4588,-171.37,-32.));
#506=CARTESIAN_POINT('',(-12.5412,-171.37,-32.));
#507=CARTESIAN_POINT('',(12.4588,-171.37,0.));
#508=CARTESIAN_POINT('',(12.4588,-43.2,0.));
#509=CARTESIAN_POINT('',(12.4588,-171.37,-32.));
#510=CARTESIAN_POINT('',(12.4588,-43.2,-32.));
#511=CARTESIAN_POINT('',(12.4588,-43.2,-32.));
#512=CARTESIAN_POINT('',(12.4588,-171.37,-32.));
#513=CARTESIAN_POINT('',(12.4588,-35.2,0.));
#514=CARTESIAN_POINT('',(4.4588,-35.2,0.));
#515=CARTESIAN_POINT('',(12.4588,-35.2,-32.));
#516=CARTESIAN_POINT('',(4.4588,-35.2,-32.));
#517=CARTESIAN_POINT('',(4.4588,-35.2,-32.));
#518=CARTESIAN_POINT('',(12.4588,-35.2,-32.));
#519=CARTESIAN_POINT('',(4.4588,-35.2,0.));
#520=CARTESIAN_POINT('',(4.4588,-7.51895788082819,0.));
#521=CARTESIAN_POINT('',(4.4588,-35.2,-32.));
#522=CARTESIAN_POINT('',(4.4588,-7.51895788082819,-32.));
#523=CARTESIAN_POINT('',(4.4588,-7.51895788082819,-32.));
#524=CARTESIAN_POINT('',(4.4588,-35.2,-32.));
#525=CARTESIAN_POINT('',(7.2088,-6.32,0.));
#526=CARTESIAN_POINT('',(4.2088,-6.32,0.));
#527=CARTESIAN_POINT('',(7.2088,-6.32,-32.));
#528=CARTESIAN_POINT('',(4.2088,-6.32,-32.));
#529=CARTESIAN_POINT('',(4.2088,-6.32,-32.));
#530=CARTESIAN_POINT('',(7.2088,-6.32,-32.));
#531=CARTESIAN_POINT('',(4.2088,-6.32,0.));
#532=CARTESIAN_POINT('',(4.2088,-5.22,0.));
#533=CARTESIAN_POINT('',(4.2088,-6.32,-32.));
#534=CARTESIAN_POINT('',(4.2088,-5.22,-32.));
#535=CARTESIAN_POINT('',(4.2088,-5.22,-32.));
#536=CARTESIAN_POINT('',(4.2088,-6.32,-32.));
#537=CARTESIAN_POINT('',(-0.0411999999999999,-5.22,0.));
#538=CARTESIAN_POINT('',(-4.2912,-5.22,0.));
#539=CARTESIAN_POINT('',(-0.0411999999999999,-5.22,-32.));
#540=CARTESIAN_POINT('',(-4.2912,-5.22,-32.));
#541=CARTESIAN_POINT('',(-4.2912,-5.22,-32.));
#542=CARTESIAN_POINT('',(-0.0411999999999999,-5.22,-32.));
#543=CARTESIAN_POINT('',(-4.2912,-5.22,0.));
#544=CARTESIAN_POINT('',(-4.2912,-6.32,0.));
#545=CARTESIAN_POINT('',(-4.2912,-5.22,-32.));
#546=CARTESIAN_POINT('',(-4.2912,-6.32,-32.));
#547=CARTESIAN_POINT('',(-4.2912,-6.32,-32.));
#548=CARTESIAN_POINT('',(-4.2912,-5.22,-32.));
#549=CARTESIAN_POINT('',(-7.2912,-6.32,0.));
#550=CARTESIAN_POINT('',(-4.5412,-7.51895788082818,0.));
#551=CARTESIAN_POINT('',(-7.2912,-6.32,-32.));
#552=CARTESIAN_POINT('',(-4.5412,-7.51895788082818,-32.));
#553=CARTESIAN_POINT('',(-4.5412,-7.51895788082818,-32.));
#554=CARTESIAN_POINT('',(-7.2912,-6.32,-32.));
#555=CARTESIAN_POINT('',(-4.5412,-7.51895788082818,0.));
#556=CARTESIAN_POINT('',(-4.5412,-35.2,0.));
#557=CARTESIAN_POINT('',(-4.5412,-7.51895788082818,-32.));
#558=CARTESIAN_POINT('',(-4.5412,-35.2,-32.));
#559=CARTESIAN_POINT('',(-4.5412,-35.2,-32.));
#560=CARTESIAN_POINT('',(-4.5412,-7.51895788082818,-32.));
#561=CARTESIAN_POINT('',(-12.5412,-35.2,0.));
#562=CARTESIAN_POINT('',(-12.5412,-43.2,0.));
#563=CARTESIAN_POINT('',(-12.5412,-35.2,-32.));
#564=CARTESIAN_POINT('',(-12.5412,-43.2,-32.));
#565=CARTESIAN_POINT('',(-12.5412,-43.2,-32.));
#566=CARTESIAN_POINT('',(-12.5412,-35.2,-32.));
#567=CARTESIAN_POINT('',(-12.5412,-43.2,0.));
#568=CARTESIAN_POINT('',(-12.5412,-43.2,-32.));
#569=CARTESIAN_POINT('',(-12.5412,-43.2,-32.));
#570=CARTESIAN_POINT('',(12.4588,-35.2,-32.));
#571=CARTESIAN_POINT('',(12.4588,-35.2,0.));
#572=CARTESIAN_POINT('',(-0.0411999999999999,-5.22,-3.92));
#573=CARTESIAN_POINT('',(4.47134529321547,-5.22,-3.92));
#574=CARTESIAN_POINT('',(-0.0411999999999999,-5.22,0.0500000000000012));
#575=CARTESIAN_POINT('',(4.9588,-5.22,0.0500000000000012));
#576=CARTESIAN_POINT('',(-0.0411999999999999,-5.22,0.0500000000000012));
#577=CARTESIAN_POINT('',(-0.0411999999999999,-5.22,-3.92));
#578=CARTESIAN_POINT('',(-2.2412,-5.22,-3.92));
#579=CARTESIAN_POINT('',(-0.0411999999999999,-5.22,-3.92));
#580=CARTESIAN_POINT('',(-0.0411999999999999,-5.22,0.0500000000000012));
#581=CARTESIAN_POINT('',(-3.0412,-5.22,0.0500000000000012));
#582=CARTESIAN_POINT('',(-0.0411999999999999,-5.22,0.0500000000000012));
#583=CARTESIAN_POINT('',(-0.0411999999999999,-5.22,-2.25));
#584=CARTESIAN_POINT('',(2.1588,-5.22,-2.25));
#585=CARTESIAN_POINT('',(-0.0411999999999999,-5.22,-3.92));
#586=CARTESIAN_POINT('',(-0.0411999999999999,-5.22,-0.649999999999999));
#587=CARTESIAN_POINT('',(-3.0412,-5.22,-0.649999999999999));
#588=CARTESIAN_POINT('',(-0.0411999999999999,-5.22,0.0500000000000012));
#589=CARTESIAN_POINT('',(-0.0411999999999999,-5.22,-2.25));
#590=MECHANICAL_DESIGN_GEOMETRIC_PRESENTATION_REPRESENTATION('',(#38,#39),
#591);
#591=(
GEOMETRIC_REPRESENTATION_CONTEXT(3)
GLOBAL_UNCERTAINTY_ASSIGNED_CONTEXT((#592))
GLOBAL_UNIT_ASSIGNED_CONTEXT((#598,#594,#593))
REPRESENTATION_CONTEXT('SRDCN3225P10M_SIM','TOP_LEVEL_ASSEMBLY_PART')
);
#592=UNCERTAINTY_MEASURE_WITH_UNIT(LENGTH_MEASURE(2.E-5),#598,
'DISTANCE_ACCURACY_VALUE','Maximum Tolerance applied to model');
#593=(
NAMED_UNIT(*)
SI_UNIT($,.STERADIAN.)
SOLID_ANGLE_UNIT()
);
#594=(
CONVERSION_BASED_UNIT('DEGREE',#596)
NAMED_UNIT(#595)
PLANE_ANGLE_UNIT()
);
#595=DIMENSIONAL_EXPONENTS(0.,0.,0.,0.,0.,0.,0.);
#596=PLANE_ANGLE_MEASURE_WITH_UNIT(PLANE_ANGLE_MEASURE(0.0174532925),#597);
#597=(
NAMED_UNIT(*)
PLANE_ANGLE_UNIT()
SI_UNIT($,.RADIAN.)
);
#598=(
LENGTH_UNIT()
NAMED_UNIT(*)
SI_UNIT(.MILLI.,.METRE.)
);
ENDSEC;
END-ISO-10303-21;
