ISO-10303-21;
HEADER;
/* Generated by software containing ST-Developer
 * from STEP Tools, Inc. (www.steptools.com) 
 */
/* OPTION: using custom schema-name function */

FILE_DESCRIPTION(
/* description */ (''),
/* implementation_level */ '2;1');

FILE_NAME(
/* name */ 'SEL-S2525M22-A_205150044_SIM.stp',
/* time_stamp */ '2024-02-09T12:08:14+01:00',
/* author */ (''),
/* organization */ (''),
/* preprocessor_version */ 'ST-DEVELOPER v16.7',
/* originating_system */ 'SIEMENS PLM Software NX 12.0',
/* authorisation */ '');

FILE_SCHEMA (('AUTOMOTIVE_DESIGN { 1 0 10303 214 3 1 1 1 }'));
ENDSEC;

DATA;
#10=PROPERTY_DEFINITION_REPRESENTATION(#14,#12);
#11=PROPERTY_DEFINITION_REPRESENTATION(#15,#13);
#12=REPRESENTATION('',(#16),#626);
#13=REPRESENTATION('',(#17),#626);
#14=PROPERTY_DEFINITION('pmi validation property','',#21);
#15=PROPERTY_DEFINITION('pmi validation property','',#21);
#16=VALUE_REPRESENTATION_ITEM('number of annotations',COUNT_MEASURE(0.));
#17=VALUE_REPRESENTATION_ITEM('number of views',COUNT_MEASURE(0.));
#18=SHAPE_REPRESENTATION_RELATIONSHIP('None',
'relationship between nd736030266Akvnh-None and nd736030266Akvnh-None',
#30,#19);
#19=ADVANCED_BREP_SHAPE_REPRESENTATION('nd736030266Akvnh-None',(#49,#50),
#626);
#20=SHAPE_DEFINITION_REPRESENTATION(#21,#30);
#21=PRODUCT_DEFINITION_SHAPE('','',#22);
#22=PRODUCT_DEFINITION(' ','',#24,#23);
#23=PRODUCT_DEFINITION_CONTEXT('part definition',#29,'design');
#24=PRODUCT_DEFINITION_FORMATION_WITH_SPECIFIED_SOURCE(' ',' ',#26,
 .NOT_KNOWN.);
#25=PRODUCT_RELATED_PRODUCT_CATEGORY('part','',(#26));
#26=PRODUCT('nd736030266Akvnh','nd736030266Akvnh',' ',(#27));
#27=PRODUCT_CONTEXT(' ',#29,'mechanical');
#28=APPLICATION_PROTOCOL_DEFINITION('international standard',
'automotive_design',2010,#29);
#29=APPLICATION_CONTEXT(
'core data for automotive mechanical design processes');
#30=SHAPE_REPRESENTATION('nd736030266Akvnh-None',(#405),#626);
#31=PRESENTATION_LAYER_ASSIGNMENT('10','Layer 10',(#49));
#32=PRESENTATION_LAYER_ASSIGNMENT('98','Layer 98',(#50));
#33=STYLED_ITEM('',(#35),#49);
#34=STYLED_ITEM('',(#36),#50);
#35=PRESENTATION_STYLE_ASSIGNMENT((#37));
#36=PRESENTATION_STYLE_ASSIGNMENT((#38));
#37=SURFACE_STYLE_USAGE(.BOTH.,#39);
#38=SURFACE_STYLE_USAGE(.BOTH.,#40);
#39=SURFACE_SIDE_STYLE('',(#41));
#40=SURFACE_SIDE_STYLE('',(#42));
#41=SURFACE_STYLE_FILL_AREA(#43);
#42=SURFACE_STYLE_FILL_AREA(#44);
#43=FILL_AREA_STYLE('',(#45));
#44=FILL_AREA_STYLE('',(#46));
#45=FILL_AREA_STYLE_COLOUR('',#47);
#46=FILL_AREA_STYLE_COLOUR('',#48);
#47=COLOUR_RGB('Light Gray',0.8,0.8,0.8);
#48=COLOUR_RGB('Silver Gray',0.6,0.6,0.6);
#49=MANIFOLD_SOLID_BREP('',#51);
#50=MANIFOLD_SOLID_BREP('',#52);
#51=CLOSED_SHELL('',(#72,#73,#74,#75,#76,#77,#78,#79));
#52=CLOSED_SHELL('',(#80,#81,#82,#83,#84,#85,#86,#87,#88,#89,#90,#91,#92));
#53=CYLINDRICAL_SURFACE('',#417,2.);
#54=TOROIDAL_SURFACE('',#416,4.5,2.5);
#55=CONICAL_SURFACE('',#414,3.09623752987852,5.);
#56=FACE_OUTER_BOUND('',#209,.T.);
#57=FACE_OUTER_BOUND('',#210,.T.);
#58=FACE_OUTER_BOUND('',#211,.T.);
#59=FACE_OUTER_BOUND('',#218,.T.);
#60=FACE_OUTER_BOUND('',#219,.T.);
#61=FACE_OUTER_BOUND('',#220,.T.);
#62=FACE_OUTER_BOUND('',#221,.T.);
#63=FACE_OUTER_BOUND('',#222,.T.);
#64=FACE_OUTER_BOUND('',#223,.T.);
#65=FACE_OUTER_BOUND('',#224,.T.);
#66=FACE_OUTER_BOUND('',#225,.T.);
#67=FACE_OUTER_BOUND('',#226,.T.);
#68=FACE_OUTER_BOUND('',#227,.T.);
#69=FACE_OUTER_BOUND('',#228,.T.);
#70=FACE_OUTER_BOUND('',#229,.T.);
#71=FACE_OUTER_BOUND('',#230,.T.);
#72=ADVANCED_FACE('',(#195,#196),#93,.F.);
#73=ADVANCED_FACE('',(#197,#198),#94,.F.);
#74=ADVANCED_FACE('',(#56),#95,.F.);
#75=ADVANCED_FACE('',(#57),#96,.F.);
#76=ADVANCED_FACE('',(#58),#97,.F.);
#77=ADVANCED_FACE('',(#199,#200),#55,.F.);
#78=ADVANCED_FACE('',(#201,#202),#54,.T.);
#79=ADVANCED_FACE('',(#203,#204),#53,.F.);
#80=ADVANCED_FACE('',(#59),#98,.F.);
#81=ADVANCED_FACE('',(#60),#99,.F.);
#82=ADVANCED_FACE('',(#61),#100,.F.);
#83=ADVANCED_FACE('',(#62),#101,.F.);
#84=ADVANCED_FACE('',(#63),#102,.F.);
#85=ADVANCED_FACE('',(#64),#103,.F.);
#86=ADVANCED_FACE('',(#65),#104,.F.);
#87=ADVANCED_FACE('',(#66),#105,.T.);
#88=ADVANCED_FACE('',(#67),#106,.T.);
#89=ADVANCED_FACE('',(#68),#107,.F.);
#90=ADVANCED_FACE('',(#69),#108,.T.);
#91=ADVANCED_FACE('',(#70),#109,.T.);
#92=ADVANCED_FACE('',(#71),#110,.T.);
#93=PLANE('',#407);
#94=PLANE('',#409);
#95=PLANE('',#410);
#96=PLANE('',#411);
#97=PLANE('',#412);
#98=PLANE('',#418);
#99=PLANE('',#419);
#100=PLANE('',#420);
#101=PLANE('',#421);
#102=PLANE('',#422);
#103=PLANE('',#423);
#104=PLANE('',#424);
#105=PLANE('',#425);
#106=PLANE('',#426);
#107=PLANE('',#427);
#108=PLANE('',#428);
#109=PLANE('',#429);
#110=PLANE('',#430);
#111=LINE('',#528,#153);
#112=LINE('',#531,#154);
#113=LINE('',#533,#155);
#114=LINE('',#537,#156);
#115=LINE('',#540,#157);
#116=LINE('',#542,#158);
#117=LINE('',#544,#159);
#118=LINE('',#545,#160);
#119=LINE('',#547,#161);
#120=LINE('',#557,#162);
#121=LINE('',#560,#163);
#122=LINE('',#562,#164);
#123=LINE('',#564,#165);
#124=LINE('',#566,#166);
#125=LINE('',#568,#167);
#126=LINE('',#570,#168);
#127=LINE('',#572,#169);
#128=LINE('',#574,#170);
#129=LINE('',#576,#171);
#130=LINE('',#578,#172);
#131=LINE('',#580,#173);
#132=LINE('',#583,#174);
#133=LINE('',#585,#175);
#134=LINE('',#587,#176);
#135=LINE('',#589,#177);
#136=LINE('',#591,#178);
#137=LINE('',#593,#179);
#138=LINE('',#595,#180);
#139=LINE('',#596,#181);
#140=LINE('',#598,#182);
#141=LINE('',#600,#183);
#142=LINE('',#602,#184);
#143=LINE('',#604,#185);
#144=LINE('',#606,#186);
#145=LINE('',#608,#187);
#146=LINE('',#610,#188);
#147=LINE('',#612,#189);
#148=LINE('',#614,#190);
#149=LINE('',#615,#191);
#150=LINE('',#618,#192);
#151=LINE('',#620,#193);
#152=LINE('',#622,#194);
#153=VECTOR('',#435,1.);
#154=VECTOR('',#436,1.);
#155=VECTOR('',#437,1.);
#156=VECTOR('',#442,1.);
#157=VECTOR('',#443,1.);
#158=VECTOR('',#444,1.);
#159=VECTOR('',#447,1.);
#160=VECTOR('',#448,1.);
#161=VECTOR('',#451,1.);
#162=VECTOR('',#466,1.);
#163=VECTOR('',#467,1.);
#164=VECTOR('',#468,1.);
#165=VECTOR('',#469,1.);
#166=VECTOR('',#470,1.);
#167=VECTOR('',#471,1.);
#168=VECTOR('',#474,1.);
#169=VECTOR('',#475,1.);
#170=VECTOR('',#476,1.);
#171=VECTOR('',#477,1.);
#172=VECTOR('',#478,1.);
#173=VECTOR('',#481,1.);
#174=VECTOR('',#482,1.);
#175=VECTOR('',#483,1.);
#176=VECTOR('',#484,1.);
#177=VECTOR('',#487,1.);
#178=VECTOR('',#488,1.);
#179=VECTOR('',#489,1.);
#180=VECTOR('',#492,1.);
#181=VECTOR('',#493,1.);
#182=VECTOR('',#494,1.);
#183=VECTOR('',#497,1.);
#184=VECTOR('',#498,1.);
#185=VECTOR('',#499,1.);
#186=VECTOR('',#500,1.);
#187=VECTOR('',#503,1.);
#188=VECTOR('',#506,1.);
#189=VECTOR('',#509,1.);
#190=VECTOR('',#510,1.);
#191=VECTOR('',#511,1.);
#192=VECTOR('',#516,1.);
#193=VECTOR('',#517,1.);
#194=VECTOR('',#520,1.);
#195=FACE_BOUND('',#205,.T.);
#196=FACE_BOUND('',#206,.T.);
#197=FACE_BOUND('',#207,.T.);
#198=FACE_BOUND('',#208,.T.);
#199=FACE_BOUND('',#212,.T.);
#200=FACE_BOUND('',#213,.T.);
#201=FACE_BOUND('',#214,.T.);
#202=FACE_BOUND('',#215,.T.);
#203=FACE_BOUND('',#216,.T.);
#204=FACE_BOUND('',#217,.T.);
#205=EDGE_LOOP('',(#231));
#206=EDGE_LOOP('',(#232,#233,#234));
#207=EDGE_LOOP('',(#235));
#208=EDGE_LOOP('',(#236,#237,#238));
#209=EDGE_LOOP('',(#239,#240,#241,#242));
#210=EDGE_LOOP('',(#243,#244,#245,#246));
#211=EDGE_LOOP('',(#247,#248,#249,#250));
#212=EDGE_LOOP('',(#251));
#213=EDGE_LOOP('',(#252));
#214=EDGE_LOOP('',(#253));
#215=EDGE_LOOP('',(#254));
#216=EDGE_LOOP('',(#255));
#217=EDGE_LOOP('',(#256));
#218=EDGE_LOOP('',(#257,#258,#259,#260,#261,#262));
#219=EDGE_LOOP('',(#263,#264,#265,#266,#267,#268));
#220=EDGE_LOOP('',(#269,#270,#271,#272));
#221=EDGE_LOOP('',(#273,#274,#275,#276));
#222=EDGE_LOOP('',(#277,#278,#279,#280,#281,#282));
#223=EDGE_LOOP('',(#283,#284,#285,#286,#287,#288));
#224=EDGE_LOOP('',(#289,#290,#291,#292,#293,#294));
#225=EDGE_LOOP('',(#295,#296,#297,#298));
#226=EDGE_LOOP('',(#299,#300,#301,#302,#303,#304,#305,#306));
#227=EDGE_LOOP('',(#307,#308,#309,#310));
#228=EDGE_LOOP('',(#311,#312,#313,#314));
#229=EDGE_LOOP('',(#315,#316,#317,#318));
#230=EDGE_LOOP('',(#319,#320,#321,#322));
#231=ORIENTED_EDGE('',*,*,#355,.F.);
#232=ORIENTED_EDGE('',*,*,#356,.F.);
#233=ORIENTED_EDGE('',*,*,#357,.F.);
#234=ORIENTED_EDGE('',*,*,#358,.F.);
#235=ORIENTED_EDGE('',*,*,#359,.T.);
#236=ORIENTED_EDGE('',*,*,#360,.F.);
#237=ORIENTED_EDGE('',*,*,#361,.F.);
#238=ORIENTED_EDGE('',*,*,#362,.F.);
#239=ORIENTED_EDGE('',*,*,#363,.F.);
#240=ORIENTED_EDGE('',*,*,#356,.T.);
#241=ORIENTED_EDGE('',*,*,#364,.T.);
#242=ORIENTED_EDGE('',*,*,#362,.T.);
#243=ORIENTED_EDGE('',*,*,#364,.F.);
#244=ORIENTED_EDGE('',*,*,#358,.T.);
#245=ORIENTED_EDGE('',*,*,#365,.T.);
#246=ORIENTED_EDGE('',*,*,#360,.T.);
#247=ORIENTED_EDGE('',*,*,#365,.F.);
#248=ORIENTED_EDGE('',*,*,#357,.T.);
#249=ORIENTED_EDGE('',*,*,#363,.T.);
#250=ORIENTED_EDGE('',*,*,#361,.T.);
#251=ORIENTED_EDGE('',*,*,#366,.F.);
#252=ORIENTED_EDGE('',*,*,#359,.F.);
#253=ORIENTED_EDGE('',*,*,#367,.F.);
#254=ORIENTED_EDGE('',*,*,#366,.T.);
#255=ORIENTED_EDGE('',*,*,#355,.T.);
#256=ORIENTED_EDGE('',*,*,#367,.T.);
#257=ORIENTED_EDGE('',*,*,#368,.F.);
#258=ORIENTED_EDGE('',*,*,#369,.T.);
#259=ORIENTED_EDGE('',*,*,#370,.T.);
#260=ORIENTED_EDGE('',*,*,#371,.F.);
#261=ORIENTED_EDGE('',*,*,#372,.T.);
#262=ORIENTED_EDGE('',*,*,#373,.F.);
#263=ORIENTED_EDGE('',*,*,#374,.F.);
#264=ORIENTED_EDGE('',*,*,#375,.F.);
#265=ORIENTED_EDGE('',*,*,#376,.T.);
#266=ORIENTED_EDGE('',*,*,#377,.T.);
#267=ORIENTED_EDGE('',*,*,#378,.T.);
#268=ORIENTED_EDGE('',*,*,#369,.F.);
#269=ORIENTED_EDGE('',*,*,#379,.F.);
#270=ORIENTED_EDGE('',*,*,#380,.T.);
#271=ORIENTED_EDGE('',*,*,#381,.T.);
#272=ORIENTED_EDGE('',*,*,#382,.T.);
#273=ORIENTED_EDGE('',*,*,#383,.F.);
#274=ORIENTED_EDGE('',*,*,#384,.F.);
#275=ORIENTED_EDGE('',*,*,#385,.F.);
#276=ORIENTED_EDGE('',*,*,#382,.F.);
#277=ORIENTED_EDGE('',*,*,#386,.F.);
#278=ORIENTED_EDGE('',*,*,#377,.F.);
#279=ORIENTED_EDGE('',*,*,#387,.T.);
#280=ORIENTED_EDGE('',*,*,#388,.T.);
#281=ORIENTED_EDGE('',*,*,#379,.T.);
#282=ORIENTED_EDGE('',*,*,#385,.T.);
#283=ORIENTED_EDGE('',*,*,#381,.F.);
#284=ORIENTED_EDGE('',*,*,#389,.T.);
#285=ORIENTED_EDGE('',*,*,#390,.T.);
#286=ORIENTED_EDGE('',*,*,#391,.F.);
#287=ORIENTED_EDGE('',*,*,#392,.T.);
#288=ORIENTED_EDGE('',*,*,#383,.T.);
#289=ORIENTED_EDGE('',*,*,#370,.F.);
#290=ORIENTED_EDGE('',*,*,#378,.F.);
#291=ORIENTED_EDGE('',*,*,#386,.T.);
#292=ORIENTED_EDGE('',*,*,#384,.T.);
#293=ORIENTED_EDGE('',*,*,#392,.F.);
#294=ORIENTED_EDGE('',*,*,#393,.F.);
#295=ORIENTED_EDGE('',*,*,#380,.F.);
#296=ORIENTED_EDGE('',*,*,#388,.F.);
#297=ORIENTED_EDGE('',*,*,#394,.F.);
#298=ORIENTED_EDGE('',*,*,#389,.F.);
#299=ORIENTED_EDGE('',*,*,#376,.F.);
#300=ORIENTED_EDGE('',*,*,#395,.T.);
#301=ORIENTED_EDGE('',*,*,#396,.T.);
#302=ORIENTED_EDGE('',*,*,#372,.F.);
#303=ORIENTED_EDGE('',*,*,#397,.F.);
#304=ORIENTED_EDGE('',*,*,#390,.F.);
#305=ORIENTED_EDGE('',*,*,#394,.T.);
#306=ORIENTED_EDGE('',*,*,#387,.F.);
#307=ORIENTED_EDGE('',*,*,#391,.T.);
#308=ORIENTED_EDGE('',*,*,#397,.T.);
#309=ORIENTED_EDGE('',*,*,#371,.T.);
#310=ORIENTED_EDGE('',*,*,#393,.T.);
#311=ORIENTED_EDGE('',*,*,#368,.T.);
#312=ORIENTED_EDGE('',*,*,#398,.F.);
#313=ORIENTED_EDGE('',*,*,#399,.F.);
#314=ORIENTED_EDGE('',*,*,#374,.T.);
#315=ORIENTED_EDGE('',*,*,#375,.T.);
#316=ORIENTED_EDGE('',*,*,#399,.T.);
#317=ORIENTED_EDGE('',*,*,#400,.F.);
#318=ORIENTED_EDGE('',*,*,#395,.F.);
#319=ORIENTED_EDGE('',*,*,#373,.T.);
#320=ORIENTED_EDGE('',*,*,#396,.F.);
#321=ORIENTED_EDGE('',*,*,#400,.T.);
#322=ORIENTED_EDGE('',*,*,#398,.T.);
#323=VERTEX_POINT('',#527);
#324=VERTEX_POINT('',#529);
#325=VERTEX_POINT('',#530);
#326=VERTEX_POINT('',#532);
#327=VERTEX_POINT('',#536);
#328=VERTEX_POINT('',#538);
#329=VERTEX_POINT('',#539);
#330=VERTEX_POINT('',#541);
#331=VERTEX_POINT('',#551);
#332=VERTEX_POINT('',#554);
#333=VERTEX_POINT('',#558);
#334=VERTEX_POINT('',#559);
#335=VERTEX_POINT('',#561);
#336=VERTEX_POINT('',#563);
#337=VERTEX_POINT('',#565);
#338=VERTEX_POINT('',#567);
#339=VERTEX_POINT('',#571);
#340=VERTEX_POINT('',#573);
#341=VERTEX_POINT('',#575);
#342=VERTEX_POINT('',#577);
#343=VERTEX_POINT('',#581);
#344=VERTEX_POINT('',#582);
#345=VERTEX_POINT('',#584);
#346=VERTEX_POINT('',#586);
#347=VERTEX_POINT('',#590);
#348=VERTEX_POINT('',#592);
#349=VERTEX_POINT('',#597);
#350=VERTEX_POINT('',#601);
#351=VERTEX_POINT('',#603);
#352=VERTEX_POINT('',#605);
#353=VERTEX_POINT('',#613);
#354=VERTEX_POINT('',#619);
#355=EDGE_CURVE('',#323,#323,#401,.T.);
#356=EDGE_CURVE('',#324,#325,#111,.T.);
#357=EDGE_CURVE('',#326,#324,#112,.T.);
#358=EDGE_CURVE('',#325,#326,#113,.T.);
#359=EDGE_CURVE('',#327,#327,#402,.T.);
#360=EDGE_CURVE('',#328,#329,#114,.T.);
#361=EDGE_CURVE('',#330,#328,#115,.T.);
#362=EDGE_CURVE('',#329,#330,#116,.T.);
#363=EDGE_CURVE('',#324,#330,#117,.T.);
#364=EDGE_CURVE('',#325,#329,#118,.T.);
#365=EDGE_CURVE('',#326,#328,#119,.T.);
#366=EDGE_CURVE('',#331,#331,#403,.T.);
#367=EDGE_CURVE('',#332,#332,#404,.T.);
#368=EDGE_CURVE('',#333,#334,#120,.T.);
#369=EDGE_CURVE('',#333,#335,#121,.T.);
#370=EDGE_CURVE('',#335,#336,#122,.T.);
#371=EDGE_CURVE('',#337,#336,#123,.T.);
#372=EDGE_CURVE('',#337,#338,#124,.T.);
#373=EDGE_CURVE('',#334,#338,#125,.T.);
#374=EDGE_CURVE('',#339,#333,#126,.T.);
#375=EDGE_CURVE('',#340,#339,#127,.T.);
#376=EDGE_CURVE('',#340,#341,#128,.T.);
#377=EDGE_CURVE('',#341,#342,#129,.T.);
#378=EDGE_CURVE('',#342,#335,#130,.T.);
#379=EDGE_CURVE('',#343,#344,#131,.T.);
#380=EDGE_CURVE('',#343,#345,#132,.T.);
#381=EDGE_CURVE('',#345,#346,#133,.T.);
#382=EDGE_CURVE('',#346,#344,#134,.T.);
#383=EDGE_CURVE('',#347,#346,#135,.T.);
#384=EDGE_CURVE('',#348,#347,#136,.T.);
#385=EDGE_CURVE('',#344,#348,#137,.T.);
#386=EDGE_CURVE('',#342,#348,#138,.T.);
#387=EDGE_CURVE('',#341,#349,#139,.T.);
#388=EDGE_CURVE('',#349,#343,#140,.T.);
#389=EDGE_CURVE('',#345,#350,#141,.T.);
#390=EDGE_CURVE('',#350,#351,#142,.T.);
#391=EDGE_CURVE('',#352,#351,#143,.T.);
#392=EDGE_CURVE('',#352,#347,#144,.T.);
#393=EDGE_CURVE('',#336,#352,#145,.T.);
#394=EDGE_CURVE('',#350,#349,#146,.T.);
#395=EDGE_CURVE('',#340,#353,#147,.T.);
#396=EDGE_CURVE('',#353,#338,#148,.T.);
#397=EDGE_CURVE('',#351,#337,#149,.T.);
#398=EDGE_CURVE('',#354,#334,#150,.T.);
#399=EDGE_CURVE('',#339,#354,#151,.T.);
#400=EDGE_CURVE('',#353,#354,#152,.T.);
#401=CIRCLE('',#406,2.);
#402=CIRCLE('',#408,3.09623752987852);
#403=CIRCLE('',#413,3.);
#404=CIRCLE('',#415,2.);
#405=AXIS2_PLACEMENT_3D('',#525,#431,#432);
#406=AXIS2_PLACEMENT_3D('',#526,#433,#434);
#407=AXIS2_PLACEMENT_3D('',#534,#438,#439);
#408=AXIS2_PLACEMENT_3D('',#535,#440,#441);
#409=AXIS2_PLACEMENT_3D('',#543,#445,#446);
#410=AXIS2_PLACEMENT_3D('',#546,#449,#450);
#411=AXIS2_PLACEMENT_3D('',#548,#452,#453);
#412=AXIS2_PLACEMENT_3D('',#549,#454,#455);
#413=AXIS2_PLACEMENT_3D('',#550,#456,#457);
#414=AXIS2_PLACEMENT_3D('',#552,#458,#459);
#415=AXIS2_PLACEMENT_3D('',#553,#460,#461);
#416=AXIS2_PLACEMENT_3D('',#555,#462,#463);
#417=AXIS2_PLACEMENT_3D('',#556,#464,#465);
#418=AXIS2_PLACEMENT_3D('',#569,#472,#473);
#419=AXIS2_PLACEMENT_3D('',#579,#479,#480);
#420=AXIS2_PLACEMENT_3D('',#588,#485,#486);
#421=AXIS2_PLACEMENT_3D('',#594,#490,#491);
#422=AXIS2_PLACEMENT_3D('',#599,#495,#496);
#423=AXIS2_PLACEMENT_3D('',#607,#501,#502);
#424=AXIS2_PLACEMENT_3D('',#609,#504,#505);
#425=AXIS2_PLACEMENT_3D('',#611,#507,#508);
#426=AXIS2_PLACEMENT_3D('',#616,#512,#513);
#427=AXIS2_PLACEMENT_3D('',#617,#514,#515);
#428=AXIS2_PLACEMENT_3D('',#621,#518,#519);
#429=AXIS2_PLACEMENT_3D('',#623,#521,#522);
#430=AXIS2_PLACEMENT_3D('',#624,#523,#524);
#431=DIRECTION('',(0.,0.,1.));
#432=DIRECTION('',(1.,0.,0.));
#433=DIRECTION('',(-0.0257103457426976,-0.981838491907322,0.187968491856874));
#434=DIRECTION('',(0.863268417760603,-0.116621942102839,-0.491087529384801));
#435=DIRECTION('',(0.999657324975557,-0.0261769483078775,-2.77555756156289E-15));
#436=DIRECTION('',(-0.495567435155404,0.175818180691597,0.850588551857942));
#437=DIRECTION('',(-0.504089889820154,-0.14964123238372,-0.85058855185794));
#438=DIRECTION('',(0.0257103457426976,0.981838491907322,-0.187968491856874));
#439=DIRECTION('',(-0.863268417760604,0.11662194210284,0.491087529384799));
#440=DIRECTION('',(-0.0257103457426976,-0.981838491907322,0.187968491856874));
#441=DIRECTION('',(0.863268417760604,-0.11662194210284,-0.491087529384801));
#442=DIRECTION('',(0.504089889820154,0.14964123238372,0.85058855185794));
#443=DIRECTION('',(0.495567435155404,-0.175818180691597,-0.850588551857942));
#444=DIRECTION('',(-0.999657324975557,0.0261769483078775,2.72004641033163E-15));
#445=DIRECTION('',(-0.0257103457426976,-0.981838491907322,0.187968491856874));
#446=DIRECTION('',(0.863268417760604,-0.11662194210284,-0.491087529384799));
#447=DIRECTION('',(0.0257103457426976,0.981838491907322,-0.187968491856874));
#448=DIRECTION('',(0.0257103457426976,0.981838491907322,-0.187968491856874));
#449=DIRECTION('',(-0.00492044149484977,-0.187904079749332,-0.982175058769593));
#450=DIRECTION('',(-0.999657324975557,0.0261769483078775,2.77555756156289E-15));
#451=DIRECTION('',(0.0257103457426976,0.981838491907322,-0.187968491856874));
#452=DIRECTION('',(-0.863268417760604,0.11662194210284,0.491087529384799));
#453=DIRECTION('',(-0.0257103457426976,-0.981838491907322,0.187968491856874));
#454=DIRECTION('',(0.868188859255453,0.0712821376464922,0.491087529384794));
#455=DIRECTION('',(0.495567435155404,-0.175818180691597,-0.850588551857942));
#456=DIRECTION('',(0.0257103457426976,0.981838491907322,-0.187968491856874));
#457=DIRECTION('',(0.863268417760604,-0.11662194210284,-0.491087529384796));
#458=DIRECTION('',(0.0257103457426976,0.981838491907322,-0.187968491856874));
#459=DIRECTION('',(-0.863268417760603,0.116621942102842,0.491087529384799));
#460=DIRECTION('',(0.0257103457426976,0.981838491907322,-0.187968491856874));
#461=DIRECTION('',(0.863268417760605,-0.116621942102839,-0.491087529384801));
#462=DIRECTION('',(-0.0257103457426976,-0.981838491907322,0.187968491856874));
#463=DIRECTION('',(0.863268417760604,-0.11662194210284,-0.491087529384799));
#464=DIRECTION('',(-0.0257103457426976,-0.981838491907322,0.187968491856874));
#465=DIRECTION('',(0.863268417760604,-0.116621942102839,-0.491087529384801));
#466=DIRECTION('',(-0.999669363756591,0.0253224536249989,-0.00446503179182617));
#467=DIRECTION('',(-6.89061629287444E-16,-0.984807753012208,0.17364817766693));
#468=DIRECTION('',(-1.,0.,0.));
#469=DIRECTION('',(-2.75624003361408E-16,-0.984807753012208,0.17364817766693));
#470=DIRECTION('',(1.,0.,0.));
#471=DIRECTION('',(0.0173637101317422,0.984659282825017,-0.173621998367098));
#472=DIRECTION('',(0.,0.17364817766693,0.984807753012208));
#473=DIRECTION('',(0.,-0.984807753012208,0.17364817766693));
#474=DIRECTION('',(-0.499999990456231,-0.15019131420901,-0.852902443823407));
#475=DIRECTION('',(0.00834565333318863,-0.98216045886665,0.187859477028159));
#476=DIRECTION('',(0.5,0.150383733180435,0.852868531952443));
#477=DIRECTION('',(2.15764033673336E-16,-0.984807753012208,0.173648177666932));
#478=DIRECTION('',(-0.494270410408069,0.,-0.869308208517002));
#479=DIRECTION('',(-0.866025403784439,0.0868240888334658,0.492403876506104));
#480=DIRECTION('',(0.494270410408069,0.,0.869308208517002));
#481=DIRECTION('',(0.,0.,1.));
#482=DIRECTION('',(-1.,0.,0.));
#483=DIRECTION('',(0.,0.,1.));
#484=DIRECTION('',(1.,0.,0.));
#485=DIRECTION('',(0.,-1.,0.));
#486=DIRECTION('',(0.,0.,-1.));
#487=DIRECTION('',(0.,1.,0.));
#488=DIRECTION('',(-1.,-5.55111512312578E-17,0.));
#489=DIRECTION('',(-1.38777878078145E-16,-1.,0.));
#490=DIRECTION('',(0.,0.,-1.));
#491=DIRECTION('',(-1.,0.,0.));
#492=DIRECTION('',(0.,0.,1.));
#493=DIRECTION('',(-4.01642093812554E-17,0.17364817766693,0.984807753012208));
#494=DIRECTION('',(-1.3666953027794E-16,-0.984807753012208,0.17364817766693));
#495=DIRECTION('',(-1.,1.38777878078145E-16,0.));
#496=DIRECTION('',(-1.38777878078145E-16,-1.,0.));
#497=DIRECTION('',(0.,0.984807753012208,-0.17364817766693));
#498=DIRECTION('',(0.,-0.17364817766693,-0.984807753012208));
#499=DIRECTION('',(0.,0.984807753012208,-0.17364817766693));
#500=DIRECTION('',(0.,0.,1.));
#501=DIRECTION('',(1.,0.,0.));
#502=DIRECTION('',(0.,0.,-1.));
#503=DIRECTION('',(-0.417323032802246,0.,0.908758211128095));
#504=DIRECTION('',(-5.55111512312578E-17,1.,0.));
#505=DIRECTION('',(-1.,-5.55111512312578E-17,0.));
#506=DIRECTION('',(1.,0.,0.));
#507=DIRECTION('',(0.,0.17364817766693,0.984807753012208));
#508=DIRECTION('',(0.,-0.984807753012208,0.17364817766693));
#509=DIRECTION('',(-0.999987892009991,0.000854515491014442,0.0048461981687719));
#510=DIRECTION('',(0.496061206050231,-0.150776551785027,-0.85509631696307));
#511=DIRECTION('',(0.4226182617407,-0.157378695624263,-0.89253893528903));
#512=DIRECTION('',(0.,0.984807753012208,-0.17364817766693));
#513=DIRECTION('',(0.,0.17364817766693,0.984807753012208));
#514=DIRECTION('',(0.90630778703665,0.073386891000038,0.416197740726784));
#515=DIRECTION('',(0.417323032802246,0.,-0.908758211128095));
#516=DIRECTION('',(0.495567435155404,-0.175818180691597,-0.850588551857942));
#517=DIRECTION('',(-0.999657324975557,0.0261769483078775,2.5504966434211E-15));
#518=DIRECTION('',(0.0257103457426976,0.981838491907321,-0.187968491856874));
#519=DIRECTION('',(-0.863268417760604,0.11662194210284,0.491087529384799));
#520=DIRECTION('',(-0.0257103457426976,-0.981838491907321,0.187968491856874));
#521=DIRECTION('',(-0.00492044149484971,-0.187904079749332,-0.982175058769593));
#522=DIRECTION('',(-0.999657324975557,0.0261769483078775,2.55351295663786E-15));
#523=DIRECTION('',(0.868188859255453,0.0712821376464922,0.491087529384794));
#524=DIRECTION('',(0.495567435155404,-0.175818180691597,-0.850588551857942));
#525=CARTESIAN_POINT('',(0.,0.,0.));
#526=CARTESIAN_POINT('',(13.9413938785365,22.761922515933,-136.64104515698));
#527=CARTESIAN_POINT('',(15.6679307140577,22.5286786317273,-137.62322021575));
#528=CARTESIAN_POINT('',(24.9673923910808,23.6672056640435,-130.404233533793));
#529=CARTESIAN_POINT('',(2.97788497297682,24.2430211806391,-130.404233533793));
#530=CARTESIAN_POINT('',(24.9673923910807,23.6672056640435,-130.404233533793));
#531=CARTESIAN_POINT('',(2.97788497297681,24.2430211806391,-130.404233533793));
#532=CARTESIAN_POINT('',(13.8789042715519,20.3755407031165,-149.114668403354));
#533=CARTESIAN_POINT('',(13.8789042715519,20.3755407031165,-149.114668403354));
#534=CARTESIAN_POINT('',(13.9413938785365,22.761922515933,-136.64104515698));
#535=CARTESIAN_POINT('',(14.0624896069846,27.3863818128165,-137.526376753626));
#536=CARTESIAN_POINT('',(16.7353736804138,27.0252925788704,-139.046900392563));
#537=CARTESIAN_POINT('',(14.,25.,-150.));
#538=CARTESIAN_POINT('',(14.,25.,-150.));
#539=CARTESIAN_POINT('',(25.0884881195289,28.291664960927,-131.289565130439));
#540=CARTESIAN_POINT('',(3.09898070142492,28.8674804775226,-131.289565130439));
#541=CARTESIAN_POINT('',(3.09898070142492,28.8674804775226,-131.289565130439));
#542=CARTESIAN_POINT('',(25.0884881195289,28.291664960927,-131.289565130439));
#543=CARTESIAN_POINT('',(14.0624896069846,27.3863818128165,-137.526376753626));
#544=CARTESIAN_POINT('',(2.965775400132,23.7805752509507,-130.315700374129));
#545=CARTESIAN_POINT('',(24.9552828182359,23.2047597343551,-130.315700374129));
#546=CARTESIAN_POINT('',(24.9552828182359,23.2047597343551,-130.315700374129));
#547=CARTESIAN_POINT('',(13.8667946987071,19.9130947734282,-149.02613524369));
#548=CARTESIAN_POINT('',(13.8667946987071,19.9130947734282,-149.02613524369));
#549=CARTESIAN_POINT('',(2.965775400132,23.7805752509507,-130.315700374129));
#550=CARTESIAN_POINT('',(14.0342082266676,26.3063594717185,-137.319611412584));
#551=CARTESIAN_POINT('',(16.6240134799494,25.9564936454099,-138.792874000738));
#552=CARTESIAN_POINT('',(14.0624896069846,27.3863818128165,-137.526376753626));
#553=CARTESIAN_POINT('',(13.9827875351822,24.3426824879038,-136.94367442887));
#554=CARTESIAN_POINT('',(15.7093243707034,24.1094386036981,-137.925849487639));
#555=CARTESIAN_POINT('',(13.9827875351822,24.3426824879038,-136.94367442887));
#556=CARTESIAN_POINT('',(14.0624896069846,27.3863818128165,-137.526376753626));
#557=CARTESIAN_POINT('',(14.1326605154046,21.4261127899278,-143.592379726862));
#558=CARTESIAN_POINT('',(16.9170962313452,21.3555807251822,-143.579943020842));
#559=CARTESIAN_POINT('',(10.6705338275254,21.5138113287409,-143.607843345423));
#560=CARTESIAN_POINT('',(16.9170962313452,25.7069311185542,-144.34720349771));
#561=CARTESIAN_POINT('',(16.9170962313452,0.,-139.814377950295));
#562=CARTESIAN_POINT('',(25.,0.,-139.814377950295));
#563=CARTESIAN_POINT('',(5.51688959481245,0.,-139.814377950295));
#564=CARTESIAN_POINT('',(5.51688959481246,25.7069311185542,-144.34720349771));
#565=CARTESIAN_POINT('',(5.51688959481246,25.7069311185542,-144.34720349771));
#566=CARTESIAN_POINT('',(-0.75,25.7069311185542,-144.34720349771));
#567=CARTESIAN_POINT('',(10.7444762742661,25.7069311185542,-144.34720349771));
#568=CARTESIAN_POINT('',(10.7455315164614,25.766771671948,-144.357755001814));
#569=CARTESIAN_POINT('',(14.2444686189537,25.7069311185542,-144.34720349771));
#570=CARTESIAN_POINT('',(18.939920442247,21.9632019900784,-140.129399529173));
#571=CARTESIAN_POINT('',(24.6411386062812,23.6757489200639,-130.404233533793));
#572=CARTESIAN_POINT('',(24.81875706095,2.77267327385513,-126.406067222244));
#573=CARTESIAN_POINT('',(24.6042331979971,28.0189718275831,-131.234969058378));
#574=CARTESIAN_POINT('',(23.2056078882248,27.5983108367747,-133.620656087772));
#575=CARTESIAN_POINT('',(25.,28.1380056058913,-130.559894955539));
#576=CARTESIAN_POINT('',(25.,27.6249753909027,-130.469433886718));
#577=CARTESIAN_POINT('',(25.,0.,-125.598405383894));
#578=CARTESIAN_POINT('',(28.6945054309511,0.,-119.100618282124));
#579=CARTESIAN_POINT('',(18.9378221735089,0.810514031647352,-136.403300300717));
#580=CARTESIAN_POINT('',(25.,25.,-132.));
#581=CARTESIAN_POINT('',(25.,25.,-120.));
#582=CARTESIAN_POINT('',(25.,25.,0.));
#583=CARTESIAN_POINT('',(0.,25.,-120.));
#584=CARTESIAN_POINT('',(0.,25.,-120.));
#585=CARTESIAN_POINT('',(0.,25.,-132.));
#586=CARTESIAN_POINT('',(0.,25.,0.));
#587=CARTESIAN_POINT('',(0.,25.,0.));
#588=CARTESIAN_POINT('',(0.,25.,-132.));
#589=CARTESIAN_POINT('',(0.,0.,0.));
#590=CARTESIAN_POINT('',(0.,0.,0.));
#591=CARTESIAN_POINT('',(25.,1.38777878078145E-15,0.));
#592=CARTESIAN_POINT('',(25.,0.,0.));
#593=CARTESIAN_POINT('',(25.,25.,0.));
#594=CARTESIAN_POINT('',(0.,0.,0.));
#595=CARTESIAN_POINT('',(25.,0.,-132.));
#596=CARTESIAN_POINT('',(25.,30.5130302149885,-117.090461068821));
#597=CARTESIAN_POINT('',(25.,29.8492315519648,-120.855050358314));
#598=CARTESIAN_POINT('',(25.,25.,-120.));
#599=CARTESIAN_POINT('',(25.,25.,-132.));
#600=CARTESIAN_POINT('',(0.,25.,-120.));
#601=CARTESIAN_POINT('',(0.,29.8492315519648,-120.855050358314));
#602=CARTESIAN_POINT('',(0.,29.6084195267771,-122.220763218706));
#603=CARTESIAN_POINT('',(0.,27.7613640830894,-132.695935176318));
#604=CARTESIAN_POINT('',(0.,-1.84705544368771,-127.475171957612));
#605=CARTESIAN_POINT('',(0.,0.,-127.800857667199));
#606=CARTESIAN_POINT('',(0.,0.,-132.));
#607=CARTESIAN_POINT('',(0.,0.,-132.));
#608=CARTESIAN_POINT('',(0.257783662335646,0.,-128.362204636881));
#609=CARTESIAN_POINT('',(25.,1.38777878078145E-15,-132.));
#610=CARTESIAN_POINT('',(-0.75,29.8492315519648,-120.855050358314));
#611=CARTESIAN_POINT('',(12.5,25.,-120.));
#612=CARTESIAN_POINT('',(-0.805525052111895,28.0406851225351,-131.111826843473));
#613=CARTESIAN_POINT('',(3.07724342015594,28.0373671965541,-131.130643736768));
#614=CARTESIAN_POINT('',(-2.73274371492322,29.8032981249523,-121.115551767843));
#615=CARTESIAN_POINT('',(-5.07179686088593,29.6500490896242,-121.984670235773));
#616=CARTESIAN_POINT('',(-0.75,30.,-120.));
#617=CARTESIAN_POINT('',(4.53153893518325,0.426666479447027,-137.743921614183));
#618=CARTESIAN_POINT('',(2.97788497297682,24.2430211806391,-130.404233533793));
#619=CARTESIAN_POINT('',(2.97788497297682,24.2430211806391,-130.404233533793));
#620=CARTESIAN_POINT('',(24.9673923910808,23.6672056640435,-130.404233533793));
#621=CARTESIAN_POINT('',(13.9413938785365,22.761922515933,-136.64104515698));
#622=CARTESIAN_POINT('',(2.96577540013201,23.7805752509507,-130.315700374129));
#623=CARTESIAN_POINT('',(24.9552828182359,23.2047597343551,-130.315700374129));
#624=CARTESIAN_POINT('',(2.96577540013201,23.7805752509507,-130.315700374129));
#625=MECHANICAL_DESIGN_GEOMETRIC_PRESENTATION_REPRESENTATION('',(#33,#34),
#626);
#626=(
GEOMETRIC_REPRESENTATION_CONTEXT(3)
GLOBAL_UNCERTAINTY_ASSIGNED_CONTEXT((#627))
GLOBAL_UNIT_ASSIGNED_CONTEXT((#633,#629,#628))
REPRESENTATION_CONTEXT('SEL-S2525M22-A_205150044_SIM',
'TOP_LEVEL_ASSEMBLY_PART')
);
#627=UNCERTAINTY_MEASURE_WITH_UNIT(LENGTH_MEASURE(2.E-5),#633,
'DISTANCE_ACCURACY_VALUE','Maximum Tolerance applied to model');
#628=(
NAMED_UNIT(*)
SI_UNIT($,.STERADIAN.)
SOLID_ANGLE_UNIT()
);
#629=(
CONVERSION_BASED_UNIT('DEGREE',#631)
NAMED_UNIT(#630)
PLANE_ANGLE_UNIT()
);
#630=DIMENSIONAL_EXPONENTS(0.,0.,0.,0.,0.,0.,0.);
#631=PLANE_ANGLE_MEASURE_WITH_UNIT(PLANE_ANGLE_MEASURE(0.0174532925),#632);
#632=(
NAMED_UNIT(*)
PLANE_ANGLE_UNIT()
SI_UNIT($,.RADIAN.)
);
#633=(
LENGTH_UNIT()
NAMED_UNIT(*)
SI_UNIT(.MILLI.,.METRE.)
);
ENDSEC;
END-ISO-10303-21;
