ISO-10303-21;
HEADER;
/* Generated by software containing ST-Developer
 * from STEP Tools, Inc. (www.steptools.com) 
 */
/* OPTION: using custom schema-name function */

FILE_DESCRIPTION(
/* description */ (''),
/* implementation_level */ '2;1');

FILE_NAME(
/* name */ 'SCACR1212F09_SIM.stp',
/* time_stamp */ '2022-01-13T14:24:56+01:00',
/* author */ (''),
/* organization */ (''),
/* preprocessor_version */ 'ST-DEVELOPER v16.7',
/* originating_system */ 'SIEMENS PLM Software NX 12.0',
/* authorisation */ '');

FILE_SCHEMA (('AUTOMOTIVE_DESIGN { 1 0 10303 214 3 1 1 1 }'));
ENDSEC;

DATA;
#10=SHAPE_REPRESENTATION_RELATIONSHIP('None',
'relationship between model1-None and model1-None',#22,#11);
#11=ADVANCED_BREP_SHAPE_REPRESENTATION('model1-None',(#69,#70),#592);
#12=SHAPE_DEFINITION_REPRESENTATION(#13,#22);
#13=PRODUCT_DEFINITION_SHAPE('','',#14);
#14=PRODUCT_DEFINITION(' ','',#16,#15);
#15=PRODUCT_DEFINITION_CONTEXT('part definition',#21,'design');
#16=PRODUCT_DEFINITION_FORMATION_WITH_SPECIFIED_SOURCE(' ',' ',#18,
 .NOT_KNOWN.);
#17=PRODUCT_RELATED_PRODUCT_CATEGORY('part','',(#18));
#18=PRODUCT('model1','model1',' ',(#19));
#19=PRODUCT_CONTEXT(' ',#21,'mechanical');
#20=APPLICATION_PROTOCOL_DEFINITION('international standard',
'automotive_design',2010,#21);
#21=APPLICATION_CONTEXT(
'core data for automotive mechanical design processes');
#22=SHAPE_REPRESENTATION('model1-None',(#367),#592);
#23=TOROIDAL_SURFACE('',#399,4.2,2.);
#24=CYLINDRICAL_SURFACE('',#396,2.2);
#25=CYLINDRICAL_SURFACE('',#398,3.);
#26=FACE_BOUND('',#136,.T.);
#27=FACE_BOUND('',#137,.T.);
#28=FACE_BOUND('',#138,.T.);
#29=FACE_BOUND('',#139,.T.);
#30=FACE_BOUND('',#140,.T.);
#31=FACE_BOUND('',#141,.T.);
#32=FACE_BOUND('',#142,.T.);
#33=FACE_BOUND('',#143,.T.);
#34=FACE_BOUND('',#144,.T.);
#35=FACE_BOUND('',#145,.T.);
#36=CONICAL_SURFACE('',#377,0.8,7.);
#37=CONICAL_SURFACE('',#381,0.8,7.);
#38=CONICAL_SURFACE('',#385,0.8,7.);
#39=CONICAL_SURFACE('',#389,0.8,7.);
#40=CIRCLE('',#375,0.8);
#41=CIRCLE('',#376,0.312545293215469);
#42=CIRCLE('',#379,0.8);
#43=CIRCLE('',#380,0.312545293215474);
#44=CIRCLE('',#383,0.8);
#45=CIRCLE('',#384,0.312545293215468);
#46=CIRCLE('',#387,0.8);
#47=CIRCLE('',#388,0.312545293215474);
#48=CIRCLE('',#391,2.2);
#49=CIRCLE('',#393,3.);
#50=CIRCLE('',#395,2.2);
#51=CIRCLE('',#397,3.);
#52=PRESENTATION_LAYER_ASSIGNMENT('1','Layer 1',(#69,#70));
#53=STYLED_ITEM('',(#55),#69);
#54=STYLED_ITEM('',(#56),#70);
#55=PRESENTATION_STYLE_ASSIGNMENT((#57));
#56=PRESENTATION_STYLE_ASSIGNMENT((#58));
#57=SURFACE_STYLE_USAGE(.BOTH.,#59);
#58=SURFACE_STYLE_USAGE(.BOTH.,#60);
#59=SURFACE_SIDE_STYLE('',(#61));
#60=SURFACE_SIDE_STYLE('',(#62));
#61=SURFACE_STYLE_FILL_AREA(#63);
#62=SURFACE_STYLE_FILL_AREA(#64);
#63=FILL_AREA_STYLE('',(#65));
#64=FILL_AREA_STYLE('',(#66));
#65=FILL_AREA_STYLE_COLOUR('',#67);
#66=FILL_AREA_STYLE_COLOUR('',#68);
#67=COLOUR_RGB('St\X2\0159\X0\edn\X\ED \X2\0161\X0\ed\X\E1',0.490196078431373,
0.490196078431373,0.490196078431373);
#68=COLOUR_RGB('Sv\X2\011B\X0\tl\X\E1 \X2\0161\X0\ed\X\E1',0.8,0.8,0.8);
#69=MANIFOLD_SOLID_BREP('',#71);
#70=MANIFOLD_SOLID_BREP('',#72);
#71=CLOSED_SHELL('',(#73,#74,#75,#76,#77,#78,#79));
#72=CLOSED_SHELL('',(#80,#81,#82,#83,#84,#85,#86,#87,#88,#89,#90,#91,#92));
#73=ADVANCED_FACE('',(#106),#93,.T.);
#74=ADVANCED_FACE('',(#107),#94,.T.);
#75=ADVANCED_FACE('',(#108),#95,.T.);
#76=ADVANCED_FACE('',(#109),#96,.T.);
#77=ADVANCED_FACE('',(#110),#97,.F.);
#78=ADVANCED_FACE('',(#111),#98,.T.);
#79=ADVANCED_FACE('',(#112),#99,.F.);
#80=ADVANCED_FACE('',(#113),#36,.T.);
#81=ADVANCED_FACE('',(#114),#100,.T.);
#82=ADVANCED_FACE('',(#115),#37,.T.);
#83=ADVANCED_FACE('',(#116),#101,.T.);
#84=ADVANCED_FACE('',(#117),#38,.T.);
#85=ADVANCED_FACE('',(#118),#102,.T.);
#86=ADVANCED_FACE('',(#119),#39,.T.);
#87=ADVANCED_FACE('',(#120),#103,.T.);
#88=ADVANCED_FACE('',(#26,#27),#104,.F.);
#89=ADVANCED_FACE('',(#28,#29),#105,.T.);
#90=ADVANCED_FACE('',(#30,#31),#24,.F.);
#91=ADVANCED_FACE('',(#32,#33),#25,.F.);
#92=ADVANCED_FACE('',(#34,#35),#23,.T.);
#93=PLANE('',#368);
#94=PLANE('',#369);
#95=PLANE('',#370);
#96=PLANE('',#371);
#97=PLANE('',#372);
#98=PLANE('',#373);
#99=PLANE('',#374);
#100=PLANE('',#378);
#101=PLANE('',#382);
#102=PLANE('',#386);
#103=PLANE('',#390);
#104=PLANE('',#392);
#105=PLANE('',#394);
#106=FACE_OUTER_BOUND('',#121,.T.);
#107=FACE_OUTER_BOUND('',#122,.T.);
#108=FACE_OUTER_BOUND('',#123,.T.);
#109=FACE_OUTER_BOUND('',#124,.T.);
#110=FACE_OUTER_BOUND('',#125,.T.);
#111=FACE_OUTER_BOUND('',#126,.T.);
#112=FACE_OUTER_BOUND('',#127,.T.);
#113=FACE_OUTER_BOUND('',#128,.T.);
#114=FACE_OUTER_BOUND('',#129,.T.);
#115=FACE_OUTER_BOUND('',#130,.T.);
#116=FACE_OUTER_BOUND('',#131,.T.);
#117=FACE_OUTER_BOUND('',#132,.T.);
#118=FACE_OUTER_BOUND('',#133,.T.);
#119=FACE_OUTER_BOUND('',#134,.T.);
#120=FACE_OUTER_BOUND('',#135,.T.);
#121=EDGE_LOOP('',(#146,#147,#148,#149));
#122=EDGE_LOOP('',(#150,#151,#152,#153));
#123=EDGE_LOOP('',(#154,#155,#156,#157));
#124=EDGE_LOOP('',(#158,#159,#160,#161));
#125=EDGE_LOOP('',(#162,#163,#164,#165,#166));
#126=EDGE_LOOP('',(#167,#168,#169,#170,#171));
#127=EDGE_LOOP('',(#172,#173,#174,#175));
#128=EDGE_LOOP('',(#176,#177,#178,#179));
#129=EDGE_LOOP('',(#180,#181,#182,#183));
#130=EDGE_LOOP('',(#184,#185,#186,#187));
#131=EDGE_LOOP('',(#188,#189,#190,#191));
#132=EDGE_LOOP('',(#192,#193,#194,#195));
#133=EDGE_LOOP('',(#196,#197,#198,#199));
#134=EDGE_LOOP('',(#200,#201,#202,#203));
#135=EDGE_LOOP('',(#204,#205,#206,#207));
#136=EDGE_LOOP('',(#208));
#137=EDGE_LOOP('',(#209,#210,#211,#212,#213,#214,#215,#216));
#138=EDGE_LOOP('',(#217));
#139=EDGE_LOOP('',(#218,#219,#220,#221,#222,#223,#224,#225));
#140=EDGE_LOOP('',(#226));
#141=EDGE_LOOP('',(#227));
#142=EDGE_LOOP('',(#228));
#143=EDGE_LOOP('',(#229));
#144=EDGE_LOOP('',(#230));
#145=EDGE_LOOP('',(#231));
#146=ORIENTED_EDGE('',*,*,#262,.F.);
#147=ORIENTED_EDGE('',*,*,#263,.F.);
#148=ORIENTED_EDGE('',*,*,#264,.T.);
#149=ORIENTED_EDGE('',*,*,#265,.T.);
#150=ORIENTED_EDGE('',*,*,#266,.F.);
#151=ORIENTED_EDGE('',*,*,#265,.F.);
#152=ORIENTED_EDGE('',*,*,#267,.T.);
#153=ORIENTED_EDGE('',*,*,#268,.T.);
#154=ORIENTED_EDGE('',*,*,#269,.T.);
#155=ORIENTED_EDGE('',*,*,#270,.T.);
#156=ORIENTED_EDGE('',*,*,#271,.F.);
#157=ORIENTED_EDGE('',*,*,#268,.F.);
#158=ORIENTED_EDGE('',*,*,#272,.F.);
#159=ORIENTED_EDGE('',*,*,#273,.T.);
#160=ORIENTED_EDGE('',*,*,#274,.T.);
#161=ORIENTED_EDGE('',*,*,#263,.T.);
#162=ORIENTED_EDGE('',*,*,#274,.F.);
#163=ORIENTED_EDGE('',*,*,#275,.T.);
#164=ORIENTED_EDGE('',*,*,#269,.F.);
#165=ORIENTED_EDGE('',*,*,#267,.F.);
#166=ORIENTED_EDGE('',*,*,#264,.F.);
#167=ORIENTED_EDGE('',*,*,#271,.T.);
#168=ORIENTED_EDGE('',*,*,#276,.T.);
#169=ORIENTED_EDGE('',*,*,#272,.T.);
#170=ORIENTED_EDGE('',*,*,#262,.T.);
#171=ORIENTED_EDGE('',*,*,#266,.T.);
#172=ORIENTED_EDGE('',*,*,#275,.F.);
#173=ORIENTED_EDGE('',*,*,#273,.F.);
#174=ORIENTED_EDGE('',*,*,#276,.F.);
#175=ORIENTED_EDGE('',*,*,#270,.F.);
#176=ORIENTED_EDGE('',*,*,#277,.F.);
#177=ORIENTED_EDGE('',*,*,#278,.F.);
#178=ORIENTED_EDGE('',*,*,#279,.T.);
#179=ORIENTED_EDGE('',*,*,#280,.T.);
#180=ORIENTED_EDGE('',*,*,#281,.F.);
#181=ORIENTED_EDGE('',*,*,#280,.F.);
#182=ORIENTED_EDGE('',*,*,#282,.T.);
#183=ORIENTED_EDGE('',*,*,#283,.T.);
#184=ORIENTED_EDGE('',*,*,#284,.F.);
#185=ORIENTED_EDGE('',*,*,#283,.F.);
#186=ORIENTED_EDGE('',*,*,#285,.T.);
#187=ORIENTED_EDGE('',*,*,#286,.T.);
#188=ORIENTED_EDGE('',*,*,#287,.F.);
#189=ORIENTED_EDGE('',*,*,#286,.F.);
#190=ORIENTED_EDGE('',*,*,#288,.T.);
#191=ORIENTED_EDGE('',*,*,#289,.T.);
#192=ORIENTED_EDGE('',*,*,#290,.F.);
#193=ORIENTED_EDGE('',*,*,#289,.F.);
#194=ORIENTED_EDGE('',*,*,#291,.T.);
#195=ORIENTED_EDGE('',*,*,#292,.T.);
#196=ORIENTED_EDGE('',*,*,#293,.F.);
#197=ORIENTED_EDGE('',*,*,#292,.F.);
#198=ORIENTED_EDGE('',*,*,#294,.T.);
#199=ORIENTED_EDGE('',*,*,#295,.T.);
#200=ORIENTED_EDGE('',*,*,#296,.F.);
#201=ORIENTED_EDGE('',*,*,#295,.F.);
#202=ORIENTED_EDGE('',*,*,#297,.T.);
#203=ORIENTED_EDGE('',*,*,#298,.T.);
#204=ORIENTED_EDGE('',*,*,#299,.F.);
#205=ORIENTED_EDGE('',*,*,#298,.F.);
#206=ORIENTED_EDGE('',*,*,#300,.T.);
#207=ORIENTED_EDGE('',*,*,#278,.T.);
#208=ORIENTED_EDGE('',*,*,#301,.T.);
#209=ORIENTED_EDGE('',*,*,#279,.F.);
#210=ORIENTED_EDGE('',*,*,#300,.F.);
#211=ORIENTED_EDGE('',*,*,#297,.F.);
#212=ORIENTED_EDGE('',*,*,#294,.F.);
#213=ORIENTED_EDGE('',*,*,#291,.F.);
#214=ORIENTED_EDGE('',*,*,#288,.F.);
#215=ORIENTED_EDGE('',*,*,#285,.F.);
#216=ORIENTED_EDGE('',*,*,#282,.F.);
#217=ORIENTED_EDGE('',*,*,#302,.T.);
#218=ORIENTED_EDGE('',*,*,#277,.T.);
#219=ORIENTED_EDGE('',*,*,#281,.T.);
#220=ORIENTED_EDGE('',*,*,#284,.T.);
#221=ORIENTED_EDGE('',*,*,#287,.T.);
#222=ORIENTED_EDGE('',*,*,#290,.T.);
#223=ORIENTED_EDGE('',*,*,#293,.T.);
#224=ORIENTED_EDGE('',*,*,#296,.T.);
#225=ORIENTED_EDGE('',*,*,#299,.T.);
#226=ORIENTED_EDGE('',*,*,#303,.T.);
#227=ORIENTED_EDGE('',*,*,#301,.F.);
#228=ORIENTED_EDGE('',*,*,#304,.T.);
#229=ORIENTED_EDGE('',*,*,#302,.F.);
#230=ORIENTED_EDGE('',*,*,#304,.F.);
#231=ORIENTED_EDGE('',*,*,#303,.F.);
#232=VERTEX_POINT('',#499);
#233=VERTEX_POINT('',#500);
#234=VERTEX_POINT('',#502);
#235=VERTEX_POINT('',#504);
#236=VERTEX_POINT('',#508);
#237=VERTEX_POINT('',#510);
#238=VERTEX_POINT('',#514);
#239=VERTEX_POINT('',#516);
#240=VERTEX_POINT('',#520);
#241=VERTEX_POINT('',#522);
#242=VERTEX_POINT('',#531);
#243=VERTEX_POINT('',#532);
#244=VERTEX_POINT('',#534);
#245=VERTEX_POINT('',#536);
#246=VERTEX_POINT('',#540);
#247=VERTEX_POINT('',#542);
#248=VERTEX_POINT('',#546);
#249=VERTEX_POINT('',#548);
#250=VERTEX_POINT('',#552);
#251=VERTEX_POINT('',#554);
#252=VERTEX_POINT('',#558);
#253=VERTEX_POINT('',#560);
#254=VERTEX_POINT('',#564);
#255=VERTEX_POINT('',#566);
#256=VERTEX_POINT('',#570);
#257=VERTEX_POINT('',#572);
#258=VERTEX_POINT('',#579);
#259=VERTEX_POINT('',#582);
#260=VERTEX_POINT('',#585);
#261=VERTEX_POINT('',#588);
#262=EDGE_CURVE('',#232,#233,#305,.T.);
#263=EDGE_CURVE('',#234,#232,#306,.T.);
#264=EDGE_CURVE('',#234,#235,#307,.T.);
#265=EDGE_CURVE('',#235,#233,#308,.T.);
#266=EDGE_CURVE('',#233,#236,#309,.T.);
#267=EDGE_CURVE('',#235,#237,#310,.T.);
#268=EDGE_CURVE('',#237,#236,#311,.T.);
#269=EDGE_CURVE('',#237,#238,#312,.T.);
#270=EDGE_CURVE('',#238,#239,#313,.T.);
#271=EDGE_CURVE('',#236,#239,#314,.T.);
#272=EDGE_CURVE('',#240,#232,#315,.T.);
#273=EDGE_CURVE('',#240,#241,#316,.T.);
#274=EDGE_CURVE('',#241,#234,#317,.T.);
#275=EDGE_CURVE('',#241,#238,#318,.T.);
#276=EDGE_CURVE('',#239,#240,#319,.T.);
#277=EDGE_CURVE('',#242,#243,#40,.T.);
#278=EDGE_CURVE('',#244,#242,#320,.T.);
#279=EDGE_CURVE('',#244,#245,#41,.T.);
#280=EDGE_CURVE('',#245,#243,#321,.T.);
#281=EDGE_CURVE('',#243,#246,#322,.T.);
#282=EDGE_CURVE('',#245,#247,#323,.T.);
#283=EDGE_CURVE('',#247,#246,#324,.T.);
#284=EDGE_CURVE('',#246,#248,#42,.T.);
#285=EDGE_CURVE('',#247,#249,#43,.T.);
#286=EDGE_CURVE('',#249,#248,#325,.T.);
#287=EDGE_CURVE('',#248,#250,#326,.T.);
#288=EDGE_CURVE('',#249,#251,#327,.T.);
#289=EDGE_CURVE('',#251,#250,#328,.T.);
#290=EDGE_CURVE('',#250,#252,#44,.T.);
#291=EDGE_CURVE('',#251,#253,#45,.T.);
#292=EDGE_CURVE('',#253,#252,#329,.T.);
#293=EDGE_CURVE('',#252,#254,#330,.T.);
#294=EDGE_CURVE('',#253,#255,#331,.T.);
#295=EDGE_CURVE('',#255,#254,#332,.T.);
#296=EDGE_CURVE('',#254,#256,#46,.T.);
#297=EDGE_CURVE('',#255,#257,#47,.T.);
#298=EDGE_CURVE('',#257,#256,#333,.T.);
#299=EDGE_CURVE('',#256,#242,#334,.T.);
#300=EDGE_CURVE('',#257,#244,#335,.T.);
#301=EDGE_CURVE('',#258,#258,#48,.T.);
#302=EDGE_CURVE('',#259,#259,#49,.T.);
#303=EDGE_CURVE('',#260,#260,#50,.T.);
#304=EDGE_CURVE('',#261,#261,#51,.T.);
#305=LINE('',#498,#336);
#306=LINE('',#501,#337);
#307=LINE('',#503,#338);
#308=LINE('',#505,#339);
#309=LINE('',#507,#340);
#310=LINE('',#509,#341);
#311=LINE('',#511,#342);
#312=LINE('',#513,#343);
#313=LINE('',#515,#344);
#314=LINE('',#517,#345);
#315=LINE('',#519,#346);
#316=LINE('',#521,#347);
#317=LINE('',#523,#348);
#318=LINE('',#525,#349);
#319=LINE('',#527,#350);
#320=LINE('',#533,#351);
#321=LINE('',#537,#352);
#322=LINE('',#539,#353);
#323=LINE('',#541,#354);
#324=LINE('',#543,#355);
#325=LINE('',#549,#356);
#326=LINE('',#551,#357);
#327=LINE('',#553,#358);
#328=LINE('',#555,#359);
#329=LINE('',#561,#360);
#330=LINE('',#563,#361);
#331=LINE('',#565,#362);
#332=LINE('',#567,#363);
#333=LINE('',#573,#364);
#334=LINE('',#575,#365);
#335=LINE('',#576,#366);
#336=VECTOR('',#402,1.);
#337=VECTOR('',#403,1.);
#338=VECTOR('',#404,1.);
#339=VECTOR('',#405,1.);
#340=VECTOR('',#408,1.);
#341=VECTOR('',#409,1.);
#342=VECTOR('',#410,1.);
#343=VECTOR('',#413,1.);
#344=VECTOR('',#414,1.);
#345=VECTOR('',#415,1.);
#346=VECTOR('',#418,1.);
#347=VECTOR('',#419,1.);
#348=VECTOR('',#420,1.);
#349=VECTOR('',#423,1.);
#350=VECTOR('',#426,1.);
#351=VECTOR('',#433,1.);
#352=VECTOR('',#436,1.);
#353=VECTOR('',#439,1.);
#354=VECTOR('',#440,1.);
#355=VECTOR('',#441,1.);
#356=VECTOR('',#448,1.);
#357=VECTOR('',#451,1.);
#358=VECTOR('',#452,1.);
#359=VECTOR('',#453,1.);
#360=VECTOR('',#460,1.);
#361=VECTOR('',#463,1.);
#362=VECTOR('',#464,1.);
#363=VECTOR('',#465,1.);
#364=VECTOR('',#472,1.);
#365=VECTOR('',#475,1.);
#366=VECTOR('',#476,1.);
#367=AXIS2_PLACEMENT_3D('',#497,#400,#401);
#368=AXIS2_PLACEMENT_3D('',#506,#406,#407);
#369=AXIS2_PLACEMENT_3D('',#512,#411,#412);
#370=AXIS2_PLACEMENT_3D('',#518,#416,#417);
#371=AXIS2_PLACEMENT_3D('',#524,#421,#422);
#372=AXIS2_PLACEMENT_3D('',#526,#424,#425);
#373=AXIS2_PLACEMENT_3D('',#528,#427,#428);
#374=AXIS2_PLACEMENT_3D('',#529,#429,#430);
#375=AXIS2_PLACEMENT_3D('',#530,#431,#432);
#376=AXIS2_PLACEMENT_3D('',#535,#434,#435);
#377=AXIS2_PLACEMENT_3D('',#538,#437,#438);
#378=AXIS2_PLACEMENT_3D('',#544,#442,#443);
#379=AXIS2_PLACEMENT_3D('',#545,#444,#445);
#380=AXIS2_PLACEMENT_3D('',#547,#446,#447);
#381=AXIS2_PLACEMENT_3D('',#550,#449,#450);
#382=AXIS2_PLACEMENT_3D('',#556,#454,#455);
#383=AXIS2_PLACEMENT_3D('',#557,#456,#457);
#384=AXIS2_PLACEMENT_3D('',#559,#458,#459);
#385=AXIS2_PLACEMENT_3D('',#562,#461,#462);
#386=AXIS2_PLACEMENT_3D('',#568,#466,#467);
#387=AXIS2_PLACEMENT_3D('',#569,#468,#469);
#388=AXIS2_PLACEMENT_3D('',#571,#470,#471);
#389=AXIS2_PLACEMENT_3D('',#574,#473,#474);
#390=AXIS2_PLACEMENT_3D('',#577,#477,#478);
#391=AXIS2_PLACEMENT_3D('',#578,#479,#480);
#392=AXIS2_PLACEMENT_3D('',#580,#481,#482);
#393=AXIS2_PLACEMENT_3D('',#581,#483,#484);
#394=AXIS2_PLACEMENT_3D('',#583,#485,#486);
#395=AXIS2_PLACEMENT_3D('',#584,#487,#488);
#396=AXIS2_PLACEMENT_3D('',#586,#489,#490);
#397=AXIS2_PLACEMENT_3D('',#587,#491,#492);
#398=AXIS2_PLACEMENT_3D('',#589,#493,#494);
#399=AXIS2_PLACEMENT_3D('',#590,#495,#496);
#400=DIRECTION('',(0.,0.,1.));
#401=DIRECTION('',(1.,0.,0.));
#402=DIRECTION('',(0.,1.,0.));
#403=DIRECTION('',(0.,0.,-1.));
#404=DIRECTION('',(0.,1.,0.));
#405=DIRECTION('',(0.,0.,-1.));
#406=DIRECTION('',(-1.,0.,0.));
#407=DIRECTION('',(0.,0.,1.));
#408=DIRECTION('',(1.,0.,0.));
#409=DIRECTION('',(1.,0.,0.));
#410=DIRECTION('',(0.,0.,-1.));
#411=DIRECTION('',(0.,1.,0.));
#412=DIRECTION('',(0.,0.,1.));
#413=DIRECTION('',(0.17364817766693,-0.984807753012208,0.));
#414=DIRECTION('',(0.,0.,-1.));
#415=DIRECTION('',(0.17364817766693,-0.984807753012208,0.));
#416=DIRECTION('',(0.984807753012208,0.17364817766693,0.));
#417=DIRECTION('',(0.17364817766693,-0.984807753012208,0.));
#418=DIRECTION('',(-1.,1.21365914830467E-16,0.));
#419=DIRECTION('',(0.,0.,1.));
#420=DIRECTION('',(-1.,1.21365914830467E-16,0.));
#421=DIRECTION('',(-1.21365914830467E-16,-1.,0.));
#422=DIRECTION('',(-1.,1.21322223101128E-16,0.));
#423=DIRECTION('',(0.642787609686539,0.766044443118978,0.));
#424=DIRECTION('',(0.,0.,-1.));
#425=DIRECTION('',(0.,1.,0.));
#426=DIRECTION('',(-0.642787609686539,-0.766044443118978,0.));
#427=DIRECTION('',(0.,0.,-1.));
#428=DIRECTION('',(0.,1.,0.));
#429=DIRECTION('',(-0.766044443118978,0.642787609686539,0.));
#430=DIRECTION('',(0.642787609686539,0.766044443118978,0.));
#431=DIRECTION('',(0.,0.,-1.));
#432=DIRECTION('',(1.,0.,0.));
#433=DIRECTION('',(-0.120017874239895,-0.0211623893957792,-0.992546151641322));
#434=DIRECTION('',(0.,0.,-1.));
#435=DIRECTION('',(0.999999999999998,0.,0.));
#436=DIRECTION('',(-1.01668842751498E-14,0.121869343405147,-0.992546151641322));
#437=DIRECTION('',(0.,0.,-1.));
#438=DIRECTION('',(1.,0.,0.));
#439=DIRECTION('',(1.,8.34244609109822E-14,0.));
#440=DIRECTION('',(1.,8.34244609109822E-14,0.));
#441=DIRECTION('',(-1.01668842751498E-14,0.121869343405147,-0.992546151641322));
#442=DIRECTION('',(-8.28026276299473E-14,0.992546151641322,0.121869343405147));
#443=DIRECTION('',(0.,-0.121869343405147,0.992546151641322));
#444=DIRECTION('',(0.,0.,-1.));
#445=DIRECTION('',(1.,0.,0.));
#446=DIRECTION('',(0.,0.,-1.));
#447=DIRECTION('',(1.,0.,0.));
#448=DIRECTION('',(0.120017874239895,0.0211623893957792,-0.992546151641322));
#449=DIRECTION('',(0.,0.,-1.));
#450=DIRECTION('',(1.,0.,0.));
#451=DIRECTION('',(0.173648177667013,-0.984807753012194,0.));
#452=DIRECTION('',(0.173648177667013,-0.984807753012194,0.));
#453=DIRECTION('',(0.120017874239895,0.0211623893957792,-0.992546151641322));
#454=DIRECTION('',(0.97746714535879,0.172353830482921,0.121869343405147));
#455=DIRECTION('',(0.173648177667013,-0.984807753012194,0.));
#456=DIRECTION('',(0.,0.,-1.));
#457=DIRECTION('',(1.,0.,0.));
#458=DIRECTION('',(0.,0.,-1.));
#459=DIRECTION('',(1.,0.,0.));
#460=DIRECTION('',(1.01668842751498E-14,-0.121869343405147,-0.992546151641322));
#461=DIRECTION('',(0.,0.,-1.));
#462=DIRECTION('',(1.,0.,0.));
#463=DIRECTION('',(-1.,-8.34244609109822E-14,0.));
#464=DIRECTION('',(-1.,-8.34244609109822E-14,0.));
#465=DIRECTION('',(1.01668842751498E-14,-0.121869343405147,-0.992546151641322));
#466=DIRECTION('',(8.28026276299472E-14,-0.992546151641322,0.121869343405147));
#467=DIRECTION('',(0.,-0.121869343405147,-0.992546151641322));
#468=DIRECTION('',(0.,0.,-1.));
#469=DIRECTION('',(1.,0.,0.));
#470=DIRECTION('',(0.,0.,-1.));
#471=DIRECTION('',(1.,0.,0.));
#472=DIRECTION('',(-0.120017874239895,-0.0211623893957792,-0.992546151641322));
#473=DIRECTION('',(0.,0.,-1.));
#474=DIRECTION('',(1.,0.,0.));
#475=DIRECTION('',(-0.173648177667013,0.984807753012193,0.));
#476=DIRECTION('',(-0.173648177667013,0.984807753012193,0.));
#477=DIRECTION('',(-0.97746714535879,-0.172353830482922,0.121869343405147));
#478=DIRECTION('',(-0.173648177667013,0.984807753012193,0.));
#479=DIRECTION('',(0.,0.,-1.));
#480=DIRECTION('',(1.,0.,0.));
#481=DIRECTION('',(0.,0.,-1.));
#482=DIRECTION('',(1.,0.,0.));
#483=DIRECTION('',(0.,0.,1.));
#484=DIRECTION('',(-1.,0.,0.));
#485=DIRECTION('',(0.,0.,-1.));
#486=DIRECTION('',(1.,0.,0.));
#487=DIRECTION('',(0.,0.,-1.));
#488=DIRECTION('',(1.,0.,0.));
#489=DIRECTION('',(0.,0.,-1.));
#490=DIRECTION('',(1.,0.,0.));
#491=DIRECTION('',(0.,0.,1.));
#492=DIRECTION('',(-1.,0.,0.));
#493=DIRECTION('',(0.,0.,1.));
#494=DIRECTION('',(-1.,0.,0.));
#495=DIRECTION('',(0.,0.,-1.));
#496=DIRECTION('',(1.,0.,0.));
#497=CARTESIAN_POINT('',(0.,0.,0.));
#498=CARTESIAN_POINT('',(-81.1291270989182,0.611810279782825,6.38378239159465E-16));
#499=CARTESIAN_POINT('',(-81.1291270989182,0.611810279782825,6.38378239159465E-16));
#500=CARTESIAN_POINT('',(-81.1291270989182,12.6118102797828,6.38378239159465E-16));
#501=CARTESIAN_POINT('',(-81.1291270989182,0.611810279782825,12.));
#502=CARTESIAN_POINT('',(-81.1291270989182,0.611810279782825,12.));
#503=CARTESIAN_POINT('',(-81.1291270989182,0.611810279782825,12.));
#504=CARTESIAN_POINT('',(-81.1291270989182,12.6118102797828,12.));
#505=CARTESIAN_POINT('',(-81.1291270989182,12.6118102797828,12.));
#506=CARTESIAN_POINT('',(-81.1291270989182,0.611810279782825,12.));
#507=CARTESIAN_POINT('',(-81.1291270989182,12.6118102797828,6.38378239159465E-16));
#508=CARTESIAN_POINT('',(-2.84505086741978,12.6118102797828,6.38378239159465E-16));
#509=CARTESIAN_POINT('',(-81.1291270989182,12.6118102797828,12.));
#510=CARTESIAN_POINT('',(-2.84505086741978,12.6118102797828,12.));
#511=CARTESIAN_POINT('',(-2.84505086741978,12.6118102797828,12.));
#512=CARTESIAN_POINT('',(-81.1291270989182,12.6118102797828,12.));
#513=CARTESIAN_POINT('',(-2.84505086741978,12.6118102797828,12.));
#514=CARTESIAN_POINT('',(-0.850680823285048,1.30117570689136,12.));
#515=CARTESIAN_POINT('',(-0.85068082328505,1.30117570689136,12.));
#516=CARTESIAN_POINT('',(-0.850680823285048,1.30117570689136,6.38378239159465E-16));
#517=CARTESIAN_POINT('',(-2.84505086741978,12.6118102797828,6.38378239159465E-16));
#518=CARTESIAN_POINT('',(-2.84505086741978,12.6118102797828,12.));
#519=CARTESIAN_POINT('',(-0.729127098918198,0.611810279782825,6.38378239159465E-16));
#520=CARTESIAN_POINT('',(-1.4291270989182,0.611810279782825,6.38378239159465E-16));
#521=CARTESIAN_POINT('',(-1.4291270989182,0.611810279782825,12.));
#522=CARTESIAN_POINT('',(-1.4291270989182,0.611810279782825,12.));
#523=CARTESIAN_POINT('',(-0.729127098918198,0.611810279782825,12.));
#524=CARTESIAN_POINT('',(-0.729127098918198,0.611810279782825,12.));
#525=CARTESIAN_POINT('',(-0.850680823285048,1.30117570689136,12.));
#526=CARTESIAN_POINT('',(-81.1291270989182,12.6118102797828,12.));
#527=CARTESIAN_POINT('',(-28.4504007008178,-31.5908896117521,6.38378239159465E-16));
#528=CARTESIAN_POINT('',(-81.1291270989182,12.6118102797828,6.38378239159465E-16));
#529=CARTESIAN_POINT('',(-0.850680823285048,1.30117570689136,12.));
#530=CARTESIAN_POINT('',(-10.3980500953852,8.72499999999913,0.));
#531=CARTESIAN_POINT('',(-11.185896297795,8.58608145786552,0.));
#532=CARTESIAN_POINT('',(-10.3980500953853,9.52499999999914,0.));
#533=CARTESIAN_POINT('',(-11.1741950981706,8.58814469506596,0.0967687582398679));
#534=CARTESIAN_POINT('',(-10.7058471233113,8.67072707939387,3.97));
#535=CARTESIAN_POINT('',(-10.3980500953852,8.72499999999913,3.97));
#536=CARTESIAN_POINT('',(-10.3980500953852,9.0375452932146,3.97));
#537=CARTESIAN_POINT('',(-10.3980500953853,9.51311829050953,0.0967687582398672));
#538=CARTESIAN_POINT('',(-10.3980500953852,8.72499999999913,0.));
#539=CARTESIAN_POINT('',(-10.3980500953853,9.52499999999914,0.));
#540=CARTESIAN_POINT('',(-2.35079419619075,9.52499999999982,0.));
#541=CARTESIAN_POINT('',(-10.3980500953852,9.0375452932146,3.97));
#542=CARTESIAN_POINT('',(-2.35079419619071,9.03754529321527,3.97));
#543=CARTESIAN_POINT('',(-2.35079419619075,9.5131182905102,0.0967687582398676));
#544=CARTESIAN_POINT('',(-10.3980500953853,9.52499999999914,0.));
#545=CARTESIAN_POINT('',(-2.35079419619069,8.72499999999981,0.));
#546=CARTESIAN_POINT('',(-1.56294799378093,8.86391854213342,0.));
#547=CARTESIAN_POINT('',(-2.35079419619069,8.72499999999981,3.97));
#548=CARTESIAN_POINT('',(-2.04299716826462,8.77927292060507,3.97));
#549=CARTESIAN_POINT('',(-1.57464919340533,8.86185530493298,0.0967687582398672));
#550=CARTESIAN_POINT('',(-2.35079419619069,8.72499999999981,0.));
#551=CARTESIAN_POINT('',(-1.80560245035382,10.2400803501438,0.));
#552=CARTESIAN_POINT('',(-0.165556671665681,0.93891854213353,0.));
#553=CARTESIAN_POINT('',(-2.04299716826462,8.77927292060507,3.97));
#554=CARTESIAN_POINT('',(-0.64560584614937,0.854272920605185,3.97));
#555=CARTESIAN_POINT('',(-0.177257871290081,0.93685530493309,0.0967687582398669));
#556=CARTESIAN_POINT('',(-1.56294799378093,8.86391854213342,0.));
#557=CARTESIAN_POINT('',(-0.953402874075441,0.79999999999992,0.));
#558=CARTESIAN_POINT('',(-0.95340287407537,-8.59230221694762E-14,0.));
#559=CARTESIAN_POINT('',(-0.953402874075441,0.79999999999992,3.97));
#560=CARTESIAN_POINT('',(-0.95340287407541,0.48745470678445,3.97));
#561=CARTESIAN_POINT('',(-0.95340287407537,0.0118817094895244,0.0967687582398671));
#562=CARTESIAN_POINT('',(-0.953402874075441,0.79999999999992,0.));
#563=CARTESIAN_POINT('',(-10.3980500953845,-8.65681224621051E-13,0.));
#564=CARTESIAN_POINT('',(-9.0006587732699,-7.55526283896524E-13,0.));
#565=CARTESIAN_POINT('',(-0.95340287407541,0.48745470678445,3.97));
#566=CARTESIAN_POINT('',(-9.00065877326994,0.48745470678378,3.97));
#567=CARTESIAN_POINT('',(-9.0006587732699,0.0118817094888444,0.0967687582398675));
#568=CARTESIAN_POINT('',(-0.95340287407537,-8.59230221694762E-14,0.));
#569=CARTESIAN_POINT('',(-9.00065877326996,0.79999999999925,0.));
#570=CARTESIAN_POINT('',(-9.78850497567972,0.66108145786564,0.));
#571=CARTESIAN_POINT('',(-9.00065877326996,0.79999999999925,3.97));
#572=CARTESIAN_POINT('',(-9.30845580119603,0.745727079393985,3.97));
#573=CARTESIAN_POINT('',(-9.77680377605533,0.663144695066079,0.0967687582398673));
#574=CARTESIAN_POINT('',(-9.00065877326996,0.79999999999925,0.));
#575=CARTESIAN_POINT('',(-11.185896297795,8.58608145786552,0.));
#576=CARTESIAN_POINT('',(-9.30845580119603,0.745727079393985,3.97));
#577=CARTESIAN_POINT('',(-9.78850497567972,0.66108145786564,0.));
#578=CARTESIAN_POINT('',(-5.67572648473033,4.76249999999953,3.97));
#579=CARTESIAN_POINT('',(-3.47572648473033,4.76249999999953,3.97));
#580=CARTESIAN_POINT('',(-10.3980500953852,8.72499999999913,3.97));
#581=CARTESIAN_POINT('',(-5.67572648473033,4.76249999999953,0.));
#582=CARTESIAN_POINT('',(-8.67572648473033,4.76249999999953,0.));
#583=CARTESIAN_POINT('',(-10.3980500953852,8.72499999999913,0.));
#584=CARTESIAN_POINT('',(-5.67572648473033,4.76249999999953,2.4));
#585=CARTESIAN_POINT('',(-3.47572648473033,4.76249999999953,2.4));
#586=CARTESIAN_POINT('',(-5.67572648473033,4.76249999999953,3.97));
#587=CARTESIAN_POINT('',(-5.67572648473033,4.76249999999953,0.8));
#588=CARTESIAN_POINT('',(-8.67572648473033,4.76249999999953,0.8));
#589=CARTESIAN_POINT('',(-5.67572648473033,4.76249999999953,0.));
#590=CARTESIAN_POINT('',(-5.67572648473033,4.76249999999953,2.4));
#591=MECHANICAL_DESIGN_GEOMETRIC_PRESENTATION_REPRESENTATION('',(#53,#54),
#592);
#592=(
GEOMETRIC_REPRESENTATION_CONTEXT(3)
GLOBAL_UNCERTAINTY_ASSIGNED_CONTEXT((#593))
GLOBAL_UNIT_ASSIGNED_CONTEXT((#599,#595,#594))
REPRESENTATION_CONTEXT('SCACR1212F09_SIM','TOP_LEVEL_ASSEMBLY_PART')
);
#593=UNCERTAINTY_MEASURE_WITH_UNIT(LENGTH_MEASURE(2.E-5),#599,
'DISTANCE_ACCURACY_VALUE','Maximum Tolerance applied to model');
#594=(
NAMED_UNIT(*)
SI_UNIT($,.STERADIAN.)
SOLID_ANGLE_UNIT()
);
#595=(
CONVERSION_BASED_UNIT('DEGREE',#597)
NAMED_UNIT(#596)
PLANE_ANGLE_UNIT()
);
#596=DIMENSIONAL_EXPONENTS(0.,0.,0.,0.,0.,0.,0.);
#597=PLANE_ANGLE_MEASURE_WITH_UNIT(PLANE_ANGLE_MEASURE(0.0174532925),#598);
#598=(
NAMED_UNIT(*)
PLANE_ANGLE_UNIT()
SI_UNIT($,.RADIAN.)
);
#599=(
LENGTH_UNIT()
NAMED_UNIT(*)
SI_UNIT(.MILLI.,.METRE.)
);
ENDSEC;
END-ISO-10303-21;
