ISO-10303-21;
HEADER;
FILE_DESCRIPTION(('STEP'), '1');
FILE_NAME('C:\\Users\\ds2002\\OneDrive - Sandvik\\HomeShare\\Documents\\Batchrepair\\CorSRT2\\NEW_MILSQ_SLD\\Output\\MOD000000000000000020082254000000.stp', '2019-01-02T12:09:45', (''), (''), 'Express v3.0.0.0', 'Express Tool', 'Unknown');
FILE_SCHEMA(('AUTOMOTIVE_DESIGN'));
ENDSEC;

DATA;
#1 = MANIFOLD_SOLID_BREP('NOCUT', #2);
#2 = CLOSED_SHELL('', (#3, #50, #89, #128, #137, #176));
#3 = ADVANCED_FACE('', (#4), #31, .T.);
#4 = FACE_OUTER_BOUND('', #5, .T.);
#5 = EDGE_LOOP('', (#6, #16, #23, #24));
#6 = ORIENTED_EDGE('', *, *, #7, .F.);
#7 = EDGE_CURVE('', #8, #10, #12, .T.);
#8 = VERTEX_POINT('', #9);
#9 = CARTESIAN_POINT('', (-5., 2.75545529808154E-15, -40.));
#10 = VERTEX_POINT('', #11);
#11 = CARTESIAN_POINT('', (-4.5, 2.77994823406449E-15, -40.9));
#12 = LINE('', #13, #14);
#13 = CARTESIAN_POINT('', (-5., 2.75545529808154E-15, -40.));
#14 = VECTOR('', #15, 1.0295630140987);
#15 = DIRECTION('', (0.5, 2.44929359829499E-17, -0.899999999999999));
#16 = ORIENTED_EDGE('', *, *, #17, .T.);
#17 = EDGE_CURVE('', #8, #8, #18, .T.);
#18 = CIRCLE('', #19, 5.);
#19 = AXIS2_PLACEMENT_3D('', #20, #21, #22);
#20 = CARTESIAN_POINT('', (8.04911692853238E-16, -4.21884749357559E-15, -40.));
#21 = DIRECTION('', (-6.7465470929473E-30, -4.83671794477989E-15, -1.));
#22 = DIRECTION('', (-1., 1.39486055833143E-15, 0.));
#23 = ORIENTED_EDGE('', *, *, #7, .T.);
#24 = ORIENTED_EDGE('', *, *, #25, .F.);
#25 = EDGE_CURVE('', #10, #10, #26, .T.);
#26 = CIRCLE('', #27, 4.5);
#27 = AXIS2_PLACEMENT_3D('', #28, #29, #30);
#28 = CARTESIAN_POINT('', (1.26287869051112E-15, 2.1094237467878E-15, -40.9));
#29 = DIRECTION('', (0., 0., -1.));
#30 = DIRECTION('', (-1., 1.49005441617043E-16, 0.));
#31 = (
   BOUNDED_SURFACE ()
   B_SPLINE_SURFACE (2, 1, ((#32, #33), (#34, #35), (#36, #37), (#38, #39), (#40, #41), (#42, #43), (#44, #45), (#46, #47), (#48, #49)), .UNSPECIFIED., .T., .F., .U.)
   B_SPLINE_SURFACE_WITH_KNOTS ((3, 2, 2, 2, 3), (2, 2), (0., 0.25, 0.5, 0.75, 1.), (0., 1.), .UNSPECIFIED.)
   GEOMETRIC_REPRESENTATION_ITEM ()
   RATIONAL_B_SPLINE_SURFACE (((1., 1.), (0.707106781186548, 0.707106781186548), (1., 1.), (0.707106781186548, 0.707106781186548), (1., 1.), (0.707106781186548, 0.707106781186548), (1., 1.), (0.707106781186548, 0.707106781186548), (1., 1.)))
   REPRESENTATION_ITEM ('')
   SURFACE ()
);
#32 = CARTESIAN_POINT('', (-5., 2.75545529808154E-15, -40.));
#33 = CARTESIAN_POINT('', (-4.5, 8.38629625927922E-15, -40.9));
#34 = CARTESIAN_POINT('', (-4.99999999999999, 5., -40.));
#35 = CARTESIAN_POINT('', (-4.49999999999999, 4.50000000000001, -40.9));
#36 = CARTESIAN_POINT('', (7.47305278472353E-15, 5., -40.));
#37 = CARTESIAN_POINT('', (6.80623867553651E-15, 4.5, -40.9));
#38 = CARTESIAN_POINT('', (5.00000000000001, 4.99999999999999, -40.));
#39 = CARTESIAN_POINT('', (4.50000000000001, 4.5, -40.9));
#40 = CARTESIAN_POINT('', (5., -1.05808268856591E-14, -40.));
#41 = CARTESIAN_POINT('', (4.5, -3.61635770608731E-15, -40.9));
#42 = CARTESIAN_POINT('', (4.99999999999999, -5.00000000000001, -40.));
#43 = CARTESIAN_POINT('', (4.5, -4.5, -40.9));
#44 = CARTESIAN_POINT('', (-5.25090599944338E-15, -5., -40.));
#45 = CARTESIAN_POINT('', (-4.64532423021371E-15, -4.5, -40.9));
#46 = CARTESIAN_POINT('', (-5.00000000000001, -5., -40.));
#47 = CARTESIAN_POINT('', (-4.5, -4.49999999999999, -40.9));
#48 = CARTESIAN_POINT('', (-5., 2.75545529808154E-15, -40.));
#49 = CARTESIAN_POINT('', (-4.5, 8.38629625927922E-15, -40.9));
#50 = ADVANCED_FACE('', (#51), #70, .T.);
#51 = FACE_OUTER_BOUND('', #52, .T.);
#52 = EDGE_LOOP('', (#53, #61, #68, #69));
#53 = ORIENTED_EDGE('', *, *, #54, .T.);
#54 = EDGE_CURVE('', #8, #55, #57, .T.);
#55 = VERTEX_POINT('', #56);
#56 = CARTESIAN_POINT('', (-5., 3.36777869765522E-16, -0.5));
#57 = LINE('', #58, #59);
#58 = CARTESIAN_POINT('', (-5., 2.75545529808154E-15, -40.));
#59 = VECTOR('', #60, 39.5);
#60 = DIRECTION('', (0., -2.41867742831602E-15, 39.5));
#61 = ORIENTED_EDGE('', *, *, #62, .T.);
#62 = EDGE_CURVE('', #55, #55, #63, .T.);
#63 = CIRCLE('', #64, 5.);
#64 = AXIS2_PLACEMENT_3D('', #65, #66, #67);
#65 = CARTESIAN_POINT('', (8.88178419700125E-16, -1.99840144432528E-15, -0.5));
#66 = DIRECTION('', (0., 0., -1.));
#67 = DIRECTION('', (-1., 4.67035862818161E-16, 0.));
#68 = ORIENTED_EDGE('', *, *, #54, .F.);
#69 = ORIENTED_EDGE('', *, *, #17, .F.);
#70 = (
   BOUNDED_SURFACE ()
   B_SPLINE_SURFACE (1, 2, ((#71, #72, #73, #74, #75, #76, #77, #78, #79), (#80, #81, #82, #83, #84, #85, #86, #87, #88)), .UNSPECIFIED., .F., .T., .U.)
   B_SPLINE_SURFACE_WITH_KNOTS ((2, 2), (3, 2, 2, 2, 3), (0., 1.), (0., 7.85398163397447, 15.707963267949, 23.5619449019234, 31.4159265358979), .UNSPECIFIED.)
   GEOMETRIC_REPRESENTATION_ITEM ()
   RATIONAL_B_SPLINE_SURFACE (((1., 0.707106781186548, 1., 0.707106781186548, 1., 0.707106781186548, 1., 0.707106781186548, 1.), (1., 0.707106781186548, 1., 0.707106781186548, 1., 0.707106781186548, 1., 0.707106781186548, 1.)))
   REPRESENTATION_ITEM ('')
   SURFACE ()
);
#71 = CARTESIAN_POINT('', (-5., 2.55722391901583E-15, -40.));
#72 = CARTESIAN_POINT('', (-5., 5., -40.));
#73 = CARTESIAN_POINT('', (2.91719603400409E-15, 5., -40.));
#74 = CARTESIAN_POINT('', (5., 5., -40.));
#75 = CARTESIAN_POINT('', (5., -1.5008113095921E-15, -40.));
#76 = CARTESIAN_POINT('', (5., -5., -40.));
#77 = CARTESIAN_POINT('', (-5.28515795030162E-16, -5., -40.));
#78 = CARTESIAN_POINT('', (-5., -5., -40.));
#79 = CARTESIAN_POINT('', (-5., 2.55722391901583E-15, -40.));
#80 = CARTESIAN_POINT('', (-5., 3.36777869765522E-16, -0.5));
#81 = CARTESIAN_POINT('', (-5., 5., -0.5));
#82 = CARTESIAN_POINT('', (2.91719603400409E-15, 5., -0.5));
#83 = CARTESIAN_POINT('', (5., 5., -0.5));
#84 = CARTESIAN_POINT('', (5., -3.72125735884241E-15, -0.5));
#85 = CARTESIAN_POINT('', (5., -5., -0.5));
#86 = CARTESIAN_POINT('', (-5.28515795030163E-16, -5., -0.5));
#87 = CARTESIAN_POINT('', (-5., -5., -0.5));
#88 = CARTESIAN_POINT('', (-5., 3.36777869765522E-16, -0.5));
#89 = ADVANCED_FACE('', (#90), #109, .T.);
#90 = FACE_OUTER_BOUND('', #91, .T.);
#91 = EDGE_LOOP('', (#92, #100, #107, #108));
#92 = ORIENTED_EDGE('', *, *, #93, .T.);
#93 = EDGE_CURVE('', #55, #94, #96, .T.);
#94 = VERTEX_POINT('', #95);
#95 = CARTESIAN_POINT('', (-4.5, 2.75545529808154E-16, 0.));
#96 = LINE('', #97, #98);
#97 = CARTESIAN_POINT('', (-5., 3.36777869765522E-16, -0.5));
#98 = VECTOR('', #99, 0.707106781186548);
#99 = DIRECTION('', (0.5, -6.1232339957368E-17, 0.5));
#100 = ORIENTED_EDGE('', *, *, #101, .T.);
#101 = EDGE_CURVE('', #94, #94, #102, .T.);
#102 = CIRCLE('', #103, 4.5);
#103 = AXIS2_PLACEMENT_3D('', #104, #105, #106);
#104 = CARTESIAN_POINT('', (2.28983498828939E-15, 0., -1.84889274661175E-32));
#105 = DIRECTION('', (-3.59251091371472E-34, 6.12323399573676E-17, -1.));
#106 = DIRECTION('', (-1., 6.12323399573675E-17, 4.1086505480261E-33));
#107 = ORIENTED_EDGE('', *, *, #93, .F.);
#108 = ORIENTED_EDGE('', *, *, #62, .F.);
#109 = (
   BOUNDED_SURFACE ()
   B_SPLINE_SURFACE (1, 2, ((#110, #111, #112, #113, #114, #115, #116, #117, #118), (#119, #120, #121, #122, #123, #124, #125, #126, #127)), .UNSPECIFIED., .F., .T., .U.)
   B_SPLINE_SURFACE_WITH_KNOTS ((2, 2), (3, 2, 2, 2, 3), (0., 1.), (0., 0.25, 0.5, 0.75, 1.), .UNSPECIFIED.)
   GEOMETRIC_REPRESENTATION_ITEM ()
   RATIONAL_B_SPLINE_SURFACE (((1., 0.707106781186548, 1., 0.707106781186548, 1., 0.707106781186548, 1., 0.707106781186548, 1.), (1., 0.707106781186548, 1., 0.707106781186548, 1., 0.707106781186548, 1., 0.707106781186548, 1.)))
   REPRESENTATION_ITEM ('')
   SURFACE ()
);
#110 = CARTESIAN_POINT('', (-5., -2.69144046670109E-15, -0.5));
#111 = CARTESIAN_POINT('', (-5., 5., -0.50000000000003));
#112 = CARTESIAN_POINT('', (2.28983498828938E-15, 5., -0.50000000000003));
#113 = CARTESIAN_POINT('', (5., 5., -0.50000000000003));
#114 = CARTESIAN_POINT('', (5., -2.69144046670108E-15, -0.5));
#115 = CARTESIAN_POINT('', (5., -5., -0.49999999999997));
#116 = CARTESIAN_POINT('', (2.90215838786306E-15, -5., -0.49999999999997));
#117 = CARTESIAN_POINT('', (-5., -5., -0.49999999999997));
#118 = CARTESIAN_POINT('', (-5., -2.69144046670109E-15, -0.5));
#119 = CARTESIAN_POINT('', (-4.5, 2.75545529808154E-16, -5.47382212626882E-48));
#120 = CARTESIAN_POINT('', (-4.5, 4.5, -2.69784194983913E-14));
#121 = CARTESIAN_POINT('', (2.28983498828938E-15, 4.5, -2.69784194983913E-14));
#122 = CARTESIAN_POINT('', (4.5, 4.5, -2.69784194983913E-14));
#123 = CARTESIAN_POINT('', (4.5, 2.75545529808155E-16, -3.34088136340818E-30));
#124 = CARTESIAN_POINT('', (4.5, -4.5, 2.69784194983913E-14));
#125 = CARTESIAN_POINT('', (2.8409260479057E-15, -4.5, 2.69784194983913E-14));
#126 = CARTESIAN_POINT('', (-4.5, -4.5, 2.69784194983913E-14));
#127 = CARTESIAN_POINT('', (-4.5, 2.75545529808154E-16, -5.47382212626882E-48));
#128 = ADVANCED_FACE('', (#129), #132, .T.);
#129 = FACE_OUTER_BOUND('', #130, .T.);
#130 = EDGE_LOOP('', (#131));
#131 = ORIENTED_EDGE('', *, *, #101, .F.);
#132 = B_SPLINE_SURFACE_WITH_KNOTS('', 1, 1, ((#133, #134), (#135, #136)), .UNSPECIFIED., .F., .F., .U., (2, 2), (2, 2), (0.0454545454545454, 0.954545454545454), (0.0454545454545454, 0.954545454545454), .UNSPECIFIED.);
#133 = CARTESIAN_POINT('', (4.5, -4.5, -2.75545529808155E-16));
#134 = CARTESIAN_POINT('', (-4.5, -4.5, -2.75545529808154E-16));
#135 = CARTESIAN_POINT('', (4.5, 4.5, 2.75545529808154E-16));
#136 = CARTESIAN_POINT('', (-4.5, 4.5, 2.75545529808155E-16));
#137 = ADVANCED_FACE('', (#138), #157, .T.);
#138 = FACE_OUTER_BOUND('', #139, .T.);
#139 = EDGE_LOOP('', (#140, #149, #155, #156));
#140 = ORIENTED_EDGE('', *, *, #141, .F.);
#141 = EDGE_CURVE('', #142, #142, #144, .T.);
#142 = VERTEX_POINT('', #143);
#143 = CARTESIAN_POINT('', (-4.5, 3.67394039744206E-15, -55.5));
#144 = CIRCLE('', #145, 4.5);
#145 = AXIS2_PLACEMENT_3D('', #146, #147, #148);
#146 = CARTESIAN_POINT('', (1.09634523681734E-15, 1.4432899320127E-15, -55.5));
#147 = DIRECTION('', (-1.57898385724466E-15, 5.13693435022355E-15, -1.));
#148 = DIRECTION('', (-1., 4.95700103428746E-16, 1.57898385724467E-15));
#149 = ORIENTED_EDGE('', *, *, #150, .F.);
#150 = EDGE_CURVE('', #10, #142, #151, .T.);
#151 = LINE('', #152, #153);
#152 = CARTESIAN_POINT('', (-4.5, 2.77994823406449E-15, -40.9));
#153 = VECTOR('', #154, 14.6);
#154 = DIRECTION('', (0., 8.9399216337757E-16, -14.6));
#155 = ORIENTED_EDGE('', *, *, #25, .T.);
#156 = ORIENTED_EDGE('', *, *, #150, .T.);
#157 = (
   BOUNDED_SURFACE ()
   B_SPLINE_SURFACE (2, 1, ((#158, #159), (#160, #161), (#162, #163), (#164, #165), (#166, #167), (#168, #169), (#170, #171), (#172, #173), (#174, #175)), .UNSPECIFIED., .T., .F., .U.)
   B_SPLINE_SURFACE_WITH_KNOTS ((3, 2, 2, 2, 3), (2, 2), (0., 7.06858347057703, 14.1371669411541, 21.2057504117311, 28.2743338823081), (0., 0.472491909385113), .UNSPECIFIED.)
   GEOMETRIC_REPRESENTATION_ITEM ()
   RATIONAL_B_SPLINE_SURFACE (((1., 1.), (0.707106781186548, 0.707106781186548), (1., 1.), (0.707106781186548, 0.707106781186548), (1., 1.), (0.707106781186548, 0.707106781186548), (1., 1.), (0.707106781186548, 0.707106781186548), (1., 1.)))
   REPRESENTATION_ITEM ('')
   SURFACE ()
);
#158 = CARTESIAN_POINT('', (-4.5, 2.77994823406449E-15, -40.9));
#159 = CARTESIAN_POINT('', (-4.5, 1.33665830205179E-15, -55.5));
#160 = CARTESIAN_POINT('', (-4.5, 4.5, -40.9));
#161 = CARTESIAN_POINT('', (-4.5, 4.5, -55.5));
#162 = CARTESIAN_POINT('', (1.67173543578747E-15, 4.5, -40.9));
#163 = CARTESIAN_POINT('', (1.67173543578747E-15, 4.5, -55.5));
#164 = CARTESIAN_POINT('', (4.5, 4.5, -40.9));
#165 = CARTESIAN_POINT('', (4.5, 4.5, -55.5));
#166 = CARTESIAN_POINT('', (4.5, 4.35678084652195E-16, -40.9));
#167 = CARTESIAN_POINT('', (4.5, -1.00761184736051E-15, -55.5));
#168 = CARTESIAN_POINT('', (4.5, -4.5, -40.9));
#169 = CARTESIAN_POINT('', (4.5, -4.5, -55.5));
#170 = CARTESIAN_POINT('', (-1.21443654008518E-16, -4.5, -40.9));
#171 = CARTESIAN_POINT('', (-1.21443654008519E-16, -4.5, -55.5));
#172 = CARTESIAN_POINT('', (-4.5, -4.5, -40.9));
#173 = CARTESIAN_POINT('', (-4.5, -4.5, -55.5));
#174 = CARTESIAN_POINT('', (-4.5, 2.77994823406449E-15, -40.9));
#175 = CARTESIAN_POINT('', (-4.5, 1.33665830205179E-15, -55.5));
#176 = ADVANCED_FACE('', (#177), #180, .T.);
#177 = FACE_OUTER_BOUND('', #178, .T.);
#178 = EDGE_LOOP('', (#179));
#179 = ORIENTED_EDGE('', *, *, #141, .T.);
#180 = B_SPLINE_SURFACE_WITH_KNOTS('', 1, 1, ((#181, #182), (#183, #184)), .UNSPECIFIED., .F., .F., .U., (2, 2), (2, 2), (0.487791159028561, 0.549119322351821), (0.450880677648179, 0.512208840971439), .UNSPECIFIED.);
#181 = CARTESIAN_POINT('', (-4.50000000000003, 4.50000000000001, -55.5));
#182 = CARTESIAN_POINT('', (-4.50000000000003, -4.49999999999999, -55.5));
#183 = CARTESIAN_POINT('', (4.49999999999999, 4.50000000000001, -55.5));
#184 = CARTESIAN_POINT('', (4.49999999999999, -4.49999999999999, -55.5));
#185 = DRAUGHTING_MODEL('', (#193, #307, #354, #359, #364, #369, #374, #379), #393);
#186 = PRESENTATION_STYLE_ASSIGNMENT((#187));
#187 = SURFACE_STYLE_USAGE(.POSITIVE., #188);
#188 = SURFACE_SIDE_STYLE('', (#189));
#189 = SURFACE_STYLE_FILL_AREA(#190);
#190 = FILL_AREA_STYLE('', (#191));
#191 = FILL_AREA_STYLE_COLOUR('', #192);
#192 = COLOUR_RGB('', 0.50196078431373, 0.50196078431373, 0.50196078431373);
#193 = STYLED_ITEM('', (#186), #1);
#194 = MANIFOLD_SOLID_BREP('CUT', #195);
#195 = CLOSED_SHELL('', (#196, #213, #252, #291));
#196 = ADVANCED_FACE('', (#197), #208, .T.);
#197 = FACE_OUTER_BOUND('', #198, .T.);
#198 = EDGE_LOOP('', (#199));
#199 = ORIENTED_EDGE('', *, *, #200, .F.);
#200 = EDGE_CURVE('', #201, #201, #203, .T.);
#201 = VERTEX_POINT('', #202);
#202 = CARTESIAN_POINT('', (-4.5, 3.67394039744206E-15, -55.5));
#203 = CIRCLE('', #204, 4.5);
#204 = AXIS2_PLACEMENT_3D('', #205, #206, #207);
#205 = CARTESIAN_POINT('', (1.09634523681734E-15, 1.4432899320127E-15, -55.5));
#206 = DIRECTION('', (-1.57898385724466E-15, 5.13693435022355E-15, -1.));
#207 = DIRECTION('', (-1., 4.95700103428746E-16, 1.57898385724467E-15));
#208 = B_SPLINE_SURFACE_WITH_KNOTS('', 1, 1, ((#209, #210), (#211, #212)), .UNSPECIFIED., .F., .F., .U., (2, 2), (2, 2), (0.450880677648179, 0.512208840971439), (0.487791159028561, 0.549119322351821), .UNSPECIFIED.);
#209 = CARTESIAN_POINT('', (-4.50000000000001, 4.5, -55.5));
#210 = CARTESIAN_POINT('', (4.5, 4.5, -55.5));
#211 = CARTESIAN_POINT('', (-4.50000000000001, -4.5, -55.5));
#212 = CARTESIAN_POINT('', (4.5, -4.5, -55.5));
#213 = ADVANCED_FACE('', (#214), #233, .T.);
#214 = FACE_OUTER_BOUND('', #215, .T.);
#215 = EDGE_LOOP('', (#216, #217, #225, #232));
#216 = ORIENTED_EDGE('', *, *, #200, .T.);
#217 = ORIENTED_EDGE('', *, *, #218, .T.);
#218 = EDGE_CURVE('', #201, #219, #221, .T.);
#219 = VERTEX_POINT('', #220);
#220 = CARTESIAN_POINT('', (-4.5, 4.67202753874715E-15, -71.8));
#221 = LINE('', #222, #223);
#222 = CARTESIAN_POINT('', (-4.5, 3.67394039744206E-15, -55.5));
#223 = VECTOR('', #224, 16.3);
#224 = DIRECTION('', (0., 9.9808714130509E-16, -16.3));
#225 = ORIENTED_EDGE('', *, *, #226, .F.);
#226 = EDGE_CURVE('', #219, #219, #227, .T.);
#227 = CIRCLE('', #228, 4.5);
#228 = AXIS2_PLACEMENT_3D('', #229, #230, #231);
#229 = CARTESIAN_POINT('', (7.49400541621981E-16, 8.88178419700125E-16, -71.8));
#230 = DIRECTION('', (-3.15796771448932E-15, 1.02738687004467E-14, -1.));
#231 = DIRECTION('', (-1., 8.40855359788228E-16, 3.15796771448933E-15));
#232 = ORIENTED_EDGE('', *, *, #218, .F.);
#233 = (
   BOUNDED_SURFACE ()
   B_SPLINE_SURFACE (2, 1, ((#234, #235), (#236, #237), (#238, #239), (#240, #241), (#242, #243), (#244, #245), (#246, #247), (#248, #249), (#250, #251)), .UNSPECIFIED., .T., .F., .U.)
   B_SPLINE_SURFACE_WITH_KNOTS ((3, 2, 2, 2, 3), (2, 2), (0., 7.06858347057703, 14.1371669411541, 21.2057504117311, 28.2743338823081), (0.472491909385113, 1.), .UNSPECIFIED.)
   GEOMETRIC_REPRESENTATION_ITEM ()
   RATIONAL_B_SPLINE_SURFACE (((1., 1.), (0.707106781186548, 0.707106781186548), (1., 1.), (0.707106781186548, 0.707106781186548), (1., 1.), (0.707106781186548, 0.707106781186548), (1., 1.), (0.707106781186548, 0.707106781186548), (1., 1.)))
   REPRESENTATION_ITEM ('')
   SURFACE ()
);
#234 = CARTESIAN_POINT('', (-4.5, 3.67394039744206E-15, -55.5));
#235 = CARTESIAN_POINT('', (-4.5, 4.6731411196047E-15, -71.8));
#236 = CARTESIAN_POINT('', (-4.5, 4.5, -55.5));
#237 = CARTESIAN_POINT('', (-4.5, 4.5, -71.8));
#238 = CARTESIAN_POINT('', (4.32820665075747E-15, 4.5, -55.5));
#239 = CARTESIAN_POINT('', (4.32820665075747E-15, 4.5, -71.8));
#240 = CARTESIAN_POINT('', (4.5, 4.5, -55.5));
#241 = CARTESIAN_POINT('', (4.5, 4.5, -71.8));
#242 = CARTESIAN_POINT('', (4.5, -3.34489394275078E-15, -55.5));
#243 = CARTESIAN_POINT('', (4.5, -2.34569322058814E-15, -71.8));
#244 = CARTESIAN_POINT('', (4.5, -4.5, -55.5));
#245 = CARTESIAN_POINT('', (4.5, -4.5, -71.8));
#246 = CARTESIAN_POINT('', (-2.13953662981906E-15, -4.5, -55.5));
#247 = CARTESIAN_POINT('', (-2.13953662981906E-15, -4.5, -71.8));
#248 = CARTESIAN_POINT('', (-4.5, -4.5, -55.5));
#249 = CARTESIAN_POINT('', (-4.5, -4.5, -71.8));
#250 = CARTESIAN_POINT('', (-4.5, 3.67394039744206E-15, -55.5));
#251 = CARTESIAN_POINT('', (-4.5, 4.6731411196047E-15, -71.8));
#252 = ADVANCED_FACE('', (#253), #272, .T.);
#253 = FACE_OUTER_BOUND('', #254, .T.);
#254 = EDGE_LOOP('', (#255, #263, #264, #265));
#255 = ORIENTED_EDGE('', *, *, #256, .F.);
#256 = EDGE_CURVE('', #219, #257, #259, .T.);
#257 = VERTEX_POINT('', #258);
#258 = CARTESIAN_POINT('', (-4.3, 4.67202753874715E-15, -72.));
#259 = LINE('', #260, #261);
#260 = CARTESIAN_POINT('', (-4.5, 4.67202753874715E-15, -71.8));
#261 = VECTOR('', #262, 0.282842712474621);
#262 = DIRECTION('', (0.2, 0., -0.200000000000003));
#263 = ORIENTED_EDGE('', *, *, #226, .T.);
#264 = ORIENTED_EDGE('', *, *, #256, .T.);
#265 = ORIENTED_EDGE('', *, *, #266, .F.);
#266 = EDGE_CURVE('', #257, #257, #267, .T.);
#267 = CIRCLE('', #268, 4.3);
#268 = AXIS2_PLACEMENT_3D('', #269, #270, #271);
#269 = CARTESIAN_POINT('', (-4.02455846426619E-16, 2.88657986402541E-15, -72.));
#270 = DIRECTION('', (0., 0., -1.));
#271 = DIRECTION('', (-1., 4.15220389470173E-16, 0.));
#272 = (
   BOUNDED_SURFACE ()
   B_SPLINE_SURFACE (2, 1, ((#273, #274), (#275, #276), (#277, #278), (#279, #280), (#281, #282), (#283, #284), (#285, #286), (#287, #288), (#289, #290)), .UNSPECIFIED., .T., .F., .U.)
   B_SPLINE_SURFACE_WITH_KNOTS ((3, 2, 2, 2, 3), (2, 2), (0., 0.25, 0.5, 0.75, 1.), (0., 1.), .UNSPECIFIED.)
   GEOMETRIC_REPRESENTATION_ITEM ()
   RATIONAL_B_SPLINE_SURFACE (((1., 1.), (0.707106781186548, 0.707106781186548), (1., 1.), (0.707106781186548, 0.707106781186548), (1., 1.), (0.707106781186548, 0.707106781186548), (1., 1.), (0.707106781186548, 0.707106781186548), (1., 1.)))
   REPRESENTATION_ITEM ('')
   SURFACE ()
);
#273 = CARTESIAN_POINT('', (-4.5, 4.67202753874715E-15, -71.8));
#274 = CARTESIAN_POINT('', (-4.3, 3.95614644130776E-15, -72.));
#275 = CARTESIAN_POINT('', (-4.5, 4.5, -71.8));
#276 = CARTESIAN_POINT('', (-4.3, 4.3, -72.));
#277 = CARTESIAN_POINT('', (2.10664702064961E-15, 4.5, -71.8));
#278 = CARTESIAN_POINT('', (2.06914620597679E-15, 4.3, -72.));
#279 = CARTESIAN_POINT('', (4.5, 4.5, -71.8));
#280 = CARTESIAN_POINT('', (4.3, 4.3, -72.));
#281 = CARTESIAN_POINT('', (4.5, 2.98449087847016E-15, -71.8));
#282 = CARTESIAN_POINT('', (4.3, 2.34361141037641E-15, -72.));
#283 = CARTESIAN_POINT('', (4.5, -4.5, -71.8));
#284 = CARTESIAN_POINT('', (4.3, -4.3, -72.));
#285 = CARTESIAN_POINT('', (9.7020141998893E-16, -4.5, -71.8));
#286 = CARTESIAN_POINT('', (9.83209298678804E-16, -4.3, -72.));
#287 = CARTESIAN_POINT('', (-4.5, -4.5, -71.8));
#288 = CARTESIAN_POINT('', (-4.3, -4.3, -72.));
#289 = CARTESIAN_POINT('', (-4.5, 4.67202753874715E-15, -71.8));
#290 = CARTESIAN_POINT('', (-4.3, 3.95614644130776E-15, -72.));
#291 = ADVANCED_FACE('', (#292), #295, .T.);
#292 = FACE_OUTER_BOUND('', #293, .T.);
#293 = EDGE_LOOP('', (#294));
#294 = ORIENTED_EDGE('', *, *, #266, .T.);
#295 = B_SPLINE_SURFACE_WITH_KNOTS('', 1, 1, ((#296, #297), (#298, #299)), .UNSPECIFIED., .F., .F., .U., (2, 2), (2, 2), (0.0454545454545454, 0.954545454545455), (0.0454545454545454, 0.954545454545455), .UNSPECIFIED.);
#296 = CARTESIAN_POINT('', (4.3, -4.3, -72.));
#297 = CARTESIAN_POINT('', (4.3, 4.30000000000001, -72.));
#298 = CARTESIAN_POINT('', (-4.3, -4.3, -72.));
#299 = CARTESIAN_POINT('', (-4.3, 4.30000000000001, -72.));
#300 = PRESENTATION_STYLE_ASSIGNMENT((#301));
#301 = SURFACE_STYLE_USAGE(.POSITIVE., #302);
#302 = SURFACE_SIDE_STYLE('', (#303));
#303 = SURFACE_STYLE_FILL_AREA(#304);
#304 = FILL_AREA_STYLE('', (#305));
#305 = FILL_AREA_STYLE_COLOUR('', #306);
#306 = COLOUR_RGB('', 0.8, 0.8, 0.8);
#307 = STYLED_ITEM('', (#300), #194);
#308 = TRIMMED_CURVE('cutting part line', #309, (#313), (#314), .T., .CARTESIAN.);
#309 = LINE('', #310, #311);
#310 = CARTESIAN_POINT('', (-3.7470027081099E-16, 0., -72.));
#311 = VECTOR('', #312, 4.3);
#312 = DIRECTION('', (4.3, 0., 0.));
#313 = CARTESIAN_POINT('', (-3.7470027081099E-16, 0., -72.));
#314 = CARTESIAN_POINT('', (4.3, 0., -72.));
#315 = TRIMMED_CURVE('cutting part line', #316, (#320), (#321), .T., .CARTESIAN.);
#316 = LINE('', #317, #318);
#317 = CARTESIAN_POINT('', (4.3, 2.90818049611844E-15, -72.));
#318 = VECTOR('', #319, 0.282842712474621);
#319 = DIRECTION('', (0.199999999999999, 6.66032359368613E-16, 0.200000000000003));
#320 = CARTESIAN_POINT('', (4.3, 2.90818049611844E-15, -72.));
#321 = CARTESIAN_POINT('', (4.5, 3.57421285548705E-15, -71.8));
#322 = TRIMMED_CURVE('cutting part line', #323, (#327), (#328), .T., .CARTESIAN.);
#323 = LINE('', #324, #325);
#324 = CARTESIAN_POINT('', (4.5, 9.99048539052918E-16, -71.8));
#325 = VECTOR('', #326, 16.3);
#326 = DIRECTION('', (0., -9.99048539052918E-16, 16.3));
#327 = CARTESIAN_POINT('', (4.5, 9.99048539052918E-16, -71.8));
#328 = CARTESIAN_POINT('', (4.5, 0., -55.5));
#329 = TRIMMED_CURVE('cutting part line', #330, (#334), (#335), .T., .CARTESIAN.);
#330 = LINE('', #331, #332);
#331 = CARTESIAN_POINT('', (4.5, 0., -55.5));
#332 = VECTOR('', #333, 4.5);
#333 = DIRECTION('', (-4.5, 0., 0.));
#334 = CARTESIAN_POINT('', (4.5, 0., -55.5));
#335 = CARTESIAN_POINT('', (0., 0., -55.5));
#336 = TRIMMED_CURVE('cutting part line', #337, (#341), (#342), .T., .CARTESIAN.);
#337 = LINE('', #338, #339);
#338 = CARTESIAN_POINT('', (0., 0., -55.5));
#339 = VECTOR('', #340, 16.5);
#340 = DIRECTION('', (0., 0., -16.5));
#341 = CARTESIAN_POINT('', (0., 0., -55.5));
#342 = CARTESIAN_POINT('', (0., 0., -72.));
#343 = COMPOSITE_CURVE('cutting part line', (#344, #345, #346, #347, #348), .U.);
#344 = COMPOSITE_CURVE_SEGMENT(.CONTINUOUS., .T., #308);
#345 = COMPOSITE_CURVE_SEGMENT(.CONTINUOUS., .T., #315);
#346 = COMPOSITE_CURVE_SEGMENT(.CONTINUOUS., .T., #322);
#347 = COMPOSITE_CURVE_SEGMENT(.CONTINUOUS., .T., #329);
#348 = COMPOSITE_CURVE_SEGMENT(.CONTINUOUS., .T., #336);
#349 = GEOMETRIC_SET('', (#343, #392));
#350 = PRESENTATION_STYLE_ASSIGNMENT((#351));
#351 = CURVE_STYLE('', #353, POSITIVE_LENGTH_MEASURE(1.E-6), #352);
#352 = COLOUR_RGB('', 0., 0., 1.);
#353 = DRAUGHTING_PRE_DEFINED_CURVE_FONT('continuous');
#354 = STYLED_ITEM('', (#350), #343);
#355 = PRESENTATION_STYLE_ASSIGNMENT((#356));
#356 = CURVE_STYLE('', #358, POSITIVE_LENGTH_MEASURE(1.E-6), #357);
#357 = COLOUR_RGB('', 0., 0., 1.);
#358 = DRAUGHTING_PRE_DEFINED_CURVE_FONT('continuous');
#359 = OVER_RIDING_STYLED_ITEM('', (#355), #308, #354);
#360 = PRESENTATION_STYLE_ASSIGNMENT((#361));
#361 = CURVE_STYLE('', #363, POSITIVE_LENGTH_MEASURE(1.E-6), #362);
#362 = COLOUR_RGB('', 0., 0., 1.);
#363 = DRAUGHTING_PRE_DEFINED_CURVE_FONT('continuous');
#364 = OVER_RIDING_STYLED_ITEM('', (#360), #315, #354);
#365 = PRESENTATION_STYLE_ASSIGNMENT((#366));
#366 = CURVE_STYLE('', #368, POSITIVE_LENGTH_MEASURE(1.E-6), #367);
#367 = COLOUR_RGB('', 0., 0., 1.);
#368 = DRAUGHTING_PRE_DEFINED_CURVE_FONT('continuous');
#369 = OVER_RIDING_STYLED_ITEM('', (#365), #322, #354);
#370 = PRESENTATION_STYLE_ASSIGNMENT((#371));
#371 = CURVE_STYLE('', #373, POSITIVE_LENGTH_MEASURE(1.E-6), #372);
#372 = COLOUR_RGB('', 0., 0., 1.);
#373 = DRAUGHTING_PRE_DEFINED_CURVE_FONT('continuous');
#374 = OVER_RIDING_STYLED_ITEM('', (#370), #329, #354);
#375 = PRESENTATION_STYLE_ASSIGNMENT((#376));
#376 = CURVE_STYLE('', #378, POSITIVE_LENGTH_MEASURE(1.E-6), #377);
#377 = COLOUR_RGB('', 0., 0., 1.);
#378 = DRAUGHTING_PRE_DEFINED_CURVE_FONT('continuous');
#379 = OVER_RIDING_STYLED_ITEM('', (#375), #336, #354);
#380 = AXIS2_PLACEMENT_3D('MCS', #381, #382, #383);
#381 = CARTESIAN_POINT('', (0., 0., -40.));
#382 = DIRECTION('', (0., 0., 1.));
#383 = DIRECTION('', (1., 0., 0.));
#384 = AXIS2_PLACEMENT_3D('PCS', #385, #386, #387);
#385 = CARTESIAN_POINT('', (0., 0., 0.));
#386 = DIRECTION('', (0., 0., 1.));
#387 = DIRECTION('', (1., 0., 0.));
#388 = AXIS2_PLACEMENT_3D('CIP', #389, #390, #391);
#389 = CARTESIAN_POINT('', (0., 0., -72.));
#390 = DIRECTION('', (0., 0., 1.));
#391 = DIRECTION('', (1., 0., 0.));
#392 = CARTESIAN_POINT('CRP', (4.5, 0., -72.));
#393 = (
   GEOMETRIC_REPRESENTATION_CONTEXT (3)
   GLOBAL_UNCERTAINTY_ASSIGNED_CONTEXT ((#395))
   GLOBAL_UNIT_ASSIGNED_CONTEXT ((#394, #396, #397))
   REPRESENTATION_CONTEXT ('', '3D')
);
#394 = (
   LENGTH_UNIT ()
   NAMED_UNIT (*)
   SI_UNIT (.MILLI., .METRE.)
);
#395 = UNCERTAINTY_MEASURE_WITH_UNIT(LENGTH_MEASURE(1.E-6), #394, 'DISTANCE_ACCURACY_VALUE', '');
#396 = (
   NAMED_UNIT (*)
   SI_UNIT ($, .STERADIAN.)
   SOLID_ANGLE_UNIT ()
);
#397 = (
   NAMED_UNIT (*)
   PLANE_ANGLE_UNIT ()
   SI_UNIT ($, .RADIAN.)
);
#398 = SHAPE_REPRESENTATION('', (), #393);
#399 = PRODUCT_DEFINITION_SHAPE('', '', #400);
#400 = PRODUCT_DEFINITION('', '', #403, #407);
#401 = APPLICATION_CONTEXT('configuration controlled 3D designs of mechanical parts and assemblies');
#402 = APPLICATION_PROTOCOL_DEFINITION('International Standard', 'automotive_design', 2002, #401);
#403 = PRODUCT_DEFINITION_FORMATION_WITH_SPECIFIED_SOURCE('', '', #404, .NOT_KNOWN.);
#404 = PRODUCT('product-name', '1P231-0900-XA       1630', '', (#405));
#405 = PRODUCT_CONTEXT('', #401, 'mechanical');
#406 = PRODUCT_RELATED_PRODUCT_CATEGORY('detail', '', (#404));
#407 = PRODUCT_DEFINITION_CONTEXT('part definition', #401, 'design');
#408 = SHAPE_DEFINITION_REPRESENTATION(#399, #398);
#409 = CONSTRUCTIVE_GEOMETRY_REPRESENTATION('supplemental geometry', (#380, #384, #388), #393);
#410 = CONSTRUCTIVE_GEOMETRY_REPRESENTATION_RELATIONSHIP('', '', #398, #409);
#411 = SHAPE_REPRESENTATION_RELATIONSHIP('', '', #398, #412);
#412 = SHAPE_REPRESENTATION('', (#349), #393);
#413 = SHAPE_REPRESENTATION_RELATIONSHIP('', '', #398, #414);
#414 = ADVANCED_BREP_SHAPE_REPRESENTATION('', (#1, #194), #393);
ENDSEC;
END-ISO-10303-21;
