ISO-10303-21;
HEADER;
FILE_DESCRIPTION(('STEP'), '1');
FILE_NAME('C:\\Users\\ds2002\\OneDrive - Sandvik\\HomeShare\\Documents\\Batchrepair\\CorSRT2\\NEW_MILSQ_SLD\\Output\\MOD000000000000000020082255700000.stp', '2019-01-02T12:10:06', (''), (''), 'Express v3.0.0.0', 'Express Tool', 'Unknown');
FILE_SCHEMA(('AUTOMOTIVE_DESIGN'));
ENDSEC;

DATA;
#1 = MANIFOLD_SOLID_BREP('NOCUT', #2);
#2 = CLOSED_SHELL('', (#3, #50, #89, #98, #137));
#3 = ADVANCED_FACE('', (#4), #31, .T.);
#4 = FACE_OUTER_BOUND('', #5, .T.);
#5 = EDGE_LOOP('', (#6, #16, #23, #24));
#6 = ORIENTED_EDGE('', *, *, #7, .T.);
#7 = EDGE_CURVE('', #8, #10, #12, .T.);
#8 = VERTEX_POINT('', #9);
#9 = CARTESIAN_POINT('', (-8., 3.42901103761259E-15, -48.));
#10 = VERTEX_POINT('', #11);
#11 = CARTESIAN_POINT('', (-8., 5.38844591624835E-16, -0.799999999999997));
#12 = LINE('', #13, #14);
#13 = CARTESIAN_POINT('', (-8., 3.42901103761259E-15, -48.));
#14 = VECTOR('', #15, 47.2);
#15 = DIRECTION('', (0., -2.89016644598775E-15, 47.2));
#16 = ORIENTED_EDGE('', *, *, #17, .T.);
#17 = EDGE_CURVE('', #10, #10, #18, .T.);
#18 = CIRCLE('', #19, 8.);
#19 = AXIS2_PLACEMENT_3D('', #20, #21, #22);
#20 = CARTESIAN_POINT('', (5.27355936696949E-16, -4.44089209850063E-16, -0.799999999999997));
#21 = DIRECTION('', (-1.38777878078144E-17, 9.23824107420045E-17, -1.));
#22 = DIRECTION('', (-1., 1.22866725184362E-16, 1.38777878078145E-17));
#23 = ORIENTED_EDGE('', *, *, #7, .F.);
#24 = ORIENTED_EDGE('', *, *, #25, .F.);
#25 = EDGE_CURVE('', #8, #8, #26, .T.);
#26 = CIRCLE('', #27, 8.);
#27 = AXIS2_PLACEMENT_3D('', #28, #29, #30);
#28 = CARTESIAN_POINT('', (5.55111512312578E-17, 3.10862446895044E-15, -48.));
#29 = DIRECTION('', (0., 0., -1.));
#30 = DIRECTION('', (-1., 4.0048321082769E-17, 0.));
#31 = (
   BOUNDED_SURFACE ()
   B_SPLINE_SURFACE (1, 2, ((#32, #33, #34, #35, #36, #37, #38, #39, #40), (#41, #42, #43, #44, #45, #46, #47, #48, #49)), .UNSPECIFIED., .F., .T., .U.)
   B_SPLINE_SURFACE_WITH_KNOTS ((2, 2), (3, 2, 2, 2, 3), (0., 1.), (0., 12.5663706143592, 25.1327412287184, 37.6991118430775, 50.2654824574367), .UNSPECIFIED.)
   GEOMETRIC_REPRESENTATION_ITEM ()
   RATIONAL_B_SPLINE_SURFACE (((1., 0.707106781186548, 1., 0.707106781186548, 1., 0.707106781186548, 1., 0.707106781186548, 1.), (1., 0.707106781186548, 1., 0.707106781186548, 1., 0.707106781186548, 1., 0.707106781186548, 1.)))
   REPRESENTATION_ITEM ('')
   SURFACE ()
);
#32 = CARTESIAN_POINT('', (-8., 5.38844591624835E-16, -48.));
#33 = CARTESIAN_POINT('', (-8., 8., -48.));
#34 = CARTESIAN_POINT('', (3.65399433984063E-16, 8., -48.));
#35 = CARTESIAN_POINT('', (8., 8., -48.));
#36 = CARTESIAN_POINT('', (8., -4.47305572007077E-16, -48.));
#37 = CARTESIAN_POINT('', (8., -8., -48.));
#38 = CARTESIAN_POINT('', (3.58966709670033E-16, -8., -48.));
#39 = CARTESIAN_POINT('', (-8., -8., -48.));
#40 = CARTESIAN_POINT('', (-8., 5.38844591624835E-16, -48.));
#41 = CARTESIAN_POINT('', (-8., 5.38844591624835E-16, -0.799999999999997));
#42 = CARTESIAN_POINT('', (-8., 8., -0.799999999999997));
#43 = CARTESIAN_POINT('', (1.02043101851291E-15, 8., -0.799999999999997));
#44 = CARTESIAN_POINT('', (8., 8., -0.799999999999997));
#45 = CARTESIAN_POINT('', (8., -4.47305572007078E-16, -0.799999999999997));
#46 = CARTESIAN_POINT('', (8., -8., -0.799999999999997));
#47 = CARTESIAN_POINT('', (1.01399829419888E-15, -8., -0.799999999999997));
#48 = CARTESIAN_POINT('', (-8., -8., -0.799999999999997));
#49 = CARTESIAN_POINT('', (-8., 5.38844591624835E-16, -0.799999999999997));
#50 = ADVANCED_FACE('', (#51), #70, .T.);
#51 = FACE_OUTER_BOUND('', #52, .T.);
#52 = EDGE_LOOP('', (#53, #61, #68, #69));
#53 = ORIENTED_EDGE('', *, *, #54, .T.);
#54 = EDGE_CURVE('', #10, #55, #57, .T.);
#55 = VERTEX_POINT('', #56);
#56 = CARTESIAN_POINT('', (-7.2, 4.40872847693047E-16, 0.));
#57 = LINE('', #58, #59);
#58 = CARTESIAN_POINT('', (-8., 5.38844591624835E-16, -0.799999999999997));
#59 = VECTOR('', #60, 1.13137084989847);
#60 = DIRECTION('', (0.8, -9.7971743931788E-17, 0.799999999999997));
#61 = ORIENTED_EDGE('', *, *, #62, .T.);
#62 = EDGE_CURVE('', #55, #55, #63, .T.);
#63 = CIRCLE('', #64, 7.2);
#64 = AXIS2_PLACEMENT_3D('', #65, #66, #67);
#65 = CARTESIAN_POINT('', (-8.32667268468867E-17, -6.66133814775094E-16, -4.93038065763132E-32));
#66 = DIRECTION('', (2.56677801597318E-33, 6.12323399573677E-17, -1.));
#67 = DIRECTION('', (-1., 1.53750925342797E-16, 6.84775091337684E-33));
#68 = ORIENTED_EDGE('', *, *, #54, .F.);
#69 = ORIENTED_EDGE('', *, *, #17, .F.);
#70 = (
   BOUNDED_SURFACE ()
   B_SPLINE_SURFACE (1, 2, ((#71, #72, #73, #74, #75, #76, #77, #78, #79), (#80, #81, #82, #83, #84, #85, #86, #87, #88)), .UNSPECIFIED., .F., .T., .U.)
   B_SPLINE_SURFACE_WITH_KNOTS ((2, 2), (3, 2, 2, 2, 3), (0., 1.), (0., 0.25, 0.5, 0.75, 1.), .UNSPECIFIED.)
   GEOMETRIC_REPRESENTATION_ITEM ()
   RATIONAL_B_SPLINE_SURFACE (((1., 0.707106781186548, 1., 0.707106781186548, 1., 0.707106781186548, 1., 0.707106781186548, 1.), (1., 0.707106781186548, 1., 0.707106781186548, 1., 0.707106781186548, 1., 0.707106781186548, 1.)))
   REPRESENTATION_ITEM ('')
   SURFACE ()
);
#71 = CARTESIAN_POINT('', (-8., -4.09906311545837E-15, -0.799999999999997));
#72 = CARTESIAN_POINT('', (-8., 7.99999999999999, -0.800000000000044));
#73 = CARTESIAN_POINT('', (6.56881956236551E-16, 7.99999999999999, -0.800000000000044));
#74 = CARTESIAN_POINT('', (8., 7.99999999999999, -0.800000000000044));
#75 = CARTESIAN_POINT('', (8., -5.57936048162525E-15, -0.799999999999997));
#76 = CARTESIAN_POINT('', (8., -8.00000000000001, -0.799999999999951));
#77 = CARTESIAN_POINT('', (1.56302029387557E-16, -8.00000000000001, -0.799999999999951));
#78 = CARTESIAN_POINT('', (-8., -8.00000000000001, -0.799999999999951));
#79 = CARTESIAN_POINT('', (-8., -4.09906311545837E-15, -0.799999999999997));
#80 = CARTESIAN_POINT('', (-7.2, 4.40872847693047E-16, 0.));
#81 = CARTESIAN_POINT('', (-7.2, 7.2, -4.19664303308311E-14));
#82 = CARTESIAN_POINT('', (5.82867087928207E-16, 7.2, -4.19664303308311E-14));
#83 = CARTESIAN_POINT('', (7.2, 7.2, -4.19664303308311E-14));
#84 = CARTESIAN_POINT('', (7.2, -8.9139478185714E-16, -5.23801307078189E-30));
#85 = CARTESIAN_POINT('', (7.2, -7.2, 4.19664303308311E-14));
#86 = CARTESIAN_POINT('', (1.32345153764114E-16, -7.2, 4.19664303308311E-14));
#87 = CARTESIAN_POINT('', (-7.2, -7.2, 4.19664303308311E-14));
#88 = CARTESIAN_POINT('', (-7.2, 4.40872847693047E-16, 0.));
#89 = ADVANCED_FACE('', (#90), #93, .T.);
#90 = FACE_OUTER_BOUND('', #91, .T.);
#91 = EDGE_LOOP('', (#92));
#92 = ORIENTED_EDGE('', *, *, #62, .F.);
#93 = B_SPLINE_SURFACE_WITH_KNOTS('', 1, 1, ((#94, #95), (#96, #97)), .UNSPECIFIED., .F., .F., .U., (2, 2), (2, 2), (0.0454545454545454, 0.954545454545455), (0.0454545454545454, 0.954545454545454), .UNSPECIFIED.);
#94 = CARTESIAN_POINT('', (7.2, -7.2, -4.40872847693047E-16));
#95 = CARTESIAN_POINT('', (-7.2, -7.2, -4.40872847693047E-16));
#96 = CARTESIAN_POINT('', (7.2, 7.2, 4.40872847693047E-16));
#97 = CARTESIAN_POINT('', (-7.2, 7.2, 4.40872847693047E-16));
#98 = ADVANCED_FACE('', (#99), #118, .T.);
#99 = FACE_OUTER_BOUND('', #100, .T.);
#100 = EDGE_LOOP('', (#101, #110, #116, #117));
#101 = ORIENTED_EDGE('', *, *, #102, .F.);
#102 = EDGE_CURVE('', #103, #103, #105, .T.);
#103 = VERTEX_POINT('', #104);
#104 = CARTESIAN_POINT('', (-8., 4.50057698686652E-15, -65.5));
#105 = CIRCLE('', #106, 8.);
#106 = AXIS2_PLACEMENT_3D('', #107, #108, #109);
#107 = CARTESIAN_POINT('', (5.27355936696949E-16, 7.32747196252603E-15, -65.5));
#108 = DIRECTION('', (0., 0., -1.));
#109 = DIRECTION('', (-1., -3.53361871957439E-16, 0.));
#110 = ORIENTED_EDGE('', *, *, #111, .F.);
#111 = EDGE_CURVE('', #8, #103, #112, .T.);
#112 = LINE('', #113, #114);
#113 = CARTESIAN_POINT('', (-8., 3.42901103761259E-15, -48.));
#114 = VECTOR('', #115, 17.5);
#115 = DIRECTION('', (0., 1.07156594925393E-15, -17.5));
#116 = ORIENTED_EDGE('', *, *, #25, .T.);
#117 = ORIENTED_EDGE('', *, *, #111, .T.);
#118 = (
   BOUNDED_SURFACE ()
   B_SPLINE_SURFACE (2, 1, ((#119, #120), (#121, #122), (#123, #124), (#125, #126), (#127, #128), (#129, #130), (#131, #132), (#133, #134), (#135, #136)), .UNSPECIFIED., .T., .F., .U.)
   B_SPLINE_SURFACE_WITH_KNOTS ((3, 2, 2, 2, 3), (2, 2), (0., 12.5663706143592, 25.1327412287184, 37.6991118430775, 50.2654824574367), (0., 0.399543378995434), .UNSPECIFIED.)
   GEOMETRIC_REPRESENTATION_ITEM ()
   RATIONAL_B_SPLINE_SURFACE (((1., 1.), (0.707106781186548, 0.707106781186548), (1., 1.), (0.707106781186548, 0.707106781186548), (1., 1.), (0.707106781186548, 0.707106781186548), (1., 1.), (0.707106781186548, 0.707106781186548), (1., 1.)))
   REPRESENTATION_ITEM ('')
   SURFACE ()
);
#119 = CARTESIAN_POINT('', (-8., 3.42901103761259E-15, -48.));
#120 = CARTESIAN_POINT('', (-8., 4.31718945731272E-15, -65.5));
#121 = CARTESIAN_POINT('', (-7.99999999999999, 8., -48.));
#122 = CARTESIAN_POINT('', (-7.99999999999999, 8., -65.5));
#123 = CARTESIAN_POINT('', (4.21590879627258E-15, 8., -48.));
#124 = CARTESIAN_POINT('', (4.21590879627258E-15, 8., -65.5));
#125 = CARTESIAN_POINT('', (8., 8., -48.));
#126 = CARTESIAN_POINT('', (8., 8., -65.5));
#127 = CARTESIAN_POINT('', (8., -3.33747201799483E-15, -48.));
#128 = CARTESIAN_POINT('', (8., -2.44929359829471E-15, -65.5));
#129 = CARTESIAN_POINT('', (8., -8., -48.));
#130 = CARTESIAN_POINT('', (8., -8., -65.5));
#131 = CARTESIAN_POINT('', (-1.57085682001696E-15, -8., -48.));
#132 = CARTESIAN_POINT('', (-1.57085682001696E-15, -8., -65.5));
#133 = CARTESIAN_POINT('', (-8., -8., -48.));
#134 = CARTESIAN_POINT('', (-8., -8., -65.5));
#135 = CARTESIAN_POINT('', (-8., 3.42901103761259E-15, -48.));
#136 = CARTESIAN_POINT('', (-8., 4.31718945731272E-15, -65.5));
#137 = ADVANCED_FACE('', (#138), #141, .T.);
#138 = FACE_OUTER_BOUND('', #139, .T.);
#139 = EDGE_LOOP('', (#140));
#140 = ORIENTED_EDGE('', *, *, #102, .T.);
#141 = B_SPLINE_SURFACE_WITH_KNOTS('', 1, 1, ((#142, #143), (#144, #145)), .UNSPECIFIED., .F., .F., .U., (2, 2), (2, 2), (0.475677594672006, 0.560117656190128), (0.439882343809872, 0.524322405327994), .UNSPECIFIED.);
#142 = CARTESIAN_POINT('', (-8.00000000000003, 8.00000000000003, -65.5));
#143 = CARTESIAN_POINT('', (-8.00000000000003, -7.99999999999997, -65.5));
#144 = CARTESIAN_POINT('', (8., 8.00000000000003, -65.5));
#145 = CARTESIAN_POINT('', (8., -7.99999999999997, -65.5));
#146 = DRAUGHTING_MODEL('', (#154, #268, #315, #320, #325, #330, #335, #340), #354);
#147 = PRESENTATION_STYLE_ASSIGNMENT((#148));
#148 = SURFACE_STYLE_USAGE(.POSITIVE., #149);
#149 = SURFACE_SIDE_STYLE('', (#150));
#150 = SURFACE_STYLE_FILL_AREA(#151);
#151 = FILL_AREA_STYLE('', (#152));
#152 = FILL_AREA_STYLE_COLOUR('', #153);
#153 = COLOUR_RGB('', 0.50196078431373, 0.50196078431373, 0.50196078431373);
#154 = STYLED_ITEM('', (#147), #1);
#155 = MANIFOLD_SOLID_BREP('CUT', #156);
#156 = CLOSED_SHELL('', (#157, #174, #213, #252));
#157 = ADVANCED_FACE('', (#158), #169, .T.);
#158 = FACE_OUTER_BOUND('', #159, .T.);
#159 = EDGE_LOOP('', (#160));
#160 = ORIENTED_EDGE('', *, *, #161, .F.);
#161 = EDGE_CURVE('', #162, #162, #164, .T.);
#162 = VERTEX_POINT('', #163);
#163 = CARTESIAN_POINT('', (-8., 4.50057698686652E-15, -65.5));
#164 = CIRCLE('', #165, 8.);
#165 = AXIS2_PLACEMENT_3D('', #166, #167, #168);
#166 = CARTESIAN_POINT('', (5.27355936696949E-16, 7.32747196252603E-15, -65.5));
#167 = DIRECTION('', (0., 0., -1.));
#168 = DIRECTION('', (-1., -3.53361871957439E-16, 0.));
#169 = B_SPLINE_SURFACE_WITH_KNOTS('', 1, 1, ((#170, #171), (#172, #173)), .UNSPECIFIED., .F., .F., .U., (2, 2), (2, 2), (0.439882343809872, 0.524322405327994), (0.475677594672006, 0.560117656190128), .UNSPECIFIED.);
#170 = CARTESIAN_POINT('', (-8., 8.00000000000001, -65.5));
#171 = CARTESIAN_POINT('', (8., 8.00000000000001, -65.5));
#172 = CARTESIAN_POINT('', (-8., -7.99999999999999, -65.5));
#173 = CARTESIAN_POINT('', (8., -7.99999999999999, -65.5));
#174 = ADVANCED_FACE('', (#175), #194, .T.);
#175 = FACE_OUTER_BOUND('', #176, .T.);
#176 = EDGE_LOOP('', (#177, #178, #186, #193));
#177 = ORIENTED_EDGE('', *, *, #161, .T.);
#178 = ORIENTED_EDGE('', *, *, #179, .T.);
#179 = EDGE_CURVE('', #162, #180, #182, .T.);
#180 = VERTEX_POINT('', #181);
#181 = CARTESIAN_POINT('', (-8., 6.11098752774529E-15, -91.8));
#182 = LINE('', #183, #184);
#183 = CARTESIAN_POINT('', (-8., 4.50057698686652E-15, -65.5));
#184 = VECTOR('', #185, 26.3);
#185 = DIRECTION('', (0., 1.61041054087877E-15, -26.3));
#186 = ORIENTED_EDGE('', *, *, #187, .F.);
#187 = EDGE_CURVE('', #180, #180, #188, .T.);
#188 = CIRCLE('', #189, 8.);
#189 = AXIS2_PLACEMENT_3D('', #190, #191, #192);
#190 = CARTESIAN_POINT('', (7.21644966006352E-16, 5.77315972805081E-15, -91.8));
#191 = DIRECTION('', (1.77635683940025E-15, -5.77905114400158E-15, -1.));
#192 = DIRECTION('', (-1., 4.22284749618095E-17, -1.77635683940025E-15));
#193 = ORIENTED_EDGE('', *, *, #179, .F.);
#194 = (
   BOUNDED_SURFACE ()
   B_SPLINE_SURFACE (2, 1, ((#195, #196), (#197, #198), (#199, #200), (#201, #202), (#203, #204), (#205, #206), (#207, #208), (#209, #210), (#211, #212)), .UNSPECIFIED., .T., .F., .U.)
   B_SPLINE_SURFACE_WITH_KNOTS ((3, 2, 2, 2, 3), (2, 2), (0., 12.5663706143592, 25.1327412287184, 37.6991118430775, 50.2654824574367), (0.399543378995434, 1.), .UNSPECIFIED.)
   GEOMETRIC_REPRESENTATION_ITEM ()
   RATIONAL_B_SPLINE_SURFACE (((1., 1.), (0.707106781186548, 0.707106781186548), (1., 1.), (0.707106781186548, 0.707106781186548), (1., 1.), (0.707106781186548, 0.707106781186548), (1., 1.), (0.707106781186548, 0.707106781186548), (1., 1.)))
   REPRESENTATION_ITEM ('')
   SURFACE ()
);
#195 = CARTESIAN_POINT('', (-8., 4.50057698686652E-15, -65.5));
#196 = CARTESIAN_POINT('', (-8., 9.82964750506727E-15, -91.8));
#197 = CARTESIAN_POINT('', (-7.99999999999999, 8., -65.5));
#198 = CARTESIAN_POINT('', (-7.99999999999999, 8.00000000000001, -91.8));
#199 = CARTESIAN_POINT('', (4.37154075021075E-15, 8., -65.5));
#200 = CARTESIAN_POINT('', (4.37154075021076E-15, 8.00000000000001, -91.8));
#201 = CARTESIAN_POINT('', (8., 8., -65.5));
#202 = CARTESIAN_POINT('', (8., 8., -91.8));
#203 = CARTESIAN_POINT('', (8., -2.63268112784851E-15, -65.5));
#204 = CARTESIAN_POINT('', (8., 2.69638939035224E-15, -91.8));
#205 = CARTESIAN_POINT('', (8., -8., -65.5));
#206 = CARTESIAN_POINT('', (8., -8., -91.8));
#207 = CARTESIAN_POINT('', (-1.78199992518639E-15, -8., -65.5));
#208 = CARTESIAN_POINT('', (-1.78199992518639E-15, -7.99999999999999, -91.8));
#209 = CARTESIAN_POINT('', (-8., -8., -65.5));
#210 = CARTESIAN_POINT('', (-8., -7.99999999999999, -91.8));
#211 = CARTESIAN_POINT('', (-8., 4.50057698686652E-15, -65.5));
#212 = CARTESIAN_POINT('', (-8., 9.82964750506727E-15, -91.8));
#213 = ADVANCED_FACE('', (#214), #233, .T.);
#214 = FACE_OUTER_BOUND('', #215, .T.);
#215 = EDGE_LOOP('', (#216, #224, #225, #226));
#216 = ORIENTED_EDGE('', *, *, #217, .F.);
#217 = EDGE_CURVE('', #180, #218, #220, .T.);
#218 = VERTEX_POINT('', #219);
#219 = CARTESIAN_POINT('', (-7.8, 6.11098752774529E-15, -92.));
#220 = LINE('', #221, #222);
#221 = CARTESIAN_POINT('', (-8., 6.11098752774529E-15, -91.8));
#222 = VECTOR('', #223, 0.282842712474621);
#223 = DIRECTION('', (0.2, 0., -0.200000000000003));
#224 = ORIENTED_EDGE('', *, *, #187, .T.);
#225 = ORIENTED_EDGE('', *, *, #217, .T.);
#226 = ORIENTED_EDGE('', *, *, #227, .F.);
#227 = EDGE_CURVE('', #218, #218, #228, .T.);
#228 = CIRCLE('', #229, 7.8);
#229 = AXIS2_PLACEMENT_3D('', #230, #231, #232);
#230 = CARTESIAN_POINT('', (2.05391259555654E-15, 7.54951656745106E-15, -92.));
#231 = DIRECTION('', (0., 0., -1.));
#232 = DIRECTION('', (-1., -1.84426799962279E-16, 0.));
#233 = (
   BOUNDED_SURFACE ()
   B_SPLINE_SURFACE (2, 1, ((#234, #235), (#236, #237), (#238, #239), (#240, #241), (#242, #243), (#244, #245), (#246, #247), (#248, #249), (#250, #251)), .UNSPECIFIED., .T., .F., .U.)
   B_SPLINE_SURFACE_WITH_KNOTS ((3, 2, 2, 2, 3), (2, 2), (0., 0.25, 0.5, 0.75, 1.), (0., 1.), .UNSPECIFIED.)
   GEOMETRIC_REPRESENTATION_ITEM ()
   RATIONAL_B_SPLINE_SURFACE (((1., 1.), (0.707106781186548, 0.707106781186548), (1., 1.), (0.707106781186548, 0.707106781186548), (1., 1.), (0.707106781186548, 0.707106781186548), (1., 1.), (0.707106781186548, 0.707106781186548), (1., 1.)))
   REPRESENTATION_ITEM ('')
   SURFACE ()
);
#234 = CARTESIAN_POINT('', (-8., 6.11098752774529E-15, -91.8));
#235 = CARTESIAN_POINT('', (-7.8, 7.44591169254937E-15, -92.));
#236 = CARTESIAN_POINT('', (-8., 8.00000000000001, -91.7999999999999));
#237 = CARTESIAN_POINT('', (-7.8, 7.80000000000001, -92.));
#238 = CARTESIAN_POINT('', (-2.35297646811352E-16, 8.00000000000001, -91.7999999999999));
#239 = CARTESIAN_POINT('', (-2.20394643565988E-16, 7.80000000000001, -91.9999999999999));
#240 = CARTESIAN_POINT('', (8., 8.00000000000001, -91.7999999999999));
#241 = CARTESIAN_POINT('', (7.8, 7.80000000000001, -92.));
#242 = CARTESIAN_POINT('', (8., 7.30322778737434E-15, -91.8));
#243 = CARTESIAN_POINT('', (7.8, 8.6083459456877E-15, -92.));
#244 = CARTESIAN_POINT('', (8., -7.99999999999999, -91.8000000000001));
#245 = CARTESIAN_POINT('', (7.8, -7.79999999999999, -92.0000000000001));
#246 = CARTESIAN_POINT('', (1.93666005213559E-15, -7.99999999999999, -91.8000000000001));
#247 = CARTESIAN_POINT('', (1.89726411290728E-15, -7.79999999999999, -92.0000000000001));
#248 = CARTESIAN_POINT('', (-8., -7.99999999999999, -91.8000000000001));
#249 = CARTESIAN_POINT('', (-7.8, -7.79999999999999, -92.0000000000001));
#250 = CARTESIAN_POINT('', (-8., 6.11098752774529E-15, -91.8));
#251 = CARTESIAN_POINT('', (-7.8, 7.44591169254937E-15, -92.));
#252 = ADVANCED_FACE('', (#253), #256, .T.);
#253 = FACE_OUTER_BOUND('', #254, .T.);
#254 = EDGE_LOOP('', (#255));
#255 = ORIENTED_EDGE('', *, *, #227, .T.);
#256 = B_SPLINE_SURFACE_WITH_KNOTS('', 1, 1, ((#257, #258), (#259, #260)), .UNSPECIFIED., .F., .F., .U., (2, 2), (2, 2), (0.0454545454545454, 0.954545454545455), (0.0454545454545454, 0.954545454545455), .UNSPECIFIED.);
#257 = CARTESIAN_POINT('', (7.8, -7.8, -92.));
#258 = CARTESIAN_POINT('', (7.8, 7.80000000000001, -92.));
#259 = CARTESIAN_POINT('', (-7.8, -7.79999999999999, -92.));
#260 = CARTESIAN_POINT('', (-7.8, 7.80000000000002, -92.));
#261 = PRESENTATION_STYLE_ASSIGNMENT((#262));
#262 = SURFACE_STYLE_USAGE(.POSITIVE., #263);
#263 = SURFACE_SIDE_STYLE('', (#264));
#264 = SURFACE_STYLE_FILL_AREA(#265);
#265 = FILL_AREA_STYLE('', (#266));
#266 = FILL_AREA_STYLE_COLOUR('', #267);
#267 = COLOUR_RGB('', 0.8, 0.8, 0.8);
#268 = STYLED_ITEM('', (#261), #155);
#269 = TRIMMED_CURVE('cutting part line', #270, (#274), (#275), .T., .CARTESIAN.);
#270 = LINE('', #271, #272);
#271 = CARTESIAN_POINT('', (8.32667268468867E-16, 0., -92.));
#272 = VECTOR('', #273, 7.8);
#273 = DIRECTION('', (7.8, 0., 0.));
#274 = CARTESIAN_POINT('', (8.32667268468867E-16, 0., -92.));
#275 = CARTESIAN_POINT('', (7.8, 0., -92.));
#276 = TRIMMED_CURVE('cutting part line', #277, (#281), (#282), .T., .CARTESIAN.);
#277 = LINE('', #278, #279);
#278 = CARTESIAN_POINT('', (7.8, 7.55466396013602E-15, -92.));
#279 = VECTOR('', #280, 0.282842712474621);
#280 = DIRECTION('', (0.2, -1.33206471873722E-15, 0.200000000000003));
#281 = CARTESIAN_POINT('', (7.8, 7.55466396013602E-15, -92.));
#282 = CARTESIAN_POINT('', (8., 6.22259924139879E-15, -91.8));
#283 = TRIMMED_CURVE('cutting part line', #284, (#288), (#289), .T., .CARTESIAN.);
#284 = LINE('', #285, #286);
#285 = CARTESIAN_POINT('', (8., 5.3282588749489E-15, -91.8));
#286 = VECTOR('', #287, 26.3);
#287 = DIRECTION('', (0., -5.3282588749489E-15, 26.3));
#288 = CARTESIAN_POINT('', (8., 5.3282588749489E-15, -91.8));
#289 = CARTESIAN_POINT('', (8., 0., -65.5));
#290 = TRIMMED_CURVE('cutting part line', #291, (#295), (#296), .T., .CARTESIAN.);
#291 = LINE('', #292, #293);
#292 = CARTESIAN_POINT('', (8., 0., -65.5));
#293 = VECTOR('', #294, 8.);
#294 = DIRECTION('', (-8., 0., 0.));
#295 = CARTESIAN_POINT('', (8., 0., -65.5));
#296 = CARTESIAN_POINT('', (-2.77555756156289E-17, 0., -65.5));
#297 = TRIMMED_CURVE('cutting part line', #298, (#302), (#303), .T., .CARTESIAN.);
#298 = LINE('', #299, #300);
#299 = CARTESIAN_POINT('', (0., 0., -65.5));
#300 = VECTOR('', #301, 26.5000000000001);
#301 = DIRECTION('', (0., 0., -26.5000000000001));
#302 = CARTESIAN_POINT('', (0., 0., -65.5));
#303 = CARTESIAN_POINT('', (0., 0., -92.0000000000001));
#304 = COMPOSITE_CURVE('cutting part line', (#305, #306, #307, #308, #309), .U.);
#305 = COMPOSITE_CURVE_SEGMENT(.CONTINUOUS., .T., #269);
#306 = COMPOSITE_CURVE_SEGMENT(.CONTINUOUS., .T., #276);
#307 = COMPOSITE_CURVE_SEGMENT(.CONTINUOUS., .T., #283);
#308 = COMPOSITE_CURVE_SEGMENT(.CONTINUOUS., .T., #290);
#309 = COMPOSITE_CURVE_SEGMENT(.CONTINUOUS., .T., #297);
#310 = GEOMETRIC_SET('', (#304, #353));
#311 = PRESENTATION_STYLE_ASSIGNMENT((#312));
#312 = CURVE_STYLE('', #314, POSITIVE_LENGTH_MEASURE(1.E-6), #313);
#313 = COLOUR_RGB('', 0., 0., 1.);
#314 = DRAUGHTING_PRE_DEFINED_CURVE_FONT('continuous');
#315 = STYLED_ITEM('', (#311), #304);
#316 = PRESENTATION_STYLE_ASSIGNMENT((#317));
#317 = CURVE_STYLE('', #319, POSITIVE_LENGTH_MEASURE(1.E-6), #318);
#318 = COLOUR_RGB('', 0., 0., 1.);
#319 = DRAUGHTING_PRE_DEFINED_CURVE_FONT('continuous');
#320 = OVER_RIDING_STYLED_ITEM('', (#316), #269, #315);
#321 = PRESENTATION_STYLE_ASSIGNMENT((#322));
#322 = CURVE_STYLE('', #324, POSITIVE_LENGTH_MEASURE(1.E-6), #323);
#323 = COLOUR_RGB('', 0., 0., 1.);
#324 = DRAUGHTING_PRE_DEFINED_CURVE_FONT('continuous');
#325 = OVER_RIDING_STYLED_ITEM('', (#321), #276, #315);
#326 = PRESENTATION_STYLE_ASSIGNMENT((#327));
#327 = CURVE_STYLE('', #329, POSITIVE_LENGTH_MEASURE(1.E-6), #328);
#328 = COLOUR_RGB('', 0., 0., 1.);
#329 = DRAUGHTING_PRE_DEFINED_CURVE_FONT('continuous');
#330 = OVER_RIDING_STYLED_ITEM('', (#326), #283, #315);
#331 = PRESENTATION_STYLE_ASSIGNMENT((#332));
#332 = CURVE_STYLE('', #334, POSITIVE_LENGTH_MEASURE(1.E-6), #333);
#333 = COLOUR_RGB('', 0., 0., 1.);
#334 = DRAUGHTING_PRE_DEFINED_CURVE_FONT('continuous');
#335 = OVER_RIDING_STYLED_ITEM('', (#331), #290, #315);
#336 = PRESENTATION_STYLE_ASSIGNMENT((#337));
#337 = CURVE_STYLE('', #339, POSITIVE_LENGTH_MEASURE(1.E-6), #338);
#338 = COLOUR_RGB('', 0., 0., 1.);
#339 = DRAUGHTING_PRE_DEFINED_CURVE_FONT('continuous');
#340 = OVER_RIDING_STYLED_ITEM('', (#336), #297, #315);
#341 = AXIS2_PLACEMENT_3D('MCS', #342, #343, #344);
#342 = CARTESIAN_POINT('', (0., 0., -48.));
#343 = DIRECTION('', (0., 0., 1.));
#344 = DIRECTION('', (1., 0., 0.));
#345 = AXIS2_PLACEMENT_3D('PCS', #346, #347, #348);
#346 = CARTESIAN_POINT('', (0., 0., 0.));
#347 = DIRECTION('', (0., 0., 1.));
#348 = DIRECTION('', (1., 0., 0.));
#349 = AXIS2_PLACEMENT_3D('CIP', #350, #351, #352);
#350 = CARTESIAN_POINT('', (0., 0., -92.0000000000001));
#351 = DIRECTION('', (0., 0., 1.));
#352 = DIRECTION('', (1., 0., 0.));
#353 = CARTESIAN_POINT('CRP', (8., 0., -92.0000000000001));
#354 = (
   GEOMETRIC_REPRESENTATION_CONTEXT (3)
   GLOBAL_UNCERTAINTY_ASSIGNED_CONTEXT ((#356))
   GLOBAL_UNIT_ASSIGNED_CONTEXT ((#355, #357, #358))
   REPRESENTATION_CONTEXT ('', '3D')
);
#355 = (
   LENGTH_UNIT ()
   NAMED_UNIT (*)
   SI_UNIT (.MILLI., .METRE.)
);
#356 = UNCERTAINTY_MEASURE_WITH_UNIT(LENGTH_MEASURE(1.E-6), #355, 'DISTANCE_ACCURACY_VALUE', '');
#357 = (
   NAMED_UNIT (*)
   SI_UNIT ($, .STERADIAN.)
   SOLID_ANGLE_UNIT ()
);
#358 = (
   NAMED_UNIT (*)
   PLANE_ANGLE_UNIT ()
   SI_UNIT ($, .RADIAN.)
);
#359 = SHAPE_REPRESENTATION('', (), #354);
#360 = PRODUCT_DEFINITION_SHAPE('', '', #361);
#361 = PRODUCT_DEFINITION('', '', #364, #368);
#362 = APPLICATION_CONTEXT('configuration controlled 3D designs of mechanical parts and assemblies');
#363 = APPLICATION_PROTOCOL_DEFINITION('International Standard', 'automotive_design', 2002, #362);
#364 = PRODUCT_DEFINITION_FORMATION_WITH_SPECIFIED_SOURCE('', '', #365, .NOT_KNOWN.);
#365 = PRODUCT('product-name', '1P231-1600-XA       1630', '', (#366));
#366 = PRODUCT_CONTEXT('', #362, 'mechanical');
#367 = PRODUCT_RELATED_PRODUCT_CATEGORY('detail', '', (#365));
#368 = PRODUCT_DEFINITION_CONTEXT('part definition', #362, 'design');
#369 = SHAPE_DEFINITION_REPRESENTATION(#360, #359);
#370 = CONSTRUCTIVE_GEOMETRY_REPRESENTATION('supplemental geometry', (#341, #345, #349), #354);
#371 = CONSTRUCTIVE_GEOMETRY_REPRESENTATION_RELATIONSHIP('', '', #359, #370);
#372 = SHAPE_REPRESENTATION_RELATIONSHIP('', '', #359, #373);
#373 = SHAPE_REPRESENTATION('', (#310), #354);
#374 = SHAPE_REPRESENTATION_RELATIONSHIP('', '', #359, #375);
#375 = ADVANCED_BREP_SHAPE_REPRESENTATION('', (#1, #155), #354);
ENDSEC;
END-ISO-10303-21;
