ISO-10303-21;
HEADER;
FILE_DESCRIPTION(('STEP'), '1');
FILE_NAME('C:\\Users\\ds2002\\OneDrive - Sandvik\\HomeShare\\Documents\\Batchrepair\\CorSRT2\\NEW_MILSQ_SLD\\Output\\MOD000000000000000020082246500000.stp', '2019-01-02T12:08:40', (''), (''), 'Express v3.0.0.0', 'Express Tool', 'Unknown');
FILE_SCHEMA(('AUTOMOTIVE_DESIGN'));
ENDSEC;

DATA;
#1 = MANIFOLD_SOLID_BREP('NOCUT', #2);
#2 = CLOSED_SHELL('', (#3, #50, #89, #128, #137, #176));
#3 = ADVANCED_FACE('', (#4), #31, .T.);
#4 = FACE_OUTER_BOUND('', #5, .T.);
#5 = EDGE_LOOP('', (#6, #16, #23, #24));
#6 = ORIENTED_EDGE('', *, *, #7, .F.);
#7 = EDGE_CURVE('', #8, #10, #12, .T.);
#8 = VERTEX_POINT('', #9);
#9 = CARTESIAN_POINT('', (-3., 2.87791997799628E-15, -44.));
#10 = VERTEX_POINT('', #11);
#11 = CARTESIAN_POINT('', (-1., 2.95752201994086E-15, -47.3));
#12 = LINE('', #13, #14);
#13 = CARTESIAN_POINT('', (-3., 2.87791997799628E-15, -44.));
#14 = VECTOR('', #15, 3.85875627631495);
#15 = DIRECTION('', (2., 7.960204194458E-17, -3.3));
#16 = ORIENTED_EDGE('', *, *, #17, .T.);
#17 = EDGE_CURVE('', #8, #8, #18, .T.);
#18 = CIRCLE('', #19, 3.);
#19 = AXIS2_PLACEMENT_3D('', #20, #21, #22);
#20 = CARTESIAN_POINT('', (2.08166817117217E-16, 2.4980018054066E-15, -44.));
#21 = DIRECTION('', (0., 0., -1.));
#22 = DIRECTION('', (-1., 1.26639390863226E-16, 0.));
#23 = ORIENTED_EDGE('', *, *, #7, .T.);
#24 = ORIENTED_EDGE('', *, *, #25, .F.);
#25 = EDGE_CURVE('', #10, #10, #26, .T.);
#26 = CIRCLE('', #27, 0.999999999999999);
#27 = AXIS2_PLACEMENT_3D('', #28, #29, #30);
#28 = CARTESIAN_POINT('', (1.38777878078145E-17, 2.91433543964104E-15, -47.3));
#29 = DIRECTION('', (0., 0., -1.));
#30 = DIRECTION('', (-1., 4.3186580299824E-17, 0.));
#31 = (
   BOUNDED_SURFACE ()
   B_SPLINE_SURFACE (2, 1, ((#32, #33), (#34, #35), (#36, #37), (#38, #39), (#40, #41), (#42, #43), (#44, #45), (#46, #47), (#48, #49)), .UNSPECIFIED., .T., .F., .U.)
   B_SPLINE_SURFACE_WITH_KNOTS ((3, 2, 2, 2, 3), (2, 2), (0., 0.25, 0.5, 0.75, 1.), (0., 1.), .UNSPECIFIED.)
   GEOMETRIC_REPRESENTATION_ITEM ()
   RATIONAL_B_SPLINE_SURFACE (((1., 1.), (0.707106781186548, 0.707106781186548), (1., 1.), (0.707106781186548, 0.707106781186548), (1., 1.), (0.707106781186548, 0.707106781186548), (1., 1.), (0.707106781186548, 0.707106781186548), (1., 1.)))
   REPRESENTATION_ITEM ('')
   SURFACE ()
);
#32 = CARTESIAN_POINT('', (-3., 2.87791997799628E-15, -44.));
#33 = CARTESIAN_POINT('', (-1., 3.04097483050426E-15, -47.3));
#34 = CARTESIAN_POINT('', (-3., 3., -44.));
#35 = CARTESIAN_POINT('', (-0.999999999999999, 1., -47.3));
#36 = CARTESIAN_POINT('', (4.04387969834792E-16, 3., -44.));
#37 = CARTESIAN_POINT('', (2.73573868023075E-16, 1., -47.3));
#38 = CARTESIAN_POINT('', (3., 3., -44.));
#39 = CARTESIAN_POINT('', (1., 1., -47.3));
#40 = CARTESIAN_POINT('', (3., 2.48547767256113E-15, -44.));
#41 = CARTESIAN_POINT('', (1., 2.91016072869255E-15, -47.3));
#42 = CARTESIAN_POINT('', (3., -3., -44.));
#43 = CARTESIAN_POINT('', (1., -0.999999999999997, -47.3));
#44 = CARTESIAN_POINT('', (3.79339704143848E-16, -3., -44.));
#45 = CARTESIAN_POINT('', (2.65224446126094E-16, -0.999999999999997, -47.3));
#46 = CARTESIAN_POINT('', (-3., -3., -44.));
#47 = CARTESIAN_POINT('', (-0.999999999999999, -0.999999999999997, -47.3));
#48 = CARTESIAN_POINT('', (-3., 2.87791997799628E-15, -44.));
#49 = CARTESIAN_POINT('', (-1., 3.04097483050426E-15, -47.3));
#50 = ADVANCED_FACE('', (#51), #70, .T.);
#51 = FACE_OUTER_BOUND('', #52, .T.);
#52 = EDGE_LOOP('', (#53, #61, #68, #69));
#53 = ORIENTED_EDGE('', *, *, #54, .T.);
#54 = EDGE_CURVE('', #8, #55, #57, .T.);
#55 = VERTEX_POINT('', #56);
#56 = CARTESIAN_POINT('', (-3., 2.02066721859313E-16, -0.299999999999997));
#57 = LINE('', #58, #59);
#58 = CARTESIAN_POINT('', (-3., 2.87791997799628E-15, -44.));
#59 = VECTOR('', #60, 43.7);
#60 = DIRECTION('', (0., -2.67585325613697E-15, 43.7));
#61 = ORIENTED_EDGE('', *, *, #62, .T.);
#62 = EDGE_CURVE('', #55, #55, #63, .T.);
#63 = CIRCLE('', #64, 3.);
#64 = AXIS2_PLACEMENT_3D('', #65, #66, #67);
#65 = CARTESIAN_POINT('', (1.346145417358E-15, -1.88737914186277E-15, -0.299999999999997));
#66 = DIRECTION('', (-1.85037170770859E-17, 6.01984494166833E-17, -1.));
#67 = DIRECTION('', (-1., 6.96481954574026E-16, 1.85037170770859E-17));
#68 = ORIENTED_EDGE('', *, *, #54, .F.);
#69 = ORIENTED_EDGE('', *, *, #17, .F.);
#70 = (
   BOUNDED_SURFACE ()
   B_SPLINE_SURFACE (1, 2, ((#71, #72, #73, #74, #75, #76, #77, #78, #79), (#80, #81, #82, #83, #84, #85, #86, #87, #88)), .UNSPECIFIED., .F., .T., .U.)
   B_SPLINE_SURFACE_WITH_KNOTS ((2, 2), (3, 2, 2, 2, 3), (0., 1.), (0., 4.7123889803847, 9.4247779607694, 14.1371669411541, 18.8495559215388), .UNSPECIFIED.)
   GEOMETRIC_REPRESENTATION_ITEM ()
   RATIONAL_B_SPLINE_SURFACE (((1., 0.707106781186548, 1., 0.707106781186548, 1., 0.707106781186548, 1., 0.707106781186548, 1.), (1., 0.707106781186548, 1., 0.707106781186548, 1., 0.707106781186548, 1., 0.707106781186548, 1.)))
   REPRESENTATION_ITEM ('')
   SURFACE ()
);
#71 = CARTESIAN_POINT('', (-3., 2.5890462248034E-15, -44.));
#72 = CARTESIAN_POINT('', (-3., 3., -44.));
#73 = CARTESIAN_POINT('', (2.44328182493932E-15, 3., -44.));
#74 = CARTESIAN_POINT('', (3., 3., -44.));
#75 = CARTESIAN_POINT('', (3., -1.22245146289655E-15, -44.));
#76 = CARTESIAN_POINT('', (3., -3., -44.));
#77 = CARTESIAN_POINT('', (-1.00082182301642E-15, -3., -44.));
#78 = CARTESIAN_POINT('', (-3., -3., -44.));
#79 = CARTESIAN_POINT('', (-3., 2.5890462248034E-15, -44.));
#80 = CARTESIAN_POINT('', (-3., 2.02066721859312E-16, -0.299999999999997));
#81 = CARTESIAN_POINT('', (-3., 3., -0.299999999999997));
#82 = CARTESIAN_POINT('', (3.25189426120798E-15, 3., -0.299999999999997));
#83 = CARTESIAN_POINT('', (3., 3., -0.299999999999997));
#84 = CARTESIAN_POINT('', (3., -3.60943096584064E-15, -0.299999999999997));
#85 = CARTESIAN_POINT('', (3., -3., -0.299999999999997));
#86 = CARTESIAN_POINT('', (-1.92209386747767E-16, -3., -0.299999999999997));
#87 = CARTESIAN_POINT('', (-3., -3., -0.299999999999997));
#88 = CARTESIAN_POINT('', (-3., 2.02066721859312E-16, -0.299999999999997));
#89 = ADVANCED_FACE('', (#90), #109, .T.);
#90 = FACE_OUTER_BOUND('', #91, .T.);
#91 = EDGE_LOOP('', (#92, #100, #107, #108));
#92 = ORIENTED_EDGE('', *, *, #93, .T.);
#93 = EDGE_CURVE('', #55, #94, #96, .T.);
#94 = VERTEX_POINT('', #95);
#95 = CARTESIAN_POINT('', (-2.7, 1.65327317884893E-16, 0.));
#96 = LINE('', #97, #98);
#97 = CARTESIAN_POINT('', (-3., 2.02066721859313E-16, -0.299999999999997));
#98 = VECTOR('', #99, 0.424264068711926);
#99 = DIRECTION('', (0.3, -3.673940397442E-17, 0.299999999999997));
#100 = ORIENTED_EDGE('', *, *, #101, .T.);
#101 = EDGE_CURVE('', #94, #94, #102, .T.);
#102 = CIRCLE('', #103, 2.7);
#103 = AXIS2_PLACEMENT_3D('', #104, #105, #106);
#104 = CARTESIAN_POINT('', (9.22872889219661E-16, -1.27675647831893E-15, -8.0118685686509E-32));
#105 = DIRECTION('', (3.03091835913145E-33, 6.12323399573678E-17, -1.));
#106 = DIRECTION('', (-1., 5.34105109705119E-16, 2.96735872912996E-32));
#107 = ORIENTED_EDGE('', *, *, #93, .F.);
#108 = ORIENTED_EDGE('', *, *, #62, .F.);
#109 = (
   BOUNDED_SURFACE ()
   B_SPLINE_SURFACE (1, 2, ((#110, #111, #112, #113, #114, #115, #116, #117, #118), (#119, #120, #121, #122, #123, #124, #125, #126, #127)), .UNSPECIFIED., .F., .T., .U.)
   B_SPLINE_SURFACE_WITH_KNOTS ((2, 2), (3, 2, 2, 2, 3), (0., 1.), (0., 0.25, 0.5, 0.75, 1.), .UNSPECIFIED.)
   GEOMETRIC_REPRESENTATION_ITEM ()
   RATIONAL_B_SPLINE_SURFACE (((1., 0.707106781186548, 1., 0.707106781186548, 1., 0.707106781186548, 1., 0.707106781186548, 1.), (1., 0.707106781186548, 1., 0.707106781186548, 1., 0.707106781186548, 1., 0.707106781186548, 1.)))
   REPRESENTATION_ITEM ('')
   SURFACE ()
);
#110 = CARTESIAN_POINT('', (-3., 1.49129302665284E-15, -0.299999999999997));
#111 = CARTESIAN_POINT('', (-3., 3., -0.299999999999985));
#112 = CARTESIAN_POINT('', (2.34149119846292E-15, 3., -0.299999999999985));
#113 = CARTESIAN_POINT('', (3., 3., -0.299999999999985));
#114 = CARTESIAN_POINT('', (3., -1.34594359183367E-15, -0.299999999999997));
#115 = CARTESIAN_POINT('', (3., -3., -0.300000000000009));
#116 = CARTESIAN_POINT('', (-1.28351380279387E-16, -3., -0.300000000000009));
#117 = CARTESIAN_POINT('', (-3., -3., -0.300000000000009));
#118 = CARTESIAN_POINT('', (-3., 1.49129302665284E-15, -0.299999999999997));
#119 = CARTESIAN_POINT('', (-2.7, 1.65327317884893E-16, -2.18952885050753E-47));
#120 = CARTESIAN_POINT('', (-2.7, 2.7, 1.04916075827078E-14));
#121 = CARTESIAN_POINT('', (2.19962936753859E-15, 2.7, 1.04916075827078E-14));
#122 = CARTESIAN_POINT('', (2.7, 2.7, 1.04916075827078E-14));
#123 = CARTESIAN_POINT('', (2.7, -2.38818563875297E-15, 1.12461399303431E-30));
#124 = CARTESIAN_POINT('', (2.7, -2.7, -1.04916075827078E-14));
#125 = CARTESIAN_POINT('', (-2.32289533294833E-17, -2.7, -1.04916075827078E-14));
#126 = CARTESIAN_POINT('', (-2.7, -2.7, -1.04916075827078E-14));
#127 = CARTESIAN_POINT('', (-2.7, 1.65327317884893E-16, -2.18952885050753E-47));
#128 = ADVANCED_FACE('', (#129), #132, .T.);
#129 = FACE_OUTER_BOUND('', #130, .T.);
#130 = EDGE_LOOP('', (#131));
#131 = ORIENTED_EDGE('', *, *, #101, .F.);
#132 = B_SPLINE_SURFACE_WITH_KNOTS('', 1, 1, ((#133, #134), (#135, #136)), .UNSPECIFIED., .F., .F., .U., (2, 2), (2, 2), (0.0454545454545454, 0.954545454545454), (0.0454545454545454, 0.954545454545454), .UNSPECIFIED.);
#133 = CARTESIAN_POINT('', (2.7, -2.7, -1.65327317884893E-16));
#134 = CARTESIAN_POINT('', (-2.7, -2.7, -1.65327317884893E-16));
#135 = CARTESIAN_POINT('', (2.7, 2.7, 1.65327317884893E-16));
#136 = CARTESIAN_POINT('', (-2.7, 2.7, 1.65327317884893E-16));
#137 = ADVANCED_FACE('', (#138), #157, .T.);
#138 = FACE_OUTER_BOUND('', #139, .T.);
#139 = EDGE_LOOP('', (#140, #149, #155, #156));
#140 = ORIENTED_EDGE('', *, *, #141, .F.);
#141 = EDGE_CURVE('', #142, #142, #144, .T.);
#142 = VERTEX_POINT('', #143);
#143 = CARTESIAN_POINT('', (-1., 3.15346550780443E-15, -50.5));
#144 = CIRCLE('', #145, 1.);
#145 = AXIS2_PLACEMENT_3D('', #146, #147, #148);
#146 = CARTESIAN_POINT('', (7.83748066446321E-15, 3.52495810318487E-15, -50.5));
#147 = DIRECTION('', (0., 0., -1.));
#148 = DIRECTION('', (-1., -3.71492595380431E-16, 0.));
#149 = ORIENTED_EDGE('', *, *, #150, .F.);
#150 = EDGE_CURVE('', #10, #142, #151, .T.);
#151 = LINE('', #152, #153);
#152 = CARTESIAN_POINT('', (-1., 2.95752201994086E-15, -47.3));
#153 = VECTOR('', #154, 3.2);
#154 = DIRECTION('', (0., 1.9594348786357E-16, -3.2));
#155 = ORIENTED_EDGE('', *, *, #25, .T.);
#156 = ORIENTED_EDGE('', *, *, #150, .T.);
#157 = (
   BOUNDED_SURFACE ()
   B_SPLINE_SURFACE (2, 1, ((#158, #159), (#160, #161), (#162, #163), (#164, #165), (#166, #167), (#168, #169), (#170, #171), (#172, #173), (#174, #175)), .UNSPECIFIED., .T., .F., .U.)
   B_SPLINE_SURFACE_WITH_KNOTS ((3, 2, 2, 2, 3), (2, 2), (0., 1.5707963267949, 3.14159265358979, 4.71238898038469, 6.28318530717959), (0., 0.329896907216495), .UNSPECIFIED.)
   GEOMETRIC_REPRESENTATION_ITEM ()
   RATIONAL_B_SPLINE_SURFACE (((1., 1.), (0.707106781186548, 0.707106781186548), (1., 1.), (0.707106781186548, 0.707106781186548), (1., 1.), (0.707106781186548, 0.707106781186548), (1., 1.), (0.707106781186548, 0.707106781186548), (1., 1.)))
   REPRESENTATION_ITEM ('')
   SURFACE ()
);
#158 = CARTESIAN_POINT('', (-1., 2.95752201994086E-15, -47.3));
#159 = CARTESIAN_POINT('', (-1., 3.096299898019E-15, -50.5));
#160 = CARTESIAN_POINT('', (-0.999999999999999, 1., -47.3));
#161 = CARTESIAN_POINT('', (-0.999999999999999, 1., -50.5));
#162 = CARTESIAN_POINT('', (3.74653915737142E-17, 1., -47.3));
#163 = CARTESIAN_POINT('', (3.74653915737142E-17, 1., -50.5));
#164 = CARTESIAN_POINT('', (0.999999999999999, 1., -47.3));
#165 = CARTESIAN_POINT('', (0.999999999999999, 1., -50.5));
#166 = CARTESIAN_POINT('', (0.999999999999999, 2.60503548063714E-15, -47.3));
#167 = CARTESIAN_POINT('', (0.999999999999999, 2.74381335871529E-15, -50.5));
#168 = CARTESIAN_POINT('', (0.999999999999999, -0.999999999999997, -47.3));
#169 = CARTESIAN_POINT('', (0.999999999999999, -0.999999999999997, -50.5));
#170 = CARTESIAN_POINT('', (-1.92556467815268E-16, -0.999999999999997, -47.3));
#171 = CARTESIAN_POINT('', (-1.92556467815268E-16, -0.999999999999997, -50.5));
#172 = CARTESIAN_POINT('', (-1., -0.999999999999997, -47.3));
#173 = CARTESIAN_POINT('', (-1., -0.999999999999996, -50.5));
#174 = CARTESIAN_POINT('', (-1., 2.95752201994086E-15, -47.3));
#175 = CARTESIAN_POINT('', (-1., 3.096299898019E-15, -50.5));
#176 = ADVANCED_FACE('', (#177), #180, .T.);
#177 = FACE_OUTER_BOUND('', #178, .T.);
#178 = EDGE_LOOP('', (#179));
#179 = ORIENTED_EDGE('', *, *, #141, .T.);
#180 = B_SPLINE_SURFACE_WITH_KNOTS('', 1, 1, ((#181, #182), (#183, #184)), .UNSPECIFIED., .F., .F., .U., (2, 2), (2, 2), (0.511416221700616, 0.528768860468326), (0.471231139531674, 0.488583778299384), .UNSPECIFIED.);
#181 = CARTESIAN_POINT('', (-1., 1.00000000000002, -50.5));
#182 = CARTESIAN_POINT('', (-1., -0.999999999999986, -50.5));
#183 = CARTESIAN_POINT('', (1., 1.00000000000002, -50.5));
#184 = CARTESIAN_POINT('', (1., -0.999999999999986, -50.5));
#185 = DRAUGHTING_MODEL('', (#193, #268, #307, #312, #317, #322, #327), #341);
#186 = PRESENTATION_STYLE_ASSIGNMENT((#187));
#187 = SURFACE_STYLE_USAGE(.POSITIVE., #188);
#188 = SURFACE_SIDE_STYLE('', (#189));
#189 = SURFACE_STYLE_FILL_AREA(#190);
#190 = FILL_AREA_STYLE('', (#191));
#191 = FILL_AREA_STYLE_COLOUR('', #192);
#192 = COLOUR_RGB('', 0.50196078431373, 0.50196078431373, 0.50196078431373);
#193 = STYLED_ITEM('', (#186), #1);
#194 = MANIFOLD_SOLID_BREP('CUT', #195);
#195 = CLOSED_SHELL('', (#196, #213, #252));
#196 = ADVANCED_FACE('', (#197), #208, .T.);
#197 = FACE_OUTER_BOUND('', #198, .T.);
#198 = EDGE_LOOP('', (#199));
#199 = ORIENTED_EDGE('', *, *, #200, .F.);
#200 = EDGE_CURVE('', #201, #201, #203, .T.);
#201 = VERTEX_POINT('', #202);
#202 = CARTESIAN_POINT('', (-1., 3.15346550780443E-15, -50.5));
#203 = CIRCLE('', #204, 1.);
#204 = AXIS2_PLACEMENT_3D('', #205, #206, #207);
#205 = CARTESIAN_POINT('', (7.83748066446321E-15, 3.52495810318487E-15, -50.5));
#206 = DIRECTION('', (0., 0., -1.));
#207 = DIRECTION('', (-1., -3.71492595380431E-16, 0.));
#208 = B_SPLINE_SURFACE_WITH_KNOTS('', 1, 1, ((#209, #210), (#211, #212)), .UNSPECIFIED., .F., .F., .U., (2, 2), (2, 2), (0.471231139531674, 0.488583778299384), (0.511416221700616, 0.528768860468326), .UNSPECIFIED.);
#209 = CARTESIAN_POINT('', (-0.999999999999986, 1., -50.5));
#210 = CARTESIAN_POINT('', (1.00000000000001, 1., -50.5));
#211 = CARTESIAN_POINT('', (-0.999999999999986, -1., -50.5));
#212 = CARTESIAN_POINT('', (1.00000000000001, -1., -50.5));
#213 = ADVANCED_FACE('', (#214), #233, .T.);
#214 = FACE_OUTER_BOUND('', #215, .T.);
#215 = EDGE_LOOP('', (#216, #217, #225, #232));
#216 = ORIENTED_EDGE('', *, *, #200, .T.);
#217 = ORIENTED_EDGE('', *, *, #218, .T.);
#218 = EDGE_CURVE('', #201, #219, #221, .T.);
#219 = VERTEX_POINT('', #220);
#220 = CARTESIAN_POINT('', (-1., 3.55147571752732E-15, -57.));
#221 = LINE('', #222, #223);
#222 = CARTESIAN_POINT('', (-1., 3.15346550780443E-15, -50.5));
#223 = VECTOR('', #224, 6.5);
#224 = DIRECTION('', (0., 3.9801020972289E-16, -6.5));
#225 = ORIENTED_EDGE('', *, *, #226, .F.);
#226 = EDGE_CURVE('', #219, #219, #227, .T.);
#227 = CIRCLE('', #228, 0.999999999999999);
#228 = AXIS2_PLACEMENT_3D('', #229, #230, #231);
#229 = CARTESIAN_POINT('', (-1.04083408558608E-16, 2.91433543964104E-15, -57.));
#230 = DIRECTION('', (1.54083390769735E-29, 2.41835897238999E-14, -1.));
#231 = DIRECTION('', (-1., 6.37140277886284E-16, 0.));
#232 = ORIENTED_EDGE('', *, *, #218, .F.);
#233 = (
   BOUNDED_SURFACE ()
   B_SPLINE_SURFACE (2, 1, ((#234, #235), (#236, #237), (#238, #239), (#240, #241), (#242, #243), (#244, #245), (#246, #247), (#248, #249), (#250, #251)), .UNSPECIFIED., .T., .F., .U.)
   B_SPLINE_SURFACE_WITH_KNOTS ((3, 2, 2, 2, 3), (2, 2), (0., 1.5707963267949, 3.14159265358979, 4.71238898038469, 6.28318530717959), (0.329896907216495, 1.), .UNSPECIFIED.)
   GEOMETRIC_REPRESENTATION_ITEM ()
   RATIONAL_B_SPLINE_SURFACE (((1., 1.), (0.707106781186548, 0.707106781186548), (1., 1.), (0.707106781186548, 0.707106781186548), (1., 1.), (0.707106781186548, 0.707106781186548), (1., 1.), (0.707106781186548, 0.707106781186548), (1., 1.)))
   REPRESENTATION_ITEM ('')
   SURFACE ()
);
#234 = CARTESIAN_POINT('', (-1., 3.15346550780443E-15, -50.5));
#235 = CARTESIAN_POINT('', (-1., 3.20897665903569E-15, -57.));
#236 = CARTESIAN_POINT('', (-0.999999999999999, 1., -50.5));
#237 = CARTESIAN_POINT('', (-0.999999999999999, 1., -57.));
#238 = CARTESIAN_POINT('', (8.76921074552326E-17, 1., -50.5));
#239 = CARTESIAN_POINT('', (8.76921074552326E-17, 1., -57.));
#240 = CARTESIAN_POINT('', (1., 1., -50.5));
#241 = CARTESIAN_POINT('', (1., 1., -57.));
#242 = CARTESIAN_POINT('', (0.999999999999999, 2.68664774892986E-15, -50.5));
#243 = CARTESIAN_POINT('', (0.999999999999999, 2.74215890016112E-15, -57.));
#244 = CARTESIAN_POINT('', (0.999999999999999, -0.999999999999997, -50.5));
#245 = CARTESIAN_POINT('', (0.999999999999999, -0.999999999999997, -57.));
#246 = CARTESIAN_POINT('', (-2.56660971504601E-16, -0.999999999999997, -50.5));
#247 = CARTESIAN_POINT('', (-2.56660971504601E-16, -0.999999999999997, -57.));
#248 = CARTESIAN_POINT('', (-1., -0.999999999999996, -50.5));
#249 = CARTESIAN_POINT('', (-1., -0.999999999999996, -57.));
#250 = CARTESIAN_POINT('', (-1., 3.15346550780443E-15, -50.5));
#251 = CARTESIAN_POINT('', (-1., 3.20897665903569E-15, -57.));
#252 = ADVANCED_FACE('', (#253), #256, .T.);
#253 = FACE_OUTER_BOUND('', #254, .T.);
#254 = EDGE_LOOP('', (#255));
#255 = ORIENTED_EDGE('', *, *, #226, .T.);
#256 = B_SPLINE_SURFACE_WITH_KNOTS('', 1, 1, ((#257, #258), (#259, #260)), .UNSPECIFIED., .F., .F., .U., (2, 2), (2, 2), (0.0454545454545455, 0.954545454545454), (0.0454545454545454, 0.954545454545454), .UNSPECIFIED.);
#257 = CARTESIAN_POINT('', (1., -0.999999999999997, -57.));
#258 = CARTESIAN_POINT('', (1., 1., -57.));
#259 = CARTESIAN_POINT('', (-1., -0.999999999999997, -57.));
#260 = CARTESIAN_POINT('', (-1., 1., -57.));
#261 = PRESENTATION_STYLE_ASSIGNMENT((#262));
#262 = SURFACE_STYLE_USAGE(.POSITIVE., #263);
#263 = SURFACE_SIDE_STYLE('', (#264));
#264 = SURFACE_STYLE_FILL_AREA(#265);
#265 = FILL_AREA_STYLE('', (#266));
#266 = FILL_AREA_STYLE_COLOUR('', #267);
#267 = COLOUR_RGB('', 0.8, 0.8, 0.8);
#268 = STYLED_ITEM('', (#261), #194);
#269 = TRIMMED_CURVE('cutting part line', #270, (#274), (#275), .T., .CARTESIAN.);
#270 = LINE('', #271, #272);
#271 = CARTESIAN_POINT('', (-3.12250225675825E-17, 0., -57.));
#272 = VECTOR('', #273, 1.);
#273 = DIRECTION('', (1., 0., 0.));
#274 = CARTESIAN_POINT('', (-3.12250225675825E-17, 0., -57.));
#275 = CARTESIAN_POINT('', (1., 0., -57.));
#276 = TRIMMED_CURVE('cutting part line', #277, (#281), (#282), .T., .CARTESIAN.);
#277 = LINE('', #278, #279);
#278 = CARTESIAN_POINT('', (0.999999999999999, 5.5502696614051E-17, -57.));
#279 = VECTOR('', #280, 6.5);
#280 = DIRECTION('', (0., -5.5502696614051E-17, 6.5));
#281 = CARTESIAN_POINT('', (0.999999999999999, 5.5502696614051E-17, -57.));
#282 = CARTESIAN_POINT('', (0.999999999999999, 0., -50.5));
#283 = TRIMMED_CURVE('cutting part line', #284, (#288), (#289), .T., .CARTESIAN.);
#284 = LINE('', #285, #286);
#285 = CARTESIAN_POINT('', (1.00000000000001, 0., -50.5));
#286 = VECTOR('', #287, 1.00000000000001);
#287 = DIRECTION('', (-1.00000000000001, 0., -7.105427357601E-15));
#288 = CARTESIAN_POINT('', (1.00000000000001, 0., -50.5));
#289 = CARTESIAN_POINT('', (-3.46944695195361E-18, 0., -50.5));
#290 = TRIMMED_CURVE('cutting part line', #291, (#295), (#296), .T., .CARTESIAN.);
#291 = LINE('', #292, #293);
#292 = CARTESIAN_POINT('', (0., 0., -50.5));
#293 = VECTOR('', #294, 6.5);
#294 = DIRECTION('', (0., 0., -6.5));
#295 = CARTESIAN_POINT('', (0., 0., -50.5));
#296 = CARTESIAN_POINT('', (0., 0., -57.));
#297 = COMPOSITE_CURVE('cutting part line', (#298, #299, #300, #301), .U.);
#298 = COMPOSITE_CURVE_SEGMENT(.CONTINUOUS., .T., #269);
#299 = COMPOSITE_CURVE_SEGMENT(.CONTINUOUS., .T., #276);
#300 = COMPOSITE_CURVE_SEGMENT(.CONTINUOUS., .T., #283);
#301 = COMPOSITE_CURVE_SEGMENT(.CONTINUOUS., .T., #290);
#302 = GEOMETRIC_SET('', (#297, #340));
#303 = PRESENTATION_STYLE_ASSIGNMENT((#304));
#304 = CURVE_STYLE('', #306, POSITIVE_LENGTH_MEASURE(1.E-6), #305);
#305 = COLOUR_RGB('', 0., 0., 1.);
#306 = DRAUGHTING_PRE_DEFINED_CURVE_FONT('continuous');
#307 = STYLED_ITEM('', (#303), #297);
#308 = PRESENTATION_STYLE_ASSIGNMENT((#309));
#309 = CURVE_STYLE('', #311, POSITIVE_LENGTH_MEASURE(1.E-6), #310);
#310 = COLOUR_RGB('', 0., 0., 1.);
#311 = DRAUGHTING_PRE_DEFINED_CURVE_FONT('continuous');
#312 = OVER_RIDING_STYLED_ITEM('', (#308), #269, #307);
#313 = PRESENTATION_STYLE_ASSIGNMENT((#314));
#314 = CURVE_STYLE('', #316, POSITIVE_LENGTH_MEASURE(1.E-6), #315);
#315 = COLOUR_RGB('', 0., 0., 1.);
#316 = DRAUGHTING_PRE_DEFINED_CURVE_FONT('continuous');
#317 = OVER_RIDING_STYLED_ITEM('', (#313), #276, #307);
#318 = PRESENTATION_STYLE_ASSIGNMENT((#319));
#319 = CURVE_STYLE('', #321, POSITIVE_LENGTH_MEASURE(1.E-6), #320);
#320 = COLOUR_RGB('', 0., 0., 1.);
#321 = DRAUGHTING_PRE_DEFINED_CURVE_FONT('continuous');
#322 = OVER_RIDING_STYLED_ITEM('', (#318), #283, #307);
#323 = PRESENTATION_STYLE_ASSIGNMENT((#324));
#324 = CURVE_STYLE('', #326, POSITIVE_LENGTH_MEASURE(1.E-6), #325);
#325 = COLOUR_RGB('', 0., 0., 1.);
#326 = DRAUGHTING_PRE_DEFINED_CURVE_FONT('continuous');
#327 = OVER_RIDING_STYLED_ITEM('', (#323), #290, #307);
#328 = AXIS2_PLACEMENT_3D('MCS', #329, #330, #331);
#329 = CARTESIAN_POINT('', (0., 0., -36.));
#330 = DIRECTION('', (0., 0., 1.));
#331 = DIRECTION('', (1., 0., 0.));
#332 = AXIS2_PLACEMENT_3D('PCS', #333, #334, #335);
#333 = CARTESIAN_POINT('', (0., 0., 0.));
#334 = DIRECTION('', (0., 0., 1.));
#335 = DIRECTION('', (1., 0., 0.));
#336 = AXIS2_PLACEMENT_3D('CIP', #337, #338, #339);
#337 = CARTESIAN_POINT('', (0., 0., -57.));
#338 = DIRECTION('', (0., 0., 1.));
#339 = DIRECTION('', (1., 0., 0.));
#340 = CARTESIAN_POINT('CRP', (1.00000000000001, 0., -57.));
#341 = (
   GEOMETRIC_REPRESENTATION_CONTEXT (3)
   GLOBAL_UNCERTAINTY_ASSIGNED_CONTEXT ((#343))
   GLOBAL_UNIT_ASSIGNED_CONTEXT ((#342, #344, #345))
   REPRESENTATION_CONTEXT ('', '3D')
);
#342 = (
   LENGTH_UNIT ()
   NAMED_UNIT (*)
   SI_UNIT (.MILLI., .METRE.)
);
#343 = UNCERTAINTY_MEASURE_WITH_UNIT(LENGTH_MEASURE(1.E-6), #342, 'DISTANCE_ACCURACY_VALUE', '');
#344 = (
   NAMED_UNIT (*)
   SI_UNIT ($, .STERADIAN.)
   SOLID_ANGLE_UNIT ()
);
#345 = (
   NAMED_UNIT (*)
   PLANE_ANGLE_UNIT ()
   SI_UNIT ($, .RADIAN.)
);
#346 = SHAPE_REPRESENTATION('', (), #341);
#347 = PRODUCT_DEFINITION_SHAPE('', '', #348);
#348 = PRODUCT_DEFINITION('', '', #351, #355);
#349 = APPLICATION_CONTEXT('configuration controlled 3D designs of mechanical parts and assemblies');
#350 = APPLICATION_PROTOCOL_DEFINITION('International Standard', 'automotive_design', 2002, #349);
#351 = PRODUCT_DEFINITION_FORMATION_WITH_SPECIFIED_SOURCE('', '', #352, .NOT_KNOWN.);
#352 = PRODUCT('product-name', '1P230-0200-XA       1630', '', (#353));
#353 = PRODUCT_CONTEXT('', #349, 'mechanical');
#354 = PRODUCT_RELATED_PRODUCT_CATEGORY('detail', '', (#352));
#355 = PRODUCT_DEFINITION_CONTEXT('part definition', #349, 'design');
#356 = SHAPE_DEFINITION_REPRESENTATION(#347, #346);
#357 = CONSTRUCTIVE_GEOMETRY_REPRESENTATION('supplemental geometry', (#328, #332, #336), #341);
#358 = CONSTRUCTIVE_GEOMETRY_REPRESENTATION_RELATIONSHIP('', '', #346, #357);
#359 = SHAPE_REPRESENTATION_RELATIONSHIP('', '', #346, #360);
#360 = SHAPE_REPRESENTATION('', (#302), #341);
#361 = SHAPE_REPRESENTATION_RELATIONSHIP('', '', #346, #362);
#362 = ADVANCED_BREP_SHAPE_REPRESENTATION('', (#1, #194), #341);
ENDSEC;
END-ISO-10303-21;
