ISO-10303-21;
HEADER;
/* Generated by software containing ST-Developer
 * from STEP Tools, Inc. (www.steptools.com) 
 */
/* OPTION: using custom schema-name function */

FILE_DESCRIPTION(
/* description */ (''),
/* implementation_level */ '2;1');

FILE_NAME(
/* name */ '1598518368774.stp',
/* time_stamp */ '2020-08-27T10:52:57+02:00',
/* author */ (''),
/* organization */ ('SMS'),
/* preprocessor_version */ 'ST-DEVELOPER v16.7',
/* originating_system */ 'SIEMENS PLM Software NX 12.0',
/* authorisation */ '');

FILE_SCHEMA (('AUTOMOTIVE_DESIGN { 1 0 10303 214 3 1 1 1 }'));
ENDSEC;

DATA;
#10=CONSTRUCTIVE_GEOMETRY_REPRESENTATION_RELATIONSHIP(
'supplemental geometry','',#26,#11);
#11=CONSTRUCTIVE_GEOMETRY_REPRESENTATION('supplemental geometry',(#155,
#156,#157),#250);
#12=GEOMETRICALLY_BOUNDED_WIREFRAME_SHAPE_REPRESENTATION(
'203133582mod000_00-None',(#27),#250);
#13=SHAPE_REPRESENTATION_RELATIONSHIP('None',
'relationship between 203133582mod000_00-None and 203133582mod000_00-N
one',#26,#15);
#14=SHAPE_REPRESENTATION_RELATIONSHIP('None',
'relationship between 203133582mod000_00-None and 203133582mod000_00-N
one',#26,#12);
#15=ADVANCED_BREP_SHAPE_REPRESENTATION('203133582mod000_00-None',(#38,#39),
#250);
#16=SHAPE_DEFINITION_REPRESENTATION(#17,#26);
#17=PRODUCT_DEFINITION_SHAPE('','',#18);
#18=PRODUCT_DEFINITION(' ','',#20,#19);
#19=PRODUCT_DEFINITION_CONTEXT('part definition',#25,'design');
#20=PRODUCT_DEFINITION_FORMATION_WITH_SPECIFIED_SOURCE(' ',' ',#22,
 .NOT_KNOWN.);
#21=PRODUCT_RELATED_PRODUCT_CATEGORY('part','',(#22));
#22=PRODUCT('203133582mod000_00','203133582mod000_00',' ',(#23));
#23=PRODUCT_CONTEXT(' ',#25,'mechanical');
#24=APPLICATION_PROTOCOL_DEFINITION('international standard',
'automotive_design',2010,#25);
#25=APPLICATION_CONTEXT(
'core data for automotive mechanical design processes');
#26=SHAPE_REPRESENTATION('203133582mod000_00-None',(#154),#250);
#27=GEOMETRIC_CURVE_SET('None',(#209,#210,#211,#212,#120));
#28=SURFACE_STYLE_USAGE(.BOTH.,#30);
#29=SURFACE_STYLE_USAGE(.BOTH.,#31);
#30=SURFACE_SIDE_STYLE('',(#32));
#31=SURFACE_SIDE_STYLE('',(#33));
#32=SURFACE_STYLE_FILL_AREA(#34);
#33=SURFACE_STYLE_FILL_AREA(#35);
#34=FILL_AREA_STYLE('',(#36));
#35=FILL_AREA_STYLE('',(#37));
#36=FILL_AREA_STYLE_COLOUR('',#152);
#37=FILL_AREA_STYLE_COLOUR('',#153);
#38=MANIFOLD_SOLID_BREP('NOCUT',#40);
#39=MANIFOLD_SOLID_BREP('CUT',#41);
#40=CLOSED_SHELL('',(#54,#55,#56,#57));
#41=CLOSED_SHELL('',(#58,#59,#60,#61));
#42=CONICAL_SURFACE('',#164,6.5,45.);
#43=CONICAL_SURFACE('',#171,7.,44.9999999999991);
#44=CYLINDRICAL_SURFACE('',#161,7.);
#45=CYLINDRICAL_SURFACE('',#170,7.);
#46=FACE_BOUND('',#71,.T.);
#47=FACE_BOUND('',#72,.T.);
#48=FACE_BOUND('',#74,.T.);
#49=FACE_BOUND('',#75,.T.);
#50=FACE_BOUND('',#78,.T.);
#51=FACE_BOUND('',#79,.T.);
#52=FACE_BOUND('',#80,.T.);
#53=FACE_BOUND('',#81,.T.);
#54=ADVANCED_FACE('',(#66),#62,.F.);
#55=ADVANCED_FACE('',(#46,#47),#44,.T.);
#56=ADVANCED_FACE('',(#67),#63,.T.);
#57=ADVANCED_FACE('',(#48,#49),#42,.T.);
#58=ADVANCED_FACE('',(#68),#64,.T.);
#59=ADVANCED_FACE('',(#69),#65,.T.);
#60=ADVANCED_FACE('',(#50,#51),#45,.T.);
#61=ADVANCED_FACE('',(#52,#53),#43,.T.);
#62=PLANE('',#159);
#63=PLANE('',#163);
#64=PLANE('',#166);
#65=PLANE('',#168);
#66=FACE_OUTER_BOUND('',#70,.T.);
#67=FACE_OUTER_BOUND('',#73,.T.);
#68=FACE_OUTER_BOUND('',#76,.T.);
#69=FACE_OUTER_BOUND('',#77,.T.);
#70=EDGE_LOOP('',(#82));
#71=EDGE_LOOP('',(#83));
#72=EDGE_LOOP('',(#84));
#73=EDGE_LOOP('',(#85));
#74=EDGE_LOOP('',(#86));
#75=EDGE_LOOP('',(#87));
#76=EDGE_LOOP('',(#88));
#77=EDGE_LOOP('',(#89));
#78=EDGE_LOOP('',(#90));
#79=EDGE_LOOP('',(#91));
#80=EDGE_LOOP('',(#92));
#81=EDGE_LOOP('',(#93));
#82=ORIENTED_EDGE('',*,*,#100,.T.);
#83=ORIENTED_EDGE('',*,*,#101,.T.);
#84=ORIENTED_EDGE('',*,*,#100,.F.);
#85=ORIENTED_EDGE('',*,*,#102,.T.);
#86=ORIENTED_EDGE('',*,*,#101,.F.);
#87=ORIENTED_EDGE('',*,*,#102,.F.);
#88=ORIENTED_EDGE('',*,*,#103,.T.);
#89=ORIENTED_EDGE('',*,*,#104,.T.);
#90=ORIENTED_EDGE('',*,*,#105,.T.);
#91=ORIENTED_EDGE('',*,*,#104,.F.);
#92=ORIENTED_EDGE('',*,*,#103,.F.);
#93=ORIENTED_EDGE('',*,*,#105,.F.);
#94=VERTEX_POINT('',#230);
#95=VERTEX_POINT('',#233);
#96=VERTEX_POINT('',#236);
#97=VERTEX_POINT('',#240);
#98=VERTEX_POINT('',#243);
#99=VERTEX_POINT('',#246);
#100=EDGE_CURVE('',#94,#94,#106,.T.);
#101=EDGE_CURVE('',#95,#95,#107,.T.);
#102=EDGE_CURVE('',#96,#96,#108,.T.);
#103=EDGE_CURVE('',#97,#97,#109,.T.);
#104=EDGE_CURVE('',#98,#98,#110,.T.);
#105=EDGE_CURVE('',#99,#99,#111,.T.);
#106=CIRCLE('',#158,7.);
#107=CIRCLE('',#160,7.);
#108=CIRCLE('',#162,6.5);
#109=CIRCLE('',#165,6.8);
#110=CIRCLE('',#167,7.);
#111=CIRCLE('',#169,7.);
#112=CURVE_STYLE('',#116,POSITIVE_LENGTH_MEASURE(0.18),#121);
#113=CURVE_STYLE('',#117,POSITIVE_LENGTH_MEASURE(0.18),#151);
#114=CURVE_STYLE('',#118,POSITIVE_LENGTH_MEASURE(0.18),#151);
#115=CURVE_STYLE('',#119,POSITIVE_LENGTH_MEASURE(0.18),#151);
#116=DRAUGHTING_PRE_DEFINED_CURVE_FONT('continuous');
#117=DRAUGHTING_PRE_DEFINED_CURVE_FONT('continuous');
#118=DRAUGHTING_PRE_DEFINED_CURVE_FONT('continuous');
#119=DRAUGHTING_PRE_DEFINED_CURVE_FONT('continuous');
#120=B_SPLINE_CURVE_WITH_KNOTS('CUTTING PART LINE',3,(#213,#214,#215,#216,
#217,#218,#219,#220,#221,#222,#223,#224,#225),.UNSPECIFIED.,.F.,.F.,(4,
3,3,3,4),(0.,0.186901283492062,0.194675352017641,0.80760161993739,1.),
 .UNSPECIFIED.);
#121=DRAUGHTING_PRE_DEFINED_COLOUR('blue');
#122=PRESENTATION_LAYER_ASSIGNMENT('1','Layer 1',(#209,#210,#211,#212,#120,
#155,#156,#157,#38,#39));
#123=STYLED_ITEM('',(#133),#209);
#124=STYLED_ITEM('',(#134),#210);
#125=STYLED_ITEM('',(#135),#211);
#126=STYLED_ITEM('',(#136),#212);
#127=STYLED_ITEM('',(#137),#120);
#128=STYLED_ITEM('',(#138),#155);
#129=STYLED_ITEM('',(#139),#156);
#130=STYLED_ITEM('',(#140),#157);
#131=STYLED_ITEM('',(#141),#38);
#132=STYLED_ITEM('',(#142),#39);
#133=PRESENTATION_STYLE_ASSIGNMENT((#143));
#134=PRESENTATION_STYLE_ASSIGNMENT((#144));
#135=PRESENTATION_STYLE_ASSIGNMENT((#145));
#136=PRESENTATION_STYLE_ASSIGNMENT((#146));
#137=PRESENTATION_STYLE_ASSIGNMENT((#112));
#138=PRESENTATION_STYLE_ASSIGNMENT((#113));
#139=PRESENTATION_STYLE_ASSIGNMENT((#114));
#140=PRESENTATION_STYLE_ASSIGNMENT((#115));
#141=PRESENTATION_STYLE_ASSIGNMENT((#28));
#142=PRESENTATION_STYLE_ASSIGNMENT((#29));
#143=POINT_STYLE('',#147,POSITIVE_LENGTH_MEASURE(3.),#151);
#144=POINT_STYLE('',#148,POSITIVE_LENGTH_MEASURE(3.),#151);
#145=POINT_STYLE('',#149,POSITIVE_LENGTH_MEASURE(3.),#151);
#146=POINT_STYLE('',#150,POSITIVE_LENGTH_MEASURE(3.),#121);
#147=PRE_DEFINED_POINT_MARKER_SYMBOL('plus');
#148=PRE_DEFINED_POINT_MARKER_SYMBOL('plus');
#149=PRE_DEFINED_POINT_MARKER_SYMBOL('plus');
#150=PRE_DEFINED_POINT_MARKER_SYMBOL('plus');
#151=COLOUR_RGB('Strong Stone',0.576470588235294,0.54508278019379,0.392156862745098);
#152=COLOUR_RGB('Medium Gray',0.501960784313725,0.501960784313725,0.501960784313725);
#153=COLOUR_RGB('Light Gray',0.8,0.8,0.8);
#154=AXIS2_PLACEMENT_3D('',#208,#172,#173);
#155=AXIS2_PLACEMENT_3D('PCS',#226,#174,#175);
#156=AXIS2_PLACEMENT_3D('CIP',#227,#176,#177);
#157=AXIS2_PLACEMENT_3D('MCS',#228,#178,#179);
#158=AXIS2_PLACEMENT_3D('',#229,#180,#181);
#159=AXIS2_PLACEMENT_3D('',#231,#182,#183);
#160=AXIS2_PLACEMENT_3D('',#232,#184,#185);
#161=AXIS2_PLACEMENT_3D('',#234,#186,#187);
#162=AXIS2_PLACEMENT_3D('',#235,#188,#189);
#163=AXIS2_PLACEMENT_3D('',#237,#190,#191);
#164=AXIS2_PLACEMENT_3D('',#238,#192,#193);
#165=AXIS2_PLACEMENT_3D('',#239,#194,#195);
#166=AXIS2_PLACEMENT_3D('',#241,#196,#197);
#167=AXIS2_PLACEMENT_3D('',#242,#198,#199);
#168=AXIS2_PLACEMENT_3D('',#244,#200,#201);
#169=AXIS2_PLACEMENT_3D('',#245,#202,#203);
#170=AXIS2_PLACEMENT_3D('',#247,#204,#205);
#171=AXIS2_PLACEMENT_3D('',#248,#206,#207);
#172=DIRECTION('',(0.,0.,1.));
#173=DIRECTION('',(1.,0.,0.));
#174=DIRECTION('',(0.,0.,1.));
#175=DIRECTION('',(1.,0.,0.));
#176=DIRECTION('',(0.,0.,1.));
#177=DIRECTION('',(1.,0.,0.));
#178=DIRECTION('',(0.,0.,1.));
#179=DIRECTION('',(1.,0.,0.));
#180=DIRECTION('',(0.,0.,-1.));
#181=DIRECTION('',(1.,0.,0.));
#182=DIRECTION('',(0.,0.,1.));
#183=DIRECTION('',(1.,0.,0.));
#184=DIRECTION('',(0.,0.,-1.));
#185=DIRECTION('',(1.,0.,0.));
#186=DIRECTION('',(0.,0.,1.));
#187=DIRECTION('',(1.,0.,0.));
#188=DIRECTION('',(0.,0.,1.));
#189=DIRECTION('',(1.,0.,0.));
#190=DIRECTION('',(0.,0.,1.));
#191=DIRECTION('',(1.,0.,0.));
#192=DIRECTION('',(0.,0.,-1.));
#193=DIRECTION('',(-1.,0.,0.));
#194=DIRECTION('',(0.,0.,-1.));
#195=DIRECTION('',(-1.,0.,0.));
#196=DIRECTION('',(0.,0.,-1.));
#197=DIRECTION('',(-1.,0.,0.));
#198=DIRECTION('',(0.,0.,1.));
#199=DIRECTION('',(-1.,1.22464679914735E-16,0.));
#200=DIRECTION('',(0.,0.,1.));
#201=DIRECTION('',(1.,0.,0.));
#202=DIRECTION('',(0.,0.,1.));
#203=DIRECTION('',(-1.,0.,0.));
#204=DIRECTION('',(0.,0.,1.));
#205=DIRECTION('',(1.,0.,0.));
#206=DIRECTION('',(0.,0.,1.));
#207=DIRECTION('',(1.,0.,1.37813185777705E-17));
#208=CARTESIAN_POINT('',(0.,0.,0.));
#209=CARTESIAN_POINT('PCS',(0.,0.,0.));
#210=CARTESIAN_POINT('CIP',(0.,0.,-83.));
#211=CARTESIAN_POINT('MCS',(0.,0.,-45.));
#212=CARTESIAN_POINT('CRP',(7.,0.,-83.));
#213=CARTESIAN_POINT('',(0.,0.,-83.));
#214=CARTESIAN_POINT('',(2.26666666666667,0.,-83.));
#215=CARTESIAN_POINT('',(4.53333333333333,0.,-83.));
#216=CARTESIAN_POINT('',(6.8,0.,-83.));
#217=CARTESIAN_POINT('',(6.86666666666667,0.,-82.9333333333333));
#218=CARTESIAN_POINT('',(6.93333333333333,0.,-82.8666666666667));
#219=CARTESIAN_POINT('',(7.,0.,-82.8));
#220=CARTESIAN_POINT('',(7.,0.,-75.3666666666667));
#221=CARTESIAN_POINT('',(7.,0.,-67.9333333333333));
#222=CARTESIAN_POINT('',(7.,0.,-60.5));
#223=CARTESIAN_POINT('',(4.66666666666666,0.,-60.5));
#224=CARTESIAN_POINT('',(2.33333333333333,0.,-60.5));
#225=CARTESIAN_POINT('',(0.,0.,-60.5));
#226=CARTESIAN_POINT('',(0.,0.,0.));
#227=CARTESIAN_POINT('',(0.,0.,-83.));
#228=CARTESIAN_POINT('',(0.,0.,-45.));
#229=CARTESIAN_POINT('',(0.,0.,-60.5));
#230=CARTESIAN_POINT('',(7.,0.,-60.5));
#231=CARTESIAN_POINT('',(0.,0.,-60.5));
#232=CARTESIAN_POINT('',(0.,0.,-0.5));
#233=CARTESIAN_POINT('',(7.,0.,-0.5));
#234=CARTESIAN_POINT('',(0.,0.,-66.55));
#235=CARTESIAN_POINT('',(0.,0.,0.));
#236=CARTESIAN_POINT('',(6.5,0.,0.));
#237=CARTESIAN_POINT('',(0.,0.,0.));
#238=CARTESIAN_POINT('',(0.,0.,0.));
#239=CARTESIAN_POINT('',(0.,0.,-83.));
#240=CARTESIAN_POINT('',(-6.8,0.,-83.));
#241=CARTESIAN_POINT('',(0.,0.,-83.));
#242=CARTESIAN_POINT('',(0.,0.,-60.5));
#243=CARTESIAN_POINT('',(-7.,8.57252759403147E-16,-60.5));
#244=CARTESIAN_POINT('',(0.,0.,-60.5));
#245=CARTESIAN_POINT('',(0.,0.,-82.8));
#246=CARTESIAN_POINT('',(-7.,0.,-82.8));
#247=CARTESIAN_POINT('',(0.,0.,-85.25));
#248=CARTESIAN_POINT('',(0.,0.,-82.8));
#249=MECHANICAL_DESIGN_GEOMETRIC_PRESENTATION_REPRESENTATION('',(#123,#124,
#125,#126,#127,#128,#129,#130,#131,#132),#250);
#250=(
GEOMETRIC_REPRESENTATION_CONTEXT(3)
GLOBAL_UNCERTAINTY_ASSIGNED_CONTEXT((#251))
GLOBAL_UNIT_ASSIGNED_CONTEXT((#257,#253,#252))
REPRESENTATION_CONTEXT('1598518368774','TOP_LEVEL_ASSEMBLY_PART')
);
#251=UNCERTAINTY_MEASURE_WITH_UNIT(LENGTH_MEASURE(2.E-5),#257,
'DISTANCE_ACCURACY_VALUE','Maximum Tolerance applied to model');
#252=(
NAMED_UNIT(*)
SI_UNIT($,.STERADIAN.)
SOLID_ANGLE_UNIT()
);
#253=(
CONVERSION_BASED_UNIT('DEGREE',#255)
NAMED_UNIT(#254)
PLANE_ANGLE_UNIT()
);
#254=DIMENSIONAL_EXPONENTS(0.,0.,0.,0.,0.,0.,0.);
#255=PLANE_ANGLE_MEASURE_WITH_UNIT(PLANE_ANGLE_MEASURE(0.0174532925),#256);
#256=(
NAMED_UNIT(*)
PLANE_ANGLE_UNIT()
SI_UNIT($,.RADIAN.)
);
#257=(
LENGTH_UNIT()
NAMED_UNIT(*)
SI_UNIT(.MILLI.,.METRE.)
);
ENDSEC;
END-ISO-10303-21;
