ISO-10303-21;
HEADER;
FILE_DESCRIPTION(('STEP'), '1');
FILE_NAME('C:\\Users\\ds2002\\OneDrive - Sandvik\\HomeShare\\Documents\\Batchrepair\\CorSRT2\\NEW_MILSQ_SLD\\Output\\MOD000000000000000020082239400000.stp', '2019-01-02T12:07:20', (''), (''), 'Express v3.0.0.0', 'Express Tool', 'Unknown');
FILE_SCHEMA(('AUTOMOTIVE_DESIGN'));
ENDSEC;

DATA;
#1 = MANIFOLD_SOLID_BREP('NOCUT', #2);
#2 = CLOSED_SHELL('', (#3, #31, #70, #109, #118, #157));
#3 = ADVANCED_FACE('', (#4, #15), #26, .T.);
#4 = FACE_OUTER_BOUND('', #5, .T.);
#5 = EDGE_LOOP('', (#6));
#6 = ORIENTED_EDGE('', *, *, #7, .T.);
#7 = EDGE_CURVE('', #8, #8, #10, .T.);
#8 = VERTEX_POINT('', #9);
#9 = CARTESIAN_POINT('', (-3., 3.00038465791102E-15, -46.));
#10 = CIRCLE('', #11, 3.);
#11 = AXIS2_PLACEMENT_3D('', #12, #13, #14);
#12 = CARTESIAN_POINT('', (4.02455846426619E-16, 1.22124532708767E-15, -46.));
#13 = DIRECTION('', (0., 0., -1.));
#14 = DIRECTION('', (-1., 5.93046443607782E-16, 0.));
#15 = FACE_BOUND('', #16, .T.);
#16 = EDGE_LOOP('', (#17));
#17 = ORIENTED_EDGE('', *, *, #18, .F.);
#18 = EDGE_CURVE('', #19, #19, #21, .T.);
#19 = VERTEX_POINT('', #20);
#20 = CARTESIAN_POINT('', (-2.875, 2.99273061541634E-15, -46.));
#21 = CIRCLE('', #22, 2.875);
#22 = AXIS2_PLACEMENT_3D('', #23, #24, #25);
#23 = CARTESIAN_POINT('', (-2.35922392732846E-16, 4.9960036108132E-16, -46.));
#24 = DIRECTION('', (0., 0., -1.));
#25 = DIRECTION('', (-1., 8.67175740638268E-16, 0.));
#26 = B_SPLINE_SURFACE_WITH_KNOTS('', 1, 1, ((#27, #28), (#29, #30)), .UNSPECIFIED., .F., .F., .U., (2, 2), (2, 2), (0.0454545454545453, 0.954545454545454), (0.0454545454545451, 0.954545454545455), .UNSPECIFIED.);
#27 = CARTESIAN_POINT('', (3., -3., -46.));
#28 = CARTESIAN_POINT('', (3., 3., -46.));
#29 = CARTESIAN_POINT('', (-3., -3., -46.));
#30 = CARTESIAN_POINT('', (-3., 3., -46.));
#31 = ADVANCED_FACE('', (#32), #51, .T.);
#32 = FACE_OUTER_BOUND('', #33, .T.);
#33 = EDGE_LOOP('', (#34, #42, #49, #50));
#34 = ORIENTED_EDGE('', *, *, #35, .T.);
#35 = EDGE_CURVE('', #8, #36, #38, .T.);
#36 = VERTEX_POINT('', #37);
#37 = CARTESIAN_POINT('', (-3., 2.02066721859313E-16, -0.299999999999997));
#38 = LINE('', #39, #40);
#39 = CARTESIAN_POINT('', (-3., 3.00038465791102E-15, -46.));
#40 = VECTOR('', #41, 45.7);
#41 = DIRECTION('', (0., -2.79831793605171E-15, 45.7));
#42 = ORIENTED_EDGE('', *, *, #43, .T.);
#43 = EDGE_CURVE('', #36, #36, #44, .T.);
#44 = CIRCLE('', #45, 3.);
#45 = AXIS2_PLACEMENT_3D('', #46, #47, #48);
#46 = CARTESIAN_POINT('', (1.346145417358E-15, -1.88737914186277E-15, -0.299999999999997));
#47 = DIRECTION('', (-1.85037170770859E-17, 6.01984494166833E-17, -1.));
#48 = DIRECTION('', (-1., 6.96481954574026E-16, 1.85037170770859E-17));
#49 = ORIENTED_EDGE('', *, *, #35, .F.);
#50 = ORIENTED_EDGE('', *, *, #7, .F.);
#51 = (
   BOUNDED_SURFACE ()
   B_SPLINE_SURFACE (1, 2, ((#52, #53, #54, #55, #56, #57, #58, #59, #60), (#61, #62, #63, #64, #65, #66, #67, #68, #69)), .UNSPECIFIED., .F., .T., .U.)
   B_SPLINE_SURFACE_WITH_KNOTS ((2, 2), (3, 2, 2, 2, 3), (0., 1.), (0., 4.7123889803847, 9.4247779607694, 14.1371669411541, 18.8495559215388), .UNSPECIFIED.)
   GEOMETRIC_REPRESENTATION_ITEM ()
   RATIONAL_B_SPLINE_SURFACE (((1., 0.707106781186548, 1., 0.707106781186548, 1., 0.707106781186548, 1., 0.707106781186548, 1.), (1., 0.707106781186548, 1., 0.707106781186548, 1., 0.707106781186548, 1., 0.707106781186548, 1.)))
   REPRESENTATION_ITEM ('')
   SURFACE ()
);
#52 = CARTESIAN_POINT('', (-3., 2.64455737603466E-15, -46.));
#53 = CARTESIAN_POINT('', (-3., 3., -46.));
#54 = CARTESIAN_POINT('', (2.40627439078515E-15, 3., -46.));
#55 = CARTESIAN_POINT('', (3., 3., -46.));
#56 = CARTESIAN_POINT('', (3., -1.16694031166529E-15, -46.));
#57 = CARTESIAN_POINT('', (3., -3., -46.));
#58 = CARTESIAN_POINT('', (-1.03782925717059E-15, -3., -46.));
#59 = CARTESIAN_POINT('', (-3., -3., -46.));
#60 = CARTESIAN_POINT('', (-3., 2.64455737603466E-15, -46.));
#61 = CARTESIAN_POINT('', (-3., 2.02066721859312E-16, -0.299999999999997));
#62 = CARTESIAN_POINT('', (-3., 3., -0.299999999999997));
#63 = CARTESIAN_POINT('', (3.25189426120798E-15, 3., -0.299999999999997));
#64 = CARTESIAN_POINT('', (3., 3., -0.299999999999997));
#65 = CARTESIAN_POINT('', (3., -3.60943096584064E-15, -0.299999999999997));
#66 = CARTESIAN_POINT('', (3., -3., -0.299999999999997));
#67 = CARTESIAN_POINT('', (-1.92209386747767E-16, -3., -0.299999999999997));
#68 = CARTESIAN_POINT('', (-3., -3., -0.299999999999997));
#69 = CARTESIAN_POINT('', (-3., 2.02066721859312E-16, -0.299999999999997));
#70 = ADVANCED_FACE('', (#71), #90, .T.);
#71 = FACE_OUTER_BOUND('', #72, .T.);
#72 = EDGE_LOOP('', (#73, #81, #88, #89));
#73 = ORIENTED_EDGE('', *, *, #74, .T.);
#74 = EDGE_CURVE('', #36, #75, #77, .T.);
#75 = VERTEX_POINT('', #76);
#76 = CARTESIAN_POINT('', (-2.7, 1.65327317884893E-16, 0.));
#77 = LINE('', #78, #79);
#78 = CARTESIAN_POINT('', (-3., 2.02066721859313E-16, -0.299999999999997));
#79 = VECTOR('', #80, 0.424264068711926);
#80 = DIRECTION('', (0.3, -3.673940397442E-17, 0.299999999999997));
#81 = ORIENTED_EDGE('', *, *, #82, .T.);
#82 = EDGE_CURVE('', #75, #75, #83, .T.);
#83 = CIRCLE('', #84, 2.7);
#84 = AXIS2_PLACEMENT_3D('', #85, #86, #87);
#85 = CARTESIAN_POINT('', (9.22872889219661E-16, -1.27675647831893E-15, -8.0118685686509E-32));
#86 = DIRECTION('', (3.03091835913145E-33, 6.12323399573678E-17, -1.));
#87 = DIRECTION('', (-1., 5.34105109705119E-16, 2.96735872912996E-32));
#88 = ORIENTED_EDGE('', *, *, #74, .F.);
#89 = ORIENTED_EDGE('', *, *, #43, .F.);
#90 = (
   BOUNDED_SURFACE ()
   B_SPLINE_SURFACE (1, 2, ((#91, #92, #93, #94, #95, #96, #97, #98, #99), (#100, #101, #102, #103, #104, #105, #106, #107, #108)), .UNSPECIFIED., .F., .T., .U.)
   B_SPLINE_SURFACE_WITH_KNOTS ((2, 2), (3, 2, 2, 2, 3), (0., 1.), (0., 0.25, 0.5, 0.75, 1.), .UNSPECIFIED.)
   GEOMETRIC_REPRESENTATION_ITEM ()
   RATIONAL_B_SPLINE_SURFACE (((1., 0.707106781186548, 1., 0.707106781186548, 1., 0.707106781186548, 1., 0.707106781186548, 1.), (1., 0.707106781186548, 1., 0.707106781186548, 1., 0.707106781186548, 1., 0.707106781186548, 1.)))
   REPRESENTATION_ITEM ('')
   SURFACE ()
);
#91 = CARTESIAN_POINT('', (-3., 1.49129302665284E-15, -0.299999999999997));
#92 = CARTESIAN_POINT('', (-3., 3., -0.299999999999985));
#93 = CARTESIAN_POINT('', (2.34149119846292E-15, 3., -0.299999999999985));
#94 = CARTESIAN_POINT('', (3., 3., -0.299999999999985));
#95 = CARTESIAN_POINT('', (3., -1.34594359183367E-15, -0.299999999999997));
#96 = CARTESIAN_POINT('', (3., -3., -0.300000000000009));
#97 = CARTESIAN_POINT('', (-1.28351380279387E-16, -3., -0.300000000000009));
#98 = CARTESIAN_POINT('', (-3., -3., -0.300000000000009));
#99 = CARTESIAN_POINT('', (-3., 1.49129302665284E-15, -0.299999999999997));
#100 = CARTESIAN_POINT('', (-2.7, 1.65327317884893E-16, -2.18952885050753E-47));
#101 = CARTESIAN_POINT('', (-2.7, 2.7, 1.04916075827078E-14));
#102 = CARTESIAN_POINT('', (2.19962936753859E-15, 2.7, 1.04916075827078E-14));
#103 = CARTESIAN_POINT('', (2.7, 2.7, 1.04916075827078E-14));
#104 = CARTESIAN_POINT('', (2.7, -2.38818563875297E-15, 1.12461399303431E-30));
#105 = CARTESIAN_POINT('', (2.7, -2.7, -1.04916075827078E-14));
#106 = CARTESIAN_POINT('', (-2.32289533294833E-17, -2.7, -1.04916075827078E-14));
#107 = CARTESIAN_POINT('', (-2.7, -2.7, -1.04916075827078E-14));
#108 = CARTESIAN_POINT('', (-2.7, 1.65327317884893E-16, -2.18952885050753E-47));
#109 = ADVANCED_FACE('', (#110), #113, .T.);
#110 = FACE_OUTER_BOUND('', #111, .T.);
#111 = EDGE_LOOP('', (#112));
#112 = ORIENTED_EDGE('', *, *, #82, .F.);
#113 = B_SPLINE_SURFACE_WITH_KNOTS('', 1, 1, ((#114, #115), (#116, #117)), .UNSPECIFIED., .F., .F., .U., (2, 2), (2, 2), (0.0454545454545454, 0.954545454545454), (0.0454545454545454, 0.954545454545454), .UNSPECIFIED.);
#114 = CARTESIAN_POINT('', (2.7, -2.7, -1.65327317884893E-16));
#115 = CARTESIAN_POINT('', (-2.7, -2.7, -1.65327317884893E-16));
#116 = CARTESIAN_POINT('', (2.7, 2.7, 1.65327317884893E-16));
#117 = CARTESIAN_POINT('', (-2.7, 2.7, 1.65327317884893E-16));
#118 = ADVANCED_FACE('', (#119), #138, .T.);
#119 = FACE_OUTER_BOUND('', #120, .T.);
#120 = EDGE_LOOP('', (#121, #130, #136, #137));
#121 = ORIENTED_EDGE('', *, *, #122, .F.);
#122 = EDGE_CURVE('', #123, #123, #125, .T.);
#123 = VERTEX_POINT('', #124);
#124 = CARTESIAN_POINT('', (-2.875, 3.02334678539503E-15, -46.5));
#125 = CIRCLE('', #126, 2.875);
#126 = AXIS2_PLACEMENT_3D('', #127, #128, #129);
#127 = CARTESIAN_POINT('', (2.08166817117217E-16, 5.55111512312578E-16, -46.5));
#128 = DIRECTION('', (0., 0., -1.));
#129 = DIRECTION('', (-1., 8.58516616724331E-16, 0.));
#130 = ORIENTED_EDGE('', *, *, #131, .F.);
#131 = EDGE_CURVE('', #19, #123, #132, .T.);
#132 = LINE('', #133, #134);
#133 = CARTESIAN_POINT('', (-2.875, 2.99273061541634E-15, -46.));
#134 = VECTOR('', #135, 0.5);
#135 = DIRECTION('', (0., 3.06161699786897E-17, -0.5));
#136 = ORIENTED_EDGE('', *, *, #18, .T.);
#137 = ORIENTED_EDGE('', *, *, #131, .T.);
#138 = (
   BOUNDED_SURFACE ()
   B_SPLINE_SURFACE (2, 1, ((#139, #140), (#141, #142), (#143, #144), (#145, #146), (#147, #148), (#149, #150), (#151, #152), (#153, #154), (#155, #156)), .UNSPECIFIED., .T., .F., .U.)
   B_SPLINE_SURFACE_WITH_KNOTS ((3, 2, 2, 2, 3), (2, 2), (0., 4.51603943953533, 9.03207887907065, 13.548118318606, 18.0641577581413), (0., 0.0635324015247776), .UNSPECIFIED.)
   GEOMETRIC_REPRESENTATION_ITEM ()
   RATIONAL_B_SPLINE_SURFACE (((1., 1.), (0.707106781186548, 0.707106781186548), (1., 1.), (0.707106781186548, 0.707106781186548), (1., 1.), (0.707106781186548, 0.707106781186548), (1., 1.), (0.707106781186548, 0.707106781186548), (1., 1.)))
   REPRESENTATION_ITEM ('')
   SURFACE ()
);
#139 = CARTESIAN_POINT('', (-2.875, 2.99273061541634E-15, -46.));
#140 = CARTESIAN_POINT('', (-2.875, 2.99273061541634E-15, -46.5));
#141 = CARTESIAN_POINT('', (-2.875, 2.875, -46.));
#142 = CARTESIAN_POINT('', (-2.875, 2.875, -46.5));
#143 = CARTESIAN_POINT('', (2.83056542584672E-15, 2.875, -46.));
#144 = CARTESIAN_POINT('', (4.06629192282081E-15, 2.875, -46.5));
#145 = CARTESIAN_POINT('', (2.875, 2.875, -46.));
#146 = CARTESIAN_POINT('', (2.875, 2.875, -46.5));
#147 = CARTESIAN_POINT('', (2.875, -4.20198611411162E-16, -46.));
#148 = CARTESIAN_POINT('', (2.875, -4.20198611411163E-16, -46.5));
#149 = CARTESIAN_POINT('', (2.875, -2.875, -46.));
#150 = CARTESIAN_POINT('', (2.875, -2.875, -46.5));
#151 = CARTESIAN_POINT('', (-2.30277846225916E-16, -2.875, -46.));
#152 = CARTESIAN_POINT('', (1.00544865074817E-15, -2.875, -46.5));
#153 = CARTESIAN_POINT('', (-2.875, -2.875, -46.));
#154 = CARTESIAN_POINT('', (-2.875, -2.875, -46.5));
#155 = CARTESIAN_POINT('', (-2.875, 2.99273061541634E-15, -46.));
#156 = CARTESIAN_POINT('', (-2.875, 2.99273061541634E-15, -46.5));
#157 = ADVANCED_FACE('', (#158), #161, .T.);
#158 = FACE_OUTER_BOUND('', #159, .T.);
#159 = EDGE_LOOP('', (#160));
#160 = ORIENTED_EDGE('', *, *, #122, .T.);
#161 = B_SPLINE_SURFACE_WITH_KNOTS('', 1, 1, ((#162, #163), (#164, #165)), .UNSPECIFIED., .F., .F., .U., (2, 2), (2, 2), (0.493520871970163, 0.546116241901575), (0.453883758098425, 0.506479128029837), .UNSPECIFIED.);
#162 = CARTESIAN_POINT('', (-2.87500000000001, 2.87500000000002, -46.5));
#163 = CARTESIAN_POINT('', (-2.87500000000001, -2.87499999999998, -46.5));
#164 = CARTESIAN_POINT('', (2.875, 2.87500000000002, -46.5));
#165 = CARTESIAN_POINT('', (2.875, -2.87499999999998, -46.5));
#166 = DRAUGHTING_MODEL('', (#174, #288, #335, #340, #345, #350, #355, #360), #374);
#167 = PRESENTATION_STYLE_ASSIGNMENT((#168));
#168 = SURFACE_STYLE_USAGE(.POSITIVE., #169);
#169 = SURFACE_SIDE_STYLE('', (#170));
#170 = SURFACE_STYLE_FILL_AREA(#171);
#171 = FILL_AREA_STYLE('', (#172));
#172 = FILL_AREA_STYLE_COLOUR('', #173);
#173 = COLOUR_RGB('', 0.50196078431373, 0.50196078431373, 0.50196078431373);
#174 = STYLED_ITEM('', (#167), #1);
#175 = MANIFOLD_SOLID_BREP('CUT', #176);
#176 = CLOSED_SHELL('', (#177, #194, #233, #272));
#177 = ADVANCED_FACE('', (#178), #189, .T.);
#178 = FACE_OUTER_BOUND('', #179, .T.);
#179 = EDGE_LOOP('', (#180));
#180 = ORIENTED_EDGE('', *, *, #181, .F.);
#181 = EDGE_CURVE('', #182, #182, #184, .T.);
#182 = VERTEX_POINT('', #183);
#183 = CARTESIAN_POINT('', (-2.875, 3.02334678539503E-15, -46.5));
#184 = CIRCLE('', #185, 2.875);
#185 = AXIS2_PLACEMENT_3D('', #186, #187, #188);
#186 = CARTESIAN_POINT('', (2.08166817117217E-16, 5.55111512312578E-16, -46.5));
#187 = DIRECTION('', (0., 0., -1.));
#188 = DIRECTION('', (-1., 8.58516616724331E-16, 0.));
#189 = B_SPLINE_SURFACE_WITH_KNOTS('', 1, 1, ((#190, #191), (#192, #193)), .UNSPECIFIED., .F., .F., .U., (2, 2), (2, 2), (0.453883758098425, 0.506479128029837), (0.493520871970163, 0.546116241901575), .UNSPECIFIED.);
#190 = CARTESIAN_POINT('', (-2.875, 2.875, -46.5));
#191 = CARTESIAN_POINT('', (2.87500000000001, 2.875, -46.5));
#192 = CARTESIAN_POINT('', (-2.875, -2.875, -46.5));
#193 = CARTESIAN_POINT('', (2.87500000000001, -2.875, -46.5));
#194 = ADVANCED_FACE('', (#195), #214, .T.);
#195 = FACE_OUTER_BOUND('', #196, .T.);
#196 = EDGE_LOOP('', (#197, #198, #206, #213));
#197 = ORIENTED_EDGE('', *, *, #181, .T.);
#198 = ORIENTED_EDGE('', *, *, #199, .T.);
#199 = EDGE_CURVE('', #182, #200, #202, .T.);
#200 = VERTEX_POINT('', #201);
#201 = CARTESIAN_POINT('', (-2.875, 3.47462913088083E-15, -53.87));
#202 = LINE('', #203, #204);
#203 = CARTESIAN_POINT('', (-2.875, 3.02334678539503E-15, -46.5));
#204 = VECTOR('', #205, 7.37);
#205 = DIRECTION('', (0., 4.512823454858E-16, -7.37));
#206 = ORIENTED_EDGE('', *, *, #207, .F.);
#207 = EDGE_CURVE('', #200, #200, #208, .T.);
#208 = CIRCLE('', #209, 2.875);
#209 = AXIS2_PLACEMENT_3D('', #210, #211, #212);
#210 = CARTESIAN_POINT('', (1.12410081243297E-15, 1.66533453693773E-15, -53.87));
#211 = DIRECTION('', (2.47145299394817E-15, -8.04041898295847E-15, -1.));
#212 = DIRECTION('', (-1., 6.29319858762815E-16, -2.47145299394817E-15));
#213 = ORIENTED_EDGE('', *, *, #199, .F.);
#214 = (
   BOUNDED_SURFACE ()
   B_SPLINE_SURFACE (2, 1, ((#215, #216), (#217, #218), (#219, #220), (#221, #222), (#223, #224), (#225, #226), (#227, #228), (#229, #230), (#231, #232)), .UNSPECIFIED., .T., .F., .U.)
   B_SPLINE_SURFACE_WITH_KNOTS ((3, 2, 2, 2, 3), (2, 2), (0., 4.51603943953533, 9.03207887907065, 13.548118318606, 18.0641577581413), (0.0635324015247776, 1.), .UNSPECIFIED.)
   GEOMETRIC_REPRESENTATION_ITEM ()
   RATIONAL_B_SPLINE_SURFACE (((1., 1.), (0.707106781186548, 0.707106781186548), (1., 1.), (0.707106781186548, 0.707106781186548), (1., 1.), (0.707106781186548, 0.707106781186548), (1., 1.), (0.707106781186548, 0.707106781186548), (1., 1.)))
   REPRESENTATION_ITEM ('')
   SURFACE ()
);
#215 = CARTESIAN_POINT('', (-2.875, 3.02334678539503E-15, -46.5));
#216 = CARTESIAN_POINT('', (-2.87499999999998, 3.5784582977076E-15, -53.87));
#217 = CARTESIAN_POINT('', (-2.875, 2.875, -46.5));
#218 = CARTESIAN_POINT('', (-2.87499999999998, 2.875, -53.87));
#219 = CARTESIAN_POINT('', (2.86118159582541E-15, 2.875, -46.5));
#220 = CARTESIAN_POINT('', (2.10757901612234E-14, 2.875, -53.87));
#221 = CARTESIAN_POINT('', (2.875, 2.875, -46.5));
#222 = CARTESIAN_POINT('', (2.87500000000002, 2.875, -53.87));
#223 = CARTESIAN_POINT('', (2.875, -4.50814781389852E-16, -46.5));
#224 = CARTESIAN_POINT('', (2.87500000000002, 1.04296730922715E-16, -53.87));
#225 = CARTESIAN_POINT('', (2.875, -2.875, -46.5));
#226 = CARTESIAN_POINT('', (2.87500000000002, -2.875, -53.87));
#227 = CARTESIAN_POINT('', (-2.60894016204605E-16, -2.875, -46.5));
#228 = CARTESIAN_POINT('', (1.79537145491934E-14, -2.875, -53.87));
#229 = CARTESIAN_POINT('', (-2.875, -2.875, -46.5));
#230 = CARTESIAN_POINT('', (-2.87499999999998, -2.875, -53.87));
#231 = CARTESIAN_POINT('', (-2.875, 3.02334678539503E-15, -46.5));
#232 = CARTESIAN_POINT('', (-2.87499999999998, 3.5784582977076E-15, -53.87));
#233 = ADVANCED_FACE('', (#234), #253, .T.);
#234 = FACE_OUTER_BOUND('', #235, .T.);
#235 = EDGE_LOOP('', (#236, #244, #245, #246));
#236 = ORIENTED_EDGE('', *, *, #237, .F.);
#237 = EDGE_CURVE('', #200, #238, #240, .T.);
#238 = VERTEX_POINT('', #239);
#239 = CARTESIAN_POINT('', (-2.745, 3.47462913088083E-15, -54.));
#240 = LINE('', #241, #242);
#241 = CARTESIAN_POINT('', (-2.875, 3.47462913088083E-15, -53.87));
#242 = VECTOR('', #243, 0.183847763108504);
#243 = DIRECTION('', (0.13, 0., -0.130000000000003));
#244 = ORIENTED_EDGE('', *, *, #207, .T.);
#245 = ORIENTED_EDGE('', *, *, #237, .T.);
#246 = ORIENTED_EDGE('', *, *, #247, .F.);
#247 = EDGE_CURVE('', #238, #238, #248, .T.);
#248 = CIRCLE('', #249, 2.745);
#249 = AXIS2_PLACEMENT_3D('', #250, #251, #252);
#250 = CARTESIAN_POINT('', (1.52655665885959E-16, 7.21644966006352E-16, -54.));
#251 = DIRECTION('', (0., 0., -1.));
#252 = DIRECTION('', (-1., 1.0029086210836E-15, 0.));
#253 = (
   BOUNDED_SURFACE ()
   B_SPLINE_SURFACE (2, 1, ((#254, #255), (#256, #257), (#258, #259), (#260, #261), (#262, #263), (#264, #265), (#266, #267), (#268, #269), (#270, #271)), .UNSPECIFIED., .T., .F., .U.)
   B_SPLINE_SURFACE_WITH_KNOTS ((3, 2, 2, 2, 3), (2, 2), (0., 0.25, 0.5, 0.75, 1.), (0., 1.), .UNSPECIFIED.)
   GEOMETRIC_REPRESENTATION_ITEM ()
   RATIONAL_B_SPLINE_SURFACE (((1., 1.), (0.707106781186548, 0.707106781186548), (1., 1.), (0.707106781186548, 0.707106781186548), (1., 1.), (0.707106781186548, 0.707106781186548), (1., 1.), (0.707106781186548, 0.707106781186548), (1., 1.)))
   REPRESENTATION_ITEM ('')
   SURFACE ()
);
#254 = CARTESIAN_POINT('', (-2.875, 3.47462913088083E-15, -53.87));
#255 = CARTESIAN_POINT('', (-2.745, 3.19114312329019E-15, -54.));
#256 = CARTESIAN_POINT('', (-2.875, 2.875, -53.87));
#257 = CARTESIAN_POINT('', (-2.745, 2.745, -54.));
#258 = CARTESIAN_POINT('', (2.1467297654548E-15, 2.875, -53.87));
#259 = CARTESIAN_POINT('', (2.03773741575239E-15, 2.745, -54.));
#260 = CARTESIAN_POINT('', (2.875, 2.875, -53.87));
#261 = CARTESIAN_POINT('', (2.745, 2.745, -54.));
#262 = CARTESIAN_POINT('', (2.875, -1.34618633672572E-15, -53.87));
#263 = CARTESIAN_POINT('', (2.745, -1.41168764491154E-15, -54.));
#264 = CARTESIAN_POINT('', (2.875, -2.875, -53.87));
#265 = CARTESIAN_POINT('', (2.745, -2.745, -54.));
#266 = CARTESIAN_POINT('', (-2.32199974739688E-15, -2.875, -53.87));
#267 = CARTESIAN_POINT('', (-2.22892780608339E-15, -2.745, -54.));
#268 = CARTESIAN_POINT('', (-2.875, -2.875, -53.87));
#269 = CARTESIAN_POINT('', (-2.745, -2.745, -54.));
#270 = CARTESIAN_POINT('', (-2.875, 3.47462913088083E-15, -53.87));
#271 = CARTESIAN_POINT('', (-2.745, 3.19114312329019E-15, -54.));
#272 = ADVANCED_FACE('', (#273), #276, .T.);
#273 = FACE_OUTER_BOUND('', #274, .T.);
#274 = EDGE_LOOP('', (#275));
#275 = ORIENTED_EDGE('', *, *, #247, .T.);
#276 = B_SPLINE_SURFACE_WITH_KNOTS('', 1, 1, ((#277, #278), (#279, #280)), .UNSPECIFIED., .F., .F., .U., (2, 2), (2, 2), (0.0454545454545454, 0.954545454545454), (0.0454545454545453, 0.954545454545454), .UNSPECIFIED.);
#277 = CARTESIAN_POINT('', (2.745, -2.745, -54.));
#278 = CARTESIAN_POINT('', (2.745, 2.745, -54.));
#279 = CARTESIAN_POINT('', (-2.745, -2.745, -54.));
#280 = CARTESIAN_POINT('', (-2.745, 2.745, -54.));
#281 = PRESENTATION_STYLE_ASSIGNMENT((#282));
#282 = SURFACE_STYLE_USAGE(.POSITIVE., #283);
#283 = SURFACE_SIDE_STYLE('', (#284));
#284 = SURFACE_STYLE_FILL_AREA(#285);
#285 = FILL_AREA_STYLE('', (#286));
#286 = FILL_AREA_STYLE_COLOUR('', #287);
#287 = COLOUR_RGB('', 0.8, 0.8, 0.8);
#288 = STYLED_ITEM('', (#281), #175);
#289 = TRIMMED_CURVE('cutting part line', #290, (#294), (#295), .T., .CARTESIAN.);
#290 = LINE('', #291, #292);
#291 = CARTESIAN_POINT('', (3.2612801348364E-16, 0., -54.));
#292 = VECTOR('', #293, 2.745);
#293 = DIRECTION('', (2.745, 0., 0.));
#294 = CARTESIAN_POINT('', (3.2612801348364E-16, 0., -54.));
#295 = CARTESIAN_POINT('', (2.745, 0., -54.));
#296 = TRIMMED_CURVE('cutting part line', #297, (#301), (#302), .T., .CARTESIAN.);
#297 = LINE('', #298, #299);
#298 = CARTESIAN_POINT('', (2.745, 7.16933240910489E-16, -54.));
#299 = VECTOR('', #300, 0.183847763108504);
#300 = DIRECTION('', (0.13, 1.66508089842153E-16, 0.130000000000003));
#301 = CARTESIAN_POINT('', (2.745, 7.16933240910489E-16, -54.));
#302 = CARTESIAN_POINT('', (2.875, 8.83441330752641E-16, -53.87));
#303 = TRIMMED_CURVE('cutting part line', #304, (#308), (#309), .T., .CARTESIAN.);
#304 = LINE('', #305, #306);
#305 = CARTESIAN_POINT('', (2.87500000000002, 8.7291571791985E-16, -53.87));
#306 = VECTOR('', #307, 7.37);
#307 = DIRECTION('', (-1.82076576038526E-14, -8.7291571791985E-16, 7.37));
#308 = CARTESIAN_POINT('', (2.87500000000002, 8.7291571791985E-16, -53.87));
#309 = CARTESIAN_POINT('', (2.875, 0., -46.5));
#310 = TRIMMED_CURVE('cutting part line', #311, (#315), (#316), .T., .CARTESIAN.);
#311 = LINE('', #312, #313);
#312 = CARTESIAN_POINT('', (2.875, 0., -46.5));
#313 = VECTOR('', #314, 2.875);
#314 = DIRECTION('', (-2.875, 0., 0.));
#315 = CARTESIAN_POINT('', (2.875, 0., -46.5));
#316 = CARTESIAN_POINT('', (-6.93889390390723E-18, 0., -46.5));
#317 = TRIMMED_CURVE('cutting part line', #318, (#322), (#323), .T., .CARTESIAN.);
#318 = LINE('', #319, #320);
#319 = CARTESIAN_POINT('', (0., 0., -46.5));
#320 = VECTOR('', #321, 7.50000000000001);
#321 = DIRECTION('', (0., 0., -7.50000000000001));
#322 = CARTESIAN_POINT('', (0., 0., -46.5));
#323 = CARTESIAN_POINT('', (0., 0., -54.));
#324 = COMPOSITE_CURVE('cutting part line', (#325, #326, #327, #328, #329), .U.);
#325 = COMPOSITE_CURVE_SEGMENT(.CONTINUOUS., .T., #289);
#326 = COMPOSITE_CURVE_SEGMENT(.CONTINUOUS., .T., #296);
#327 = COMPOSITE_CURVE_SEGMENT(.CONTINUOUS., .T., #303);
#328 = COMPOSITE_CURVE_SEGMENT(.CONTINUOUS., .T., #310);
#329 = COMPOSITE_CURVE_SEGMENT(.CONTINUOUS., .T., #317);
#330 = GEOMETRIC_SET('', (#324, #373));
#331 = PRESENTATION_STYLE_ASSIGNMENT((#332));
#332 = CURVE_STYLE('', #334, POSITIVE_LENGTH_MEASURE(1.E-6), #333);
#333 = COLOUR_RGB('', 0., 0., 1.);
#334 = DRAUGHTING_PRE_DEFINED_CURVE_FONT('continuous');
#335 = STYLED_ITEM('', (#331), #324);
#336 = PRESENTATION_STYLE_ASSIGNMENT((#337));
#337 = CURVE_STYLE('', #339, POSITIVE_LENGTH_MEASURE(1.E-6), #338);
#338 = COLOUR_RGB('', 0., 0., 1.);
#339 = DRAUGHTING_PRE_DEFINED_CURVE_FONT('continuous');
#340 = OVER_RIDING_STYLED_ITEM('', (#336), #289, #335);
#341 = PRESENTATION_STYLE_ASSIGNMENT((#342));
#342 = CURVE_STYLE('', #344, POSITIVE_LENGTH_MEASURE(1.E-6), #343);
#343 = COLOUR_RGB('', 0., 0., 1.);
#344 = DRAUGHTING_PRE_DEFINED_CURVE_FONT('continuous');
#345 = OVER_RIDING_STYLED_ITEM('', (#341), #296, #335);
#346 = PRESENTATION_STYLE_ASSIGNMENT((#347));
#347 = CURVE_STYLE('', #349, POSITIVE_LENGTH_MEASURE(1.E-6), #348);
#348 = COLOUR_RGB('', 0., 0., 1.);
#349 = DRAUGHTING_PRE_DEFINED_CURVE_FONT('continuous');
#350 = OVER_RIDING_STYLED_ITEM('', (#346), #303, #335);
#351 = PRESENTATION_STYLE_ASSIGNMENT((#352));
#352 = CURVE_STYLE('', #354, POSITIVE_LENGTH_MEASURE(1.E-6), #353);
#353 = COLOUR_RGB('', 0., 0., 1.);
#354 = DRAUGHTING_PRE_DEFINED_CURVE_FONT('continuous');
#355 = OVER_RIDING_STYLED_ITEM('', (#351), #310, #335);
#356 = PRESENTATION_STYLE_ASSIGNMENT((#357));
#357 = CURVE_STYLE('', #359, POSITIVE_LENGTH_MEASURE(1.E-6), #358);
#358 = COLOUR_RGB('', 0., 0., 1.);
#359 = DRAUGHTING_PRE_DEFINED_CURVE_FONT('continuous');
#360 = OVER_RIDING_STYLED_ITEM('', (#356), #317, #335);
#361 = AXIS2_PLACEMENT_3D('MCS', #362, #363, #364);
#362 = CARTESIAN_POINT('', (0., 0., -36.));
#363 = DIRECTION('', (0., 0., 1.));
#364 = DIRECTION('', (1., 0., 0.));
#365 = AXIS2_PLACEMENT_3D('PCS', #366, #367, #368);
#366 = CARTESIAN_POINT('', (0., 0., 0.));
#367 = DIRECTION('', (0., 0., 1.));
#368 = DIRECTION('', (1., 0., 0.));
#369 = AXIS2_PLACEMENT_3D('CIP', #370, #371, #372);
#370 = CARTESIAN_POINT('', (0., 0., -54.));
#371 = DIRECTION('', (0., 0., 1.));
#372 = DIRECTION('', (1., 0., 0.));
#373 = CARTESIAN_POINT('CRP', (2.87500000000002, 0., -54.));
#374 = (
   GEOMETRIC_REPRESENTATION_CONTEXT (3)
   GLOBAL_UNCERTAINTY_ASSIGNED_CONTEXT ((#376))
   GLOBAL_UNIT_ASSIGNED_CONTEXT ((#375, #377, #378))
   REPRESENTATION_CONTEXT ('', '3D')
);
#375 = (
   LENGTH_UNIT ()
   NAMED_UNIT (*)
   SI_UNIT (.MILLI., .METRE.)
);
#376 = UNCERTAINTY_MEASURE_WITH_UNIT(LENGTH_MEASURE(1.E-6), #375, 'DISTANCE_ACCURACY_VALUE', '');
#377 = (
   NAMED_UNIT (*)
   SI_UNIT ($, .STERADIAN.)
   SOLID_ANGLE_UNIT ()
);
#378 = (
   NAMED_UNIT (*)
   PLANE_ANGLE_UNIT ()
   SI_UNIT ($, .RADIAN.)
);
#379 = SHAPE_REPRESENTATION('', (), #374);
#380 = PRODUCT_DEFINITION_SHAPE('', '', #381);
#381 = PRODUCT_DEFINITION('', '', #384, #388);
#382 = APPLICATION_CONTEXT('configuration controlled 3D designs of mechanical parts and assemblies');
#383 = APPLICATION_PROTOCOL_DEFINITION('International Standard', 'automotive_design', 2002, #382);
#384 = PRODUCT_DEFINITION_FORMATION_WITH_SPECIFIED_SOURCE('', '', #385, .NOT_KNOWN.);
#385 = PRODUCT('product-name', '1P221-0575-XB       1630', '', (#386));
#386 = PRODUCT_CONTEXT('', #382, 'mechanical');
#387 = PRODUCT_RELATED_PRODUCT_CATEGORY('detail', '', (#385));
#388 = PRODUCT_DEFINITION_CONTEXT('part definition', #382, 'design');
#389 = SHAPE_DEFINITION_REPRESENTATION(#380, #379);
#390 = CONSTRUCTIVE_GEOMETRY_REPRESENTATION('supplemental geometry', (#361, #365, #369), #374);
#391 = CONSTRUCTIVE_GEOMETRY_REPRESENTATION_RELATIONSHIP('', '', #379, #390);
#392 = SHAPE_REPRESENTATION_RELATIONSHIP('', '', #379, #393);
#393 = SHAPE_REPRESENTATION('', (#330), #374);
#394 = SHAPE_REPRESENTATION_RELATIONSHIP('', '', #379, #395);
#395 = ADVANCED_BREP_SHAPE_REPRESENTATION('', (#1, #175), #374);
ENDSEC;
END-ISO-10303-21;
