ISO-10303-21;
HEADER;
FILE_DESCRIPTION(('STEP'), '1');
FILE_NAME('C:\\Users\\ds2002\\OneDrive - Sandvik\\HomeShare\\Documents\\Batchrepair\\CorSRT2\\NEW_MILSQ_SLD\\Output\\MOD000000000000000020082243000000.stp', '2019-01-02T12:07:08', (''), (''), 'Express v3.0.0.0', 'Express Tool', 'Unknown');
FILE_SCHEMA(('AUTOMOTIVE_DESIGN'));
ENDSEC;

DATA;
#1 = MANIFOLD_SOLID_BREP('NOCUT', #2);
#2 = CLOSED_SHELL('', (#3, #50, #59, #98));
#3 = ADVANCED_FACE('', (#4), #31, .T.);
#4 = FACE_OUTER_BOUND('', #5, .T.);
#5 = EDGE_LOOP('', (#6, #16, #23, #24));
#6 = ORIENTED_EDGE('', *, *, #7, .T.);
#7 = EDGE_CURVE('', #8, #10, #12, .T.);
#8 = VERTEX_POINT('', #9);
#9 = CARTESIAN_POINT('', (-10., 6.73555739531044E-16, -1.));
#10 = VERTEX_POINT('', #11);
#11 = CARTESIAN_POINT('', (-9., 5.51091059616309E-16, 0.));
#12 = LINE('', #13, #14);
#13 = CARTESIAN_POINT('', (-10., 6.73555739531044E-16, -1.));
#14 = VECTOR('', #15, 1.4142135623731);
#15 = DIRECTION('', (1., -1.22464679914735E-16, 1.));
#16 = ORIENTED_EDGE('', *, *, #17, .T.);
#17 = EDGE_CURVE('', #10, #10, #18, .T.);
#18 = CIRCLE('', #19, 9.);
#19 = AXIS2_PLACEMENT_3D('', #20, #21, #22);
#20 = CARTESIAN_POINT('', (4.57966997657877E-15, 0., 0.));
#21 = DIRECTION('', (3.74939945665464E-33, 6.12323399573677E-17, -1.));
#22 = DIRECTION('', (-1., 6.12323399573676E-17, 0.));
#23 = ORIENTED_EDGE('', *, *, #7, .F.);
#24 = ORIENTED_EDGE('', *, *, #25, .F.);
#25 = EDGE_CURVE('', #8, #8, #26, .T.);
#26 = CIRCLE('', #27, 10.);
#27 = AXIS2_PLACEMENT_3D('', #28, #29, #30);
#28 = CARTESIAN_POINT('', (-3.10862446895044E-15, -3.99680288865056E-15, -1.));
#29 = DIRECTION('', (1.11022302462516E-17, 3.94546482371774E-17, -1.));
#30 = DIRECTION('', (-1., 4.67035862818161E-16, -1.11022302462516E-17));
#31 = (
   BOUNDED_SURFACE ()
   B_SPLINE_SURFACE (1, 2, ((#32, #33, #34, #35, #36, #37, #38, #39, #40), (#41, #42, #43, #44, #45, #46, #47, #48, #49)), .UNSPECIFIED., .F., .T., .U.)
   B_SPLINE_SURFACE_WITH_KNOTS ((2, 2), (3, 2, 2, 2, 3), (0., 1.), (0., 0.25, 0.5, 0.75, 1.), .UNSPECIFIED.)
   GEOMETRIC_REPRESENTATION_ITEM ()
   RATIONAL_B_SPLINE_SURFACE (((1., 0.707106781186548, 1., 0.707106781186548, 1., 0.707106781186548, 1., 0.707106781186548, 1.), (1., 0.707106781186548, 1., 0.707106781186548, 1., 0.707106781186548, 1., 0.707106781186548, 1.)))
   REPRESENTATION_ITEM ('')
   SURFACE ()
);
#32 = CARTESIAN_POINT('', (-9.99999999999999, -5.38288093340217E-15, -1.));
#33 = CARTESIAN_POINT('', (-9.99999999999999, 9.99999999999999, -1.00000000000006));
#34 = CARTESIAN_POINT('', (4.57966997657877E-15, 9.99999999999999, -1.00000000000006));
#35 = CARTESIAN_POINT('', (10., 9.99999999999999, -1.00000000000006));
#36 = CARTESIAN_POINT('', (10., -5.38288093340217E-15, -1.));
#37 = CARTESIAN_POINT('', (10., -10., -0.99999999999994));
#38 = CARTESIAN_POINT('', (5.80431677572612E-15, -10., -0.99999999999994));
#39 = CARTESIAN_POINT('', (-9.99999999999999, -10., -0.99999999999994));
#40 = CARTESIAN_POINT('', (-9.99999999999999, -5.38288093340217E-15, -1.));
#41 = CARTESIAN_POINT('', (-9., 5.51091059616309E-16, 0.));
#42 = CARTESIAN_POINT('', (-9., 9., -5.39568389967826E-14));
#43 = CARTESIAN_POINT('', (4.57966997657877E-15, 9., -5.39568389967826E-14));
#44 = CARTESIAN_POINT('', (9.00000000000001, 9., -5.39568389967826E-14));
#45 = CARTESIAN_POINT('', (9.00000000000001, 5.51091059616309E-16, -6.60780701695189E-30));
#46 = CARTESIAN_POINT('', (9.00000000000001, -9., 5.39568389967826E-14));
#47 = CARTESIAN_POINT('', (5.68185209581139E-15, -9., 5.39568389967826E-14));
#48 = CARTESIAN_POINT('', (-8.99999999999999, -9., 5.39568389967826E-14));
#49 = CARTESIAN_POINT('', (-9., 5.51091059616309E-16, 0.));
#50 = ADVANCED_FACE('', (#51), #54, .T.);
#51 = FACE_OUTER_BOUND('', #52, .T.);
#52 = EDGE_LOOP('', (#53));
#53 = ORIENTED_EDGE('', *, *, #17, .F.);
#54 = B_SPLINE_SURFACE_WITH_KNOTS('', 1, 1, ((#55, #56), (#57, #58)), .UNSPECIFIED., .F., .F., .U., (2, 2), (2, 2), (0.0454545454545454, 0.954545454545454), (0.0454545454545454, 0.954545454545454), .UNSPECIFIED.);
#55 = CARTESIAN_POINT('', (9., -9., -5.51091059616309E-16));
#56 = CARTESIAN_POINT('', (-9., -9., -5.51091059616309E-16));
#57 = CARTESIAN_POINT('', (9., 9., 5.51091059616309E-16));
#58 = CARTESIAN_POINT('', (-9., 9., 5.51091059616309E-16));
#59 = ADVANCED_FACE('', (#60), #79, .T.);
#60 = FACE_OUTER_BOUND('', #61, .T.);
#61 = EDGE_LOOP('', (#62, #71, #77, #78));
#62 = ORIENTED_EDGE('', *, *, #63, .F.);
#63 = EDGE_CURVE('', #64, #64, #66, .T.);
#64 = VERTEX_POINT('', #65);
#65 = CARTESIAN_POINT('', (-10., 4.99043570652546E-15, -71.5));
#66 = CIRCLE('', #67, 10.);
#67 = AXIS2_PLACEMENT_3D('', #68, #69, #70);
#68 = CARTESIAN_POINT('', (3.33066907387547E-16, -2.44249065417534E-15, -71.5));
#69 = DIRECTION('', (0., 0., -1.));
#70 = DIRECTION('', (-1., 7.4329263607008E-16, 0.));
#71 = ORIENTED_EDGE('', *, *, #72, .T.);
#72 = EDGE_CURVE('', #64, #8, #73, .T.);
#73 = LINE('', #74, #75);
#74 = CARTESIAN_POINT('', (-10., 4.99043570652546E-15, -71.5));
#75 = VECTOR('', #76, 70.5);
#76 = DIRECTION('', (0., -4.31687996699442E-15, 70.5));
#77 = ORIENTED_EDGE('', *, *, #25, .T.);
#78 = ORIENTED_EDGE('', *, *, #72, .F.);
#79 = (
   BOUNDED_SURFACE ()
   B_SPLINE_SURFACE (1, 2, ((#80, #81, #82, #83, #84, #85, #86, #87, #88), (#89, #90, #91, #92, #93, #94, #95, #96, #97)), .UNSPECIFIED., .F., .T., .U.)
   B_SPLINE_SURFACE_WITH_KNOTS ((2, 2), (3, 2, 2, 2, 3), (0., 1.), (0., 15.707963267949, 31.415926535898, 47.1238898038469, 62.8318530717959), .UNSPECIFIED.)
   GEOMETRIC_REPRESENTATION_ITEM ()
   RATIONAL_B_SPLINE_SURFACE (((1., 0.707106781186548, 1., 0.707106781186548, 1., 0.707106781186548, 1., 0.707106781186548, 1.), (1., 0.707106781186548, 1., 0.707106781186548, 1., 0.707106781186548, 1., 0.707106781186548, 1.)))
   REPRESENTATION_ITEM ('')
   SURFACE ()
);
#80 = CARTESIAN_POINT('', (-10., 4.44831402325658E-15, -72.));
#81 = CARTESIAN_POINT('', (-10., 10., -72.));
#82 = CARTESIAN_POINT('', (1.73766910714136E-15, 10., -72.));
#83 = CARTESIAN_POINT('', (10., 9.99999999999999, -72.));
#84 = CARTESIAN_POINT('', (10., -3.66775643395929E-15, -72.));
#85 = CARTESIAN_POINT('', (9.99999999999999, -10., -72.));
#86 = CARTESIAN_POINT('', (-5.15375455092715E-15, -10., -72.));
#87 = CARTESIAN_POINT('', (-10., -10., -72.));
#88 = CARTESIAN_POINT('', (-10., 4.44831402325658E-15, -72.));
#89 = CARTESIAN_POINT('', (-10., 6.73555739531044E-16, -1.));
#90 = CARTESIAN_POINT('', (-10., 10., -0.999999999999999));
#91 = CARTESIAN_POINT('', (9.49410759657493E-16, 9.99999999999999, -0.999999999999999));
#92 = CARTESIAN_POINT('', (10., 9.99999999999999, -0.999999999999999));
#93 = CARTESIAN_POINT('', (9.99999999999999, -7.44251471768482E-15, -1.));
#94 = CARTESIAN_POINT('', (9.99999999999999, -10., -1.));
#95 = CARTESIAN_POINT('', (-5.94201289841102E-15, -10., -1.));
#96 = CARTESIAN_POINT('', (-10., -10., -1.));
#97 = CARTESIAN_POINT('', (-10., 6.73555739531044E-16, -1.));
#98 = ADVANCED_FACE('', (#99), #102, .T.);
#99 = FACE_OUTER_BOUND('', #100, .T.);
#100 = EDGE_LOOP('', (#101));
#101 = ORIENTED_EDGE('', *, *, #63, .T.);
#102 = B_SPLINE_SURFACE_WITH_KNOTS('', 1, 1, ((#103, #104), (#105, #106)), .UNSPECIFIED., .F., .F., .U., (2, 2), (2, 2), (0.47684916545199, 0.580745613895854), (0.419254386104146, 0.523150834548009), .UNSPECIFIED.);
#103 = CARTESIAN_POINT('', (-10., 10., -71.5));
#104 = CARTESIAN_POINT('', (-10., -9.99999999999997, -71.5));
#105 = CARTESIAN_POINT('', (9.99999999999997, 10., -71.5));
#106 = CARTESIAN_POINT('', (9.99999999999997, -9.99999999999997, -71.5));
#107 = DRAUGHTING_MODEL('', (#115, #268, #323, #328, #333, #338, #343, #348, #353), #367);
#108 = PRESENTATION_STYLE_ASSIGNMENT((#109));
#109 = SURFACE_STYLE_USAGE(.POSITIVE., #110);
#110 = SURFACE_SIDE_STYLE('', (#111));
#111 = SURFACE_STYLE_FILL_AREA(#112);
#112 = FILL_AREA_STYLE('', (#113));
#113 = FILL_AREA_STYLE_COLOUR('', #114);
#114 = COLOUR_RGB('', 0.50196078431373, 0.50196078431373, 0.50196078431373);
#115 = STYLED_ITEM('', (#108), #1);
#116 = MANIFOLD_SOLID_BREP('CUT', #117);
#117 = CLOSED_SHELL('', (#118, #135, #174, #213, #252));
#118 = ADVANCED_FACE('', (#119), #130, .T.);
#119 = FACE_OUTER_BOUND('', #120, .T.);
#120 = EDGE_LOOP('', (#121));
#121 = ORIENTED_EDGE('', *, *, #122, .F.);
#122 = EDGE_CURVE('', #123, #123, #125, .T.);
#123 = VERTEX_POINT('', #124);
#124 = CARTESIAN_POINT('', (-10., 4.99043570652546E-15, -71.5));
#125 = CIRCLE('', #126, 10.);
#126 = AXIS2_PLACEMENT_3D('', #127, #128, #129);
#127 = CARTESIAN_POINT('', (3.33066907387547E-16, -2.44249065417534E-15, -71.5));
#128 = DIRECTION('', (0., 0., -1.));
#129 = DIRECTION('', (-1., 7.4329263607008E-16, 0.));
#130 = B_SPLINE_SURFACE_WITH_KNOTS('', 1, 1, ((#131, #132), (#133, #134)), .UNSPECIFIED., .F., .F., .U., (2, 2), (2, 2), (0.419254386104146, 0.523150834548009), (0.476849165451991, 0.580745613895854), .UNSPECIFIED.);
#131 = CARTESIAN_POINT('', (-10., 10., -71.5));
#132 = CARTESIAN_POINT('', (10., 10., -71.5));
#133 = CARTESIAN_POINT('', (-10., -10., -71.5));
#134 = CARTESIAN_POINT('', (10., -10., -71.5));
#135 = ADVANCED_FACE('', (#136), #155, .T.);
#136 = FACE_OUTER_BOUND('', #137, .T.);
#137 = EDGE_LOOP('', (#138, #139, #147, #154));
#138 = ORIENTED_EDGE('', *, *, #122, .T.);
#139 = ORIENTED_EDGE('', *, *, #140, .F.);
#140 = EDGE_CURVE('', #141, #123, #143, .T.);
#141 = VERTEX_POINT('', #142);
#142 = CARTESIAN_POINT('', (-10., 5.02105187650415E-15, -72.));
#143 = LINE('', #144, #145);
#144 = CARTESIAN_POINT('', (-10., 5.02105187650415E-15, -72.));
#145 = VECTOR('', #146, 0.5);
#146 = DIRECTION('', (0., -3.06161699786901E-17, 0.5));
#147 = ORIENTED_EDGE('', *, *, #148, .F.);
#148 = EDGE_CURVE('', #141, #141, #149, .T.);
#149 = CIRCLE('', #150, 10.);
#150 = AXIS2_PLACEMENT_3D('', #151, #152, #153);
#151 = CARTESIAN_POINT('', (1.60982338570648E-15, -8.88178419700125E-15, -72.));
#152 = DIRECTION('', (0., 0., -1.));
#153 = DIRECTION('', (-1., 1.39028360735054E-15, 0.));
#154 = ORIENTED_EDGE('', *, *, #140, .T.);
#155 = (
   BOUNDED_SURFACE ()
   B_SPLINE_SURFACE (1, 2, ((#156, #157, #158, #159, #160, #161, #162, #163, #164), (#165, #166, #167, #168, #169, #170, #171, #172, #173)), .UNSPECIFIED., .F., .T., .U.)
   B_SPLINE_SURFACE_WITH_KNOTS ((2, 2), (3, 2, 2, 2, 3), (0., 0.00704225352112675), (0., 15.707963267949, 31.415926535898, 47.1238898038469, 62.8318530717959), .UNSPECIFIED.)
   GEOMETRIC_REPRESENTATION_ITEM ()
   RATIONAL_B_SPLINE_SURFACE (((1., 0.707106781186548, 1., 0.707106781186548, 1., 0.707106781186548, 1., 0.707106781186548, 1.), (1., 0.707106781186548, 1., 0.707106781186548, 1., 0.707106781186548, 1., 0.707106781186548, 1.)))
   REPRESENTATION_ITEM ('')
   SURFACE ()
);
#156 = CARTESIAN_POINT('', (-10., 5.21248031145049E-15, -72.));
#157 = CARTESIAN_POINT('', (-10., 10., -72.));
#158 = CARTESIAN_POINT('', (6.03354023226253E-16, 10., -72.));
#159 = CARTESIAN_POINT('', (10., 10., -72.));
#160 = CARTESIAN_POINT('', (10., -2.65556588275295E-15, -72.));
#161 = CARTESIAN_POINT('', (9.99999999999999, -10., -72.));
#162 = CARTESIAN_POINT('', (-6.04004537182984E-15, -10., -72.));
#163 = CARTESIAN_POINT('', (-10., -10., -72.));
#164 = CARTESIAN_POINT('', (-10., 5.21248031145049E-15, -72.));
#165 = CARTESIAN_POINT('', (-10., 4.99043570652546E-15, -71.5));
#166 = CARTESIAN_POINT('', (-10., 10., -71.5));
#167 = CARTESIAN_POINT('', (6.03354023226253E-16, 10., -71.5));
#168 = CARTESIAN_POINT('', (10., 10., -71.5));
#169 = CARTESIAN_POINT('', (10., -2.87761048767798E-15, -71.5));
#170 = CARTESIAN_POINT('', (9.99999999999999, -10., -71.5));
#171 = CARTESIAN_POINT('', (-6.04004537182984E-15, -10., -71.5));
#172 = CARTESIAN_POINT('', (-10., -10., -71.5));
#173 = CARTESIAN_POINT('', (-10., 4.99043570652546E-15, -71.5));
#174 = ADVANCED_FACE('', (#175), #194, .T.);
#175 = FACE_OUTER_BOUND('', #176, .T.);
#176 = EDGE_LOOP('', (#177, #185, #186, #187));
#177 = ORIENTED_EDGE('', *, *, #178, .F.);
#178 = EDGE_CURVE('', #141, #179, #181, .T.);
#179 = VERTEX_POINT('', #180);
#180 = CARTESIAN_POINT('', (-10., 6.22732897366429E-15, -91.7));
#181 = LINE('', #182, #183);
#182 = CARTESIAN_POINT('', (-10., 5.02105187650415E-15, -72.));
#183 = VECTOR('', #184, 19.7);
#184 = DIRECTION('', (0., 1.20627709716014E-15, -19.7));
#185 = ORIENTED_EDGE('', *, *, #148, .T.);
#186 = ORIENTED_EDGE('', *, *, #178, .T.);
#187 = ORIENTED_EDGE('', *, *, #188, .F.);
#188 = EDGE_CURVE('', #179, #179, #189, .T.);
#189 = CIRCLE('', #190, 10.);
#190 = AXIS2_PLACEMENT_3D('', #191, #192, #193);
#191 = CARTESIAN_POINT('', (-3.19189119579733E-15, 8.88178419700125E-16, -91.7));
#192 = DIRECTION('', (0., 0., -1.));
#193 = DIRECTION('', (-1., 5.33915055396417E-16, 0.));
#194 = (
   BOUNDED_SURFACE ()
   B_SPLINE_SURFACE (2, 1, ((#195, #196), (#197, #198), (#199, #200), (#201, #202), (#203, #204), (#205, #206), (#207, #208), (#209, #210), (#211, #212)), .UNSPECIFIED., .T., .F., .U.)
   B_SPLINE_SURFACE_WITH_KNOTS ((3, 2, 2, 2, 3), (2, 2), (0., 15.707963267949, 31.415926535898, 47.1238898038469, 62.8318530717959), (0., 1.), .UNSPECIFIED.)
   GEOMETRIC_REPRESENTATION_ITEM ()
   RATIONAL_B_SPLINE_SURFACE (((1., 1.), (0.707106781186548, 0.707106781186548), (1., 1.), (0.707106781186548, 0.707106781186548), (1., 1.), (0.707106781186548, 0.707106781186548), (1., 1.), (0.707106781186548, 0.707106781186548), (1., 1.)))
   REPRESENTATION_ITEM ('')
   SURFACE ()
);
#195 = CARTESIAN_POINT('', (-10., 5.02105187650415E-15, -72.));
#196 = CARTESIAN_POINT('', (-10., 5.24309648142918E-15, -91.7));
#197 = CARTESIAN_POINT('', (-10., 10., -72.));
#198 = CARTESIAN_POINT('', (-10., 10., -91.7));
#199 = CARTESIAN_POINT('', (4.11925588279911E-16, 10., -72.));
#200 = CARTESIAN_POINT('', (4.11925588279911E-16, 10., -91.7));
#201 = CARTESIAN_POINT('', (10., 10., -72.));
#202 = CARTESIAN_POINT('', (10., 10., -91.7));
#203 = CARTESIAN_POINT('', (10., -2.46413744780661E-15, -72.));
#204 = CARTESIAN_POINT('', (10., -2.24209284288158E-15, -91.7));
#205 = CARTESIAN_POINT('', (9.99999999999999, -10., -72.));
#206 = CARTESIAN_POINT('', (9.99999999999999, -10., -91.7));
#207 = CARTESIAN_POINT('', (-5.8486169368835E-15, -10., -72.));
#208 = CARTESIAN_POINT('', (-5.8486169368835E-15, -10., -91.7));
#209 = CARTESIAN_POINT('', (-10., -10., -72.));
#210 = CARTESIAN_POINT('', (-10., -10., -91.7));
#211 = CARTESIAN_POINT('', (-10., 5.02105187650415E-15, -72.));
#212 = CARTESIAN_POINT('', (-10., 5.24309648142918E-15, -91.7));
#213 = ADVANCED_FACE('', (#214), #233, .T.);
#214 = FACE_OUTER_BOUND('', #215, .T.);
#215 = EDGE_LOOP('', (#216, #224, #225, #226));
#216 = ORIENTED_EDGE('', *, *, #217, .F.);
#217 = EDGE_CURVE('', #179, #218, #220, .T.);
#218 = VERTEX_POINT('', #219);
#219 = CARTESIAN_POINT('', (-9.7, 6.22732897366429E-15, -92.));
#220 = LINE('', #221, #222);
#221 = CARTESIAN_POINT('', (-10., 6.22732897366429E-15, -91.7));
#222 = VECTOR('', #223, 0.424264068711927);
#223 = DIRECTION('', (0.300000000000001, 0., -0.299999999999997));
#224 = ORIENTED_EDGE('', *, *, #188, .T.);
#225 = ORIENTED_EDGE('', *, *, #217, .T.);
#226 = ORIENTED_EDGE('', *, *, #227, .F.);
#227 = EDGE_CURVE('', #218, #218, #228, .T.);
#228 = CIRCLE('', #229, 9.7);
#229 = AXIS2_PLACEMENT_3D('', #230, #231, #232);
#230 = CARTESIAN_POINT('', (8.32667268468867E-16, 8.65973959207622E-15, -92.));
#231 = DIRECTION('', (0., 0., -1.));
#232 = DIRECTION('', (-1., -2.50763981279581E-16, 0.));
#233 = (
   BOUNDED_SURFACE ()
   B_SPLINE_SURFACE (2, 1, ((#234, #235), (#236, #237), (#238, #239), (#240, #241), (#242, #243), (#244, #245), (#246, #247), (#248, #249), (#250, #251)), .UNSPECIFIED., .T., .F., .U.)
   B_SPLINE_SURFACE_WITH_KNOTS ((3, 2, 2, 2, 3), (2, 2), (0., 0.25, 0.5, 0.75, 1.), (0., 1.), .UNSPECIFIED.)
   GEOMETRIC_REPRESENTATION_ITEM ()
   RATIONAL_B_SPLINE_SURFACE (((1., 1.), (0.707106781186548, 0.707106781186548), (1., 1.), (0.707106781186548, 0.707106781186548), (1., 1.), (0.707106781186548, 0.707106781186548), (1., 1.), (0.707106781186548, 0.707106781186548), (1., 1.)))
   REPRESENTATION_ITEM ('')
   SURFACE ()
);
#234 = CARTESIAN_POINT('', (-10., 6.22732897366429E-15, -91.7));
#235 = CARTESIAN_POINT('', (-9.7, 1.53463984968624E-14, -92.));
#236 = CARTESIAN_POINT('', (-9.99999999999999, 10., -91.6999999999997));
#237 = CARTESIAN_POINT('', (-9.69999999999999, 9.70000000000001, -91.9999999999997));
#238 = CARTESIAN_POINT('', (5.0321384861624E-15, 10., -91.6999999999997));
#239 = CARTESIAN_POINT('', (4.84370430449644E-15, 9.70000000000001, -91.9999999999997));
#240 = CARTESIAN_POINT('', (10., 9.99999999999999, -91.6999999999997));
#241 = CARTESIAN_POINT('', (9.7, 9.7, -91.9999999999997));
#242 = CARTESIAN_POINT('', (9.99999999999999, -6.33494980406712E-15, -91.7));
#243 = CARTESIAN_POINT('', (9.7, 3.16098808246295E-15, -92.));
#244 = CARTESIAN_POINT('', (9.99999999999999, -10., -91.7000000000003));
#245 = CARTESIAN_POINT('', (9.69999999999999, -9.69999999999999, -92.0000000000003));
#246 = CARTESIAN_POINT('', (-6.30549349242165E-15, -10., -91.7000000000003));
#247 = CARTESIAN_POINT('', (-6.1537987147301E-15, -9.69999999999999, -92.0000000000003));
#248 = CARTESIAN_POINT('', (-10., -9.99999999999999, -91.7000000000003));
#249 = CARTESIAN_POINT('', (-9.7, -9.69999999999999, -92.0000000000003));
#250 = CARTESIAN_POINT('', (-10., 6.22732897366429E-15, -91.7));
#251 = CARTESIAN_POINT('', (-9.7, 1.53463984968624E-14, -92.));
#252 = ADVANCED_FACE('', (#253), #256, .T.);
#253 = FACE_OUTER_BOUND('', #254, .T.);
#254 = EDGE_LOOP('', (#255));
#255 = ORIENTED_EDGE('', *, *, #227, .T.);
#256 = B_SPLINE_SURFACE_WITH_KNOTS('', 1, 1, ((#257, #258), (#259, #260)), .UNSPECIFIED., .F., .F., .U., (2, 2), (2, 2), (0.0454545454545454, 0.954545454545454), (0.0454545454545454, 0.954545454545454), .UNSPECIFIED.);
#257 = CARTESIAN_POINT('', (9.7, -9.7, -92.));
#258 = CARTESIAN_POINT('', (9.7, 9.7, -92.));
#259 = CARTESIAN_POINT('', (-9.7, -9.7, -92.));
#260 = CARTESIAN_POINT('', (-9.7, 9.7, -92.));
#261 = PRESENTATION_STYLE_ASSIGNMENT((#262));
#262 = SURFACE_STYLE_USAGE(.POSITIVE., #263);
#263 = SURFACE_SIDE_STYLE('', (#264));
#264 = SURFACE_STYLE_FILL_AREA(#265);
#265 = FILL_AREA_STYLE('', (#266));
#266 = FILL_AREA_STYLE_COLOUR('', #267);
#267 = COLOUR_RGB('', 0.8, 0.8, 0.8);
#268 = STYLED_ITEM('', (#261), #116);
#269 = TRIMMED_CURVE('cutting part line', #270, (#274), (#275), .T., .CARTESIAN.);
#270 = LINE('', #271, #272);
#271 = CARTESIAN_POINT('', (-9.71445146547012E-16, 0., -92.));
#272 = VECTOR('', #273, 9.7);
#273 = DIRECTION('', (9.7, 0., 0.));
#274 = CARTESIAN_POINT('', (-9.71445146547012E-16, 0., -92.));
#275 = CARTESIAN_POINT('', (9.7, 0., -92.));
#276 = TRIMMED_CURVE('cutting part line', #277, (#281), (#282), .T., .CARTESIAN.);
#277 = LINE('', #278, #279);
#278 = CARTESIAN_POINT('', (9.7, 8.63662260039745E-15, -92.));
#279 = VECTOR('', #280, 0.424264068711926);
#280 = DIRECTION('', (0.299999999999999, -9.32445303116057E-15, 0.299999999999997));
#281 = CARTESIAN_POINT('', (9.7, 8.63662260039745E-15, -92.));
#282 = CARTESIAN_POINT('', (9.99999999999999, -6.87830430763124E-16, -91.7));
#283 = TRIMMED_CURVE('cutting part line', #284, (#288), (#289), .T., .CARTESIAN.);
#284 = LINE('', #285, #286);
#285 = CARTESIAN_POINT('', (10., 2.22010786456204E-16, -91.7));
#286 = VECTOR('', #287, 19.7);
#287 = DIRECTION('', (0., -2.22010786456204E-16, 19.7));
#288 = CARTESIAN_POINT('', (10., 2.22010786456204E-16, -91.7));
#289 = CARTESIAN_POINT('', (10., 0., -72.));
#290 = TRIMMED_CURVE('cutting part line', #291, (#295), (#296), .T., .CARTESIAN.);
#291 = LINE('', #292, #293);
#292 = CARTESIAN_POINT('', (10., 2.22010786456208E-16, -72.));
#293 = VECTOR('', #294, 0.500000000000014);
#294 = DIRECTION('', (0., -2.22010786456208E-16, 0.500000000000014));
#295 = CARTESIAN_POINT('', (10., 2.22010786456208E-16, -72.));
#296 = CARTESIAN_POINT('', (10., 0., -71.5));
#297 = TRIMMED_CURVE('cutting part line', #298, (#302), (#303), .T., .CARTESIAN.);
#298 = LINE('', #299, #300);
#299 = CARTESIAN_POINT('', (10., 0., -71.5));
#300 = VECTOR('', #301, 10.);
#301 = DIRECTION('', (-10., 0., 0.));
#302 = CARTESIAN_POINT('', (10., 0., -71.5));
#303 = CARTESIAN_POINT('', (0., 0., -71.5));
#304 = TRIMMED_CURVE('cutting part line', #305, (#309), (#310), .T., .CARTESIAN.);
#305 = LINE('', #306, #307);
#306 = CARTESIAN_POINT('', (0., 0., -71.5));
#307 = VECTOR('', #308, 20.5000000000003);
#308 = DIRECTION('', (0., 0., -20.5000000000003));
#309 = CARTESIAN_POINT('', (0., 0., -71.5));
#310 = CARTESIAN_POINT('', (0., 0., -92.0000000000003));
#311 = COMPOSITE_CURVE('cutting part line', (#312, #313, #314, #315, #316, #317), .U.);
#312 = COMPOSITE_CURVE_SEGMENT(.CONTINUOUS., .T., #269);
#313 = COMPOSITE_CURVE_SEGMENT(.CONTINUOUS., .T., #276);
#314 = COMPOSITE_CURVE_SEGMENT(.CONTINUOUS., .T., #283);
#315 = COMPOSITE_CURVE_SEGMENT(.CONTINUOUS., .T., #290);
#316 = COMPOSITE_CURVE_SEGMENT(.CONTINUOUS., .T., #297);
#317 = COMPOSITE_CURVE_SEGMENT(.CONTINUOUS., .T., #304);
#318 = GEOMETRIC_SET('', (#311, #366));
#319 = PRESENTATION_STYLE_ASSIGNMENT((#320));
#320 = CURVE_STYLE('', #322, POSITIVE_LENGTH_MEASURE(1.E-6), #321);
#321 = COLOUR_RGB('', 0., 0., 1.);
#322 = DRAUGHTING_PRE_DEFINED_CURVE_FONT('continuous');
#323 = STYLED_ITEM('', (#319), #311);
#324 = PRESENTATION_STYLE_ASSIGNMENT((#325));
#325 = CURVE_STYLE('', #327, POSITIVE_LENGTH_MEASURE(1.E-6), #326);
#326 = COLOUR_RGB('', 0., 0., 1.);
#327 = DRAUGHTING_PRE_DEFINED_CURVE_FONT('continuous');
#328 = OVER_RIDING_STYLED_ITEM('', (#324), #269, #323);
#329 = PRESENTATION_STYLE_ASSIGNMENT((#330));
#330 = CURVE_STYLE('', #332, POSITIVE_LENGTH_MEASURE(1.E-6), #331);
#331 = COLOUR_RGB('', 0., 0., 1.);
#332 = DRAUGHTING_PRE_DEFINED_CURVE_FONT('continuous');
#333 = OVER_RIDING_STYLED_ITEM('', (#329), #276, #323);
#334 = PRESENTATION_STYLE_ASSIGNMENT((#335));
#335 = CURVE_STYLE('', #337, POSITIVE_LENGTH_MEASURE(1.E-6), #336);
#336 = COLOUR_RGB('', 0., 0., 1.);
#337 = DRAUGHTING_PRE_DEFINED_CURVE_FONT('continuous');
#338 = OVER_RIDING_STYLED_ITEM('', (#334), #283, #323);
#339 = PRESENTATION_STYLE_ASSIGNMENT((#340));
#340 = CURVE_STYLE('', #342, POSITIVE_LENGTH_MEASURE(1.E-6), #341);
#341 = COLOUR_RGB('', 0., 0., 1.);
#342 = DRAUGHTING_PRE_DEFINED_CURVE_FONT('continuous');
#343 = OVER_RIDING_STYLED_ITEM('', (#339), #290, #323);
#344 = PRESENTATION_STYLE_ASSIGNMENT((#345));
#345 = CURVE_STYLE('', #347, POSITIVE_LENGTH_MEASURE(1.E-6), #346);
#346 = COLOUR_RGB('', 0., 0., 1.);
#347 = DRAUGHTING_PRE_DEFINED_CURVE_FONT('continuous');
#348 = OVER_RIDING_STYLED_ITEM('', (#344), #297, #323);
#349 = PRESENTATION_STYLE_ASSIGNMENT((#350));
#350 = CURVE_STYLE('', #352, POSITIVE_LENGTH_MEASURE(1.E-6), #351);
#351 = COLOUR_RGB('', 0., 0., 1.);
#352 = DRAUGHTING_PRE_DEFINED_CURVE_FONT('continuous');
#353 = OVER_RIDING_STYLED_ITEM('', (#349), #304, #323);
#354 = AXIS2_PLACEMENT_3D('MCS', #355, #356, #357);
#355 = CARTESIAN_POINT('', (0., 0., -50.));
#356 = DIRECTION('', (0., 0., 1.));
#357 = DIRECTION('', (1., 0., 0.));
#358 = AXIS2_PLACEMENT_3D('PCS', #359, #360, #361);
#359 = CARTESIAN_POINT('', (0., 0., 0.));
#360 = DIRECTION('', (0., 0., 1.));
#361 = DIRECTION('', (1., 0., 0.));
#362 = AXIS2_PLACEMENT_3D('CIP', #363, #364, #365);
#363 = CARTESIAN_POINT('', (0., 0., -92.0000000000003));
#364 = DIRECTION('', (0., 0., 1.));
#365 = DIRECTION('', (1., 0., 0.));
#366 = CARTESIAN_POINT('CRP', (10., 0., -92.0000000000003));
#367 = (
   GEOMETRIC_REPRESENTATION_CONTEXT (3)
   GLOBAL_UNCERTAINTY_ASSIGNED_CONTEXT ((#369))
   GLOBAL_UNIT_ASSIGNED_CONTEXT ((#368, #370, #371))
   REPRESENTATION_CONTEXT ('', '3D')
);
#368 = (
   LENGTH_UNIT ()
   NAMED_UNIT (*)
   SI_UNIT (.MILLI., .METRE.)
);
#369 = UNCERTAINTY_MEASURE_WITH_UNIT(LENGTH_MEASURE(1.E-6), #368, 'DISTANCE_ACCURACY_VALUE', '');
#370 = (
   NAMED_UNIT (*)
   SI_UNIT ($, .STERADIAN.)
   SOLID_ANGLE_UNIT ()
);
#371 = (
   NAMED_UNIT (*)
   PLANE_ANGLE_UNIT ()
   SI_UNIT ($, .RADIAN.)
);
#372 = SHAPE_REPRESENTATION('', (), #367);
#373 = PRODUCT_DEFINITION_SHAPE('', '', #374);
#374 = PRODUCT_DEFINITION('', '', #377, #381);
#375 = APPLICATION_CONTEXT('configuration controlled 3D designs of mechanical parts and assemblies');
#376 = APPLICATION_PROTOCOL_DEFINITION('International Standard', 'automotive_design', 2002, #375);
#377 = PRODUCT_DEFINITION_FORMATION_WITH_SPECIFIED_SOURCE('', '', #378, .NOT_KNOWN.);
#378 = PRODUCT('product-name', '1P221-2000-XB       1630', '', (#379));
#379 = PRODUCT_CONTEXT('', #375, 'mechanical');
#380 = PRODUCT_RELATED_PRODUCT_CATEGORY('detail', '', (#378));
#381 = PRODUCT_DEFINITION_CONTEXT('part definition', #375, 'design');
#382 = SHAPE_DEFINITION_REPRESENTATION(#373, #372);
#383 = CONSTRUCTIVE_GEOMETRY_REPRESENTATION('supplemental geometry', (#354, #358, #362), #367);
#384 = CONSTRUCTIVE_GEOMETRY_REPRESENTATION_RELATIONSHIP('', '', #372, #383);
#385 = SHAPE_REPRESENTATION_RELATIONSHIP('', '', #372, #386);
#386 = SHAPE_REPRESENTATION('', (#318), #367);
#387 = SHAPE_REPRESENTATION_RELATIONSHIP('', '', #372, #388);
#388 = ADVANCED_BREP_SHAPE_REPRESENTATION('', (#1, #116), #367);
ENDSEC;
END-ISO-10303-21;
