ISO-10303-21;
HEADER;
FILE_DESCRIPTION(('STEP'), '1');
FILE_NAME('C:\\Users\\ds2002\\OneDrive - Sandvik\\HomeShare\\Documents\\Batchrepair\\CorSRT2\\NEW_MILSQ_SLD\\Output\\MOD000000000000000020082241300000.stp', '2019-01-02T12:06:23', (''), (''), 'Express v3.0.0.0', 'Express Tool', 'Unknown');
FILE_SCHEMA(('AUTOMOTIVE_DESIGN'));
ENDSEC;

DATA;
#1 = MANIFOLD_SOLID_BREP('NOCUT', #2);
#2 = CLOSED_SHELL('', (#3, #50, #89, #98, #137));
#3 = ADVANCED_FACE('', (#4), #31, .T.);
#4 = FACE_OUTER_BOUND('', #5, .T.);
#5 = EDGE_LOOP('', (#6, #16, #23, #24));
#6 = ORIENTED_EDGE('', *, *, #7, .T.);
#7 = EDGE_CURVE('', #8, #10, #12, .T.);
#8 = VERTEX_POINT('', #9);
#9 = CARTESIAN_POINT('', (-6., 3.12284933782575E-15, -45.));
#10 = VERTEX_POINT('', #11);
#11 = CARTESIAN_POINT('', (-6., 4.04133443718627E-16, -0.600000000000001));
#12 = LINE('', #13, #14);
#13 = CARTESIAN_POINT('', (-6., 3.12284933782575E-15, -45.));
#14 = VECTOR('', #15, 44.4);
#15 = DIRECTION('', (0., -2.71871589410712E-15, 44.4));
#16 = ORIENTED_EDGE('', *, *, #17, .T.);
#17 = EDGE_CURVE('', #10, #10, #18, .T.);
#18 = CIRCLE('', #19, 6.);
#19 = AXIS2_PLACEMENT_3D('', #20, #21, #22);
#20 = CARTESIAN_POINT('', (1.47104550762833E-15, -5.55111512312578E-16, -0.600000000000001));
#21 = DIRECTION('', (-1.85037170770859E-17, 1.23176547656001E-16, -1.));
#22 = DIRECTION('', (-1., 1.59874159338534E-16, 1.85037170770859E-17));
#23 = ORIENTED_EDGE('', *, *, #7, .F.);
#24 = ORIENTED_EDGE('', *, *, #25, .F.);
#25 = EDGE_CURVE('', #8, #8, #26, .T.);
#26 = CIRCLE('', #27, 6.);
#27 = AXIS2_PLACEMENT_3D('', #28, #29, #30);
#28 = CARTESIAN_POINT('', (5.55111512312578E-16, 2.33146835171283E-15, -45.));
#29 = DIRECTION('', (0., 0., -1.));
#30 = DIRECTION('', (-1., 1.3189683101882E-16, 0.));
#31 = (
   BOUNDED_SURFACE ()
   B_SPLINE_SURFACE (1, 2, ((#32, #33, #34, #35, #36, #37, #38, #39, #40), (#41, #42, #43, #44, #45, #46, #47, #48, #49)), .UNSPECIFIED., .F., .T., .U.)
   B_SPLINE_SURFACE_WITH_KNOTS ((2, 2), (3, 2, 2, 2, 3), (0., 1.), (0., 9.42477796076938, 18.8495559215388, 28.2743338823081, 37.6991118430775), .UNSPECIFIED.)
   GEOMETRIC_REPRESENTATION_ITEM ()
   RATIONAL_B_SPLINE_SURFACE (((1., 0.707106781186548, 1., 0.707106781186548, 1., 0.707106781186548, 1., 0.707106781186548, 1.), (1., 0.707106781186548, 1., 0.707106781186548, 1., 0.707106781186548, 1., 0.707106781186548, 1.)))
   REPRESENTATION_ITEM ('')
   SURFACE ()
);
#32 = CARTESIAN_POINT('', (-6., -3.99557661314357E-17, -45.));
#33 = CARTESIAN_POINT('', (-6., 6., -45.));
#34 = CARTESIAN_POINT('', (1.24133138569272E-15, 6., -45.));
#35 = CARTESIAN_POINT('', (6., 6., -45.));
#36 = CARTESIAN_POINT('', (6., -1.22365759870543E-15, -45.));
#37 = CARTESIAN_POINT('', (6., -6., -45.));
#38 = CARTESIAN_POINT('', (7.92417632607129E-16, -6., -45.));
#39 = CARTESIAN_POINT('', (-6., -6., -45.));
#40 = CARTESIAN_POINT('', (-6., -3.99557661314357E-17, -45.));
#41 = CARTESIAN_POINT('', (-6., 4.04133443718627E-16, -0.600000000000001));
#42 = CARTESIAN_POINT('', (-6., 6., -0.600000000000001));
#43 = CARTESIAN_POINT('', (2.06289642391533E-15, 6., -0.600000000000001));
#44 = CARTESIAN_POINT('', (6., 6., -0.600000000000001));
#45 = CARTESIAN_POINT('', (6., -7.79568388855371E-16, -0.600000000000001));
#46 = CARTESIAN_POINT('', (6., -6., -0.600000000000001));
#47 = CARTESIAN_POINT('', (1.61398267082975E-15, -6., -0.600000000000001));
#48 = CARTESIAN_POINT('', (-6., -6., -0.600000000000001));
#49 = CARTESIAN_POINT('', (-6., 4.04133443718627E-16, -0.600000000000001));
#50 = ADVANCED_FACE('', (#51), #70, .T.);
#51 = FACE_OUTER_BOUND('', #52, .T.);
#52 = EDGE_LOOP('', (#53, #61, #68, #69));
#53 = ORIENTED_EDGE('', *, *, #54, .T.);
#54 = EDGE_CURVE('', #10, #55, #57, .T.);
#55 = VERTEX_POINT('', #56);
#56 = CARTESIAN_POINT('', (-5.4, 3.30654635769785E-16, 0.));
#57 = LINE('', #58, #59);
#58 = CARTESIAN_POINT('', (-6., 4.04133443718627E-16, -0.600000000000001));
#59 = VECTOR('', #60, 0.848528137423857);
#60 = DIRECTION('', (0.6, -7.3478807948842E-17, 0.600000000000001));
#61 = ORIENTED_EDGE('', *, *, #62, .T.);
#62 = EDGE_CURVE('', #55, #55, #63, .T.);
#63 = CIRCLE('', #64, 5.4);
#64 = AXIS2_PLACEMENT_3D('', #65, #66, #67);
#65 = CARTESIAN_POINT('', (1.84574577843932E-15, -2.55351295663786E-15, -1.4791141972894E-31));
#66 = DIRECTION('', (5.31350199692362E-33, 6.12323399573676E-17, -1.));
#67 = DIRECTION('', (-1., 5.34105109705119E-16, 2.73910036535073E-32));
#68 = ORIENTED_EDGE('', *, *, #54, .F.);
#69 = ORIENTED_EDGE('', *, *, #17, .F.);
#70 = (
   BOUNDED_SURFACE ()
   B_SPLINE_SURFACE (1, 2, ((#71, #72, #73, #74, #75, #76, #77, #78, #79), (#80, #81, #82, #83, #84, #85, #86, #87, #88)), .UNSPECIFIED., .F., .T., .U.)
   B_SPLINE_SURFACE_WITH_KNOTS ((2, 2), (3, 2, 2, 2, 3), (0., 1.), (0., 0.25, 0.5, 0.75, 1.), .UNSPECIFIED.)
   GEOMETRIC_REPRESENTATION_ITEM ()
   RATIONAL_B_SPLINE_SURFACE (((1., 0.707106781186548, 1., 0.707106781186548, 1., 0.707106781186548, 1., 0.707106781186548, 1.), (1., 0.707106781186548, 1., 0.707106781186548, 1., 0.707106781186548, 1., 0.707106781186548, 1.)))
   REPRESENTATION_ITEM ('')
   SURFACE ()
);
#71 = CARTESIAN_POINT('', (-6., 2.98258605330568E-15, -0.600000000000001));
#72 = CARTESIAN_POINT('', (-6., 6., -0.599999999999978));
#73 = CARTESIAN_POINT('', (4.68298239692583E-15, 6., -0.599999999999978));
#74 = CARTESIAN_POINT('', (6., 6., -0.599999999999978));
#75 = CARTESIAN_POINT('', (6., -2.69188718366733E-15, -0.600000000000001));
#76 = CARTESIAN_POINT('', (6., -6., -0.600000000000024));
#77 = CARTESIAN_POINT('', (-2.56702760558774E-16, -6., -0.600000000000024));
#78 = CARTESIAN_POINT('', (-6., -6., -0.600000000000024));
#79 = CARTESIAN_POINT('', (-6., 2.98258605330568E-15, -0.600000000000001));
#80 = CARTESIAN_POINT('', (-5.4, 3.30654635769784E-16, -6.56858655152258E-47));
#81 = CARTESIAN_POINT('', (-5.4, 5.4, 2.09832151654154E-14));
#82 = CARTESIAN_POINT('', (4.39925873507718E-15, 5.4, 2.09832151654154E-14));
#83 = CARTESIAN_POINT('', (5.4, 5.4, 2.09832151654154E-14));
#84 = CARTESIAN_POINT('', (5.4, -4.77637127750593E-15, 2.27387988935674E-30));
#85 = CARTESIAN_POINT('', (5.4, -5.40000000000001, -2.09832151654154E-14));
#86 = CARTESIAN_POINT('', (-4.64579066589654E-17, -5.4, -2.09832151654154E-14));
#87 = CARTESIAN_POINT('', (-5.4, -5.4, -2.09832151654154E-14));
#88 = CARTESIAN_POINT('', (-5.4, 3.30654635769784E-16, -6.56858655152258E-47));
#89 = ADVANCED_FACE('', (#90), #93, .T.);
#90 = FACE_OUTER_BOUND('', #91, .T.);
#91 = EDGE_LOOP('', (#92));
#92 = ORIENTED_EDGE('', *, *, #62, .F.);
#93 = B_SPLINE_SURFACE_WITH_KNOTS('', 1, 1, ((#94, #95), (#96, #97)), .UNSPECIFIED., .F., .F., .U., (2, 2), (2, 2), (0.0454545454545454, 0.954545454545454), (0.0454545454545454, 0.954545454545454), .UNSPECIFIED.);
#94 = CARTESIAN_POINT('', (5.4, -5.4, -3.30654635769785E-16));
#95 = CARTESIAN_POINT('', (-5.4, -5.4, -3.30654635769785E-16));
#96 = CARTESIAN_POINT('', (5.4, 5.4, 3.30654635769785E-16));
#97 = CARTESIAN_POINT('', (-5.4, 5.4, 3.30654635769785E-16));
#98 = ADVANCED_FACE('', (#99), #118, .T.);
#99 = FACE_OUTER_BOUND('', #100, .T.);
#100 = EDGE_LOOP('', (#101, #110, #116, #117));
#101 = ORIENTED_EDGE('', *, *, #102, .F.);
#102 = EDGE_CURVE('', #103, #103, #105, .T.);
#103 = VERTEX_POINT('', #104);
#104 = CARTESIAN_POINT('', (-6., 4.07195060716495E-15, -60.5));
#105 = CIRCLE('', #106, 6.);
#106 = AXIS2_PLACEMENT_3D('', #107, #108, #109);
#107 = CARTESIAN_POINT('', (1.02695629777827E-15, 1.88737914186277E-15, -60.5));
#108 = DIRECTION('', (0., 0., -1.));
#109 = DIRECTION('', (-1., 3.64095244217031E-16, 0.));
#110 = ORIENTED_EDGE('', *, *, #111, .F.);
#111 = EDGE_CURVE('', #8, #103, #112, .T.);
#112 = LINE('', #113, #114);
#113 = CARTESIAN_POINT('', (-6., 3.12284933782575E-15, -45.));
#114 = VECTOR('', #115, 15.5);
#115 = DIRECTION('', (0., 9.491012693392E-16, -15.5));
#116 = ORIENTED_EDGE('', *, *, #25, .T.);
#117 = ORIENTED_EDGE('', *, *, #111, .T.);
#118 = (
   BOUNDED_SURFACE ()
   B_SPLINE_SURFACE (2, 1, ((#119, #120), (#121, #122), (#123, #124), (#125, #126), (#127, #128), (#129, #130), (#131, #132), (#133, #134), (#135, #136)), .UNSPECIFIED., .T., .F., .U.)
   B_SPLINE_SURFACE_WITH_KNOTS ((3, 2, 2, 2, 3), (2, 2), (0., 9.42477796076938, 18.8495559215388, 28.2743338823081, 37.6991118430775), (0., 0.557553956834532), .UNSPECIFIED.)
   GEOMETRIC_REPRESENTATION_ITEM ()
   RATIONAL_B_SPLINE_SURFACE (((1., 1.), (0.707106781186548, 0.707106781186548), (1., 1.), (0.707106781186548, 0.707106781186548), (1., 1.), (0.707106781186548, 0.707106781186548), (1., 1.), (0.707106781186548, 0.707106781186548), (1., 1.)))
   REPRESENTATION_ITEM ('')
   SURFACE ()
);
#119 = CARTESIAN_POINT('', (-6., 3.12284933782575E-15, -45.));
#120 = CARTESIAN_POINT('', (-6., 4.23307236245091E-15, -60.5));
#121 = CARTESIAN_POINT('', (-6., 6., -45.));
#122 = CARTESIAN_POINT('', (-6., 6.00000000000001, -60.5));
#123 = CARTESIAN_POINT('', (4.61507886432868E-15, 6., -45.));
#124 = CARTESIAN_POINT('', (4.61507886432868E-15, 6., -60.5));
#125 = CARTESIAN_POINT('', (6.00000000000001, 6., -45.));
#126 = CARTESIAN_POINT('', (6.00000000000001, 6., -60.5));
#127 = CARTESIAN_POINT('', (6., -4.38646270266262E-15, -45.));
#128 = CARTESIAN_POINT('', (6., -3.27623967803746E-15, -60.5));
#129 = CARTESIAN_POINT('', (6., -6.00000000000001, -45.));
#130 = CARTESIAN_POINT('', (6., -6., -60.5));
#131 = CARTESIAN_POINT('', (-2.15944509667128E-15, -6., -45.));
#132 = CARTESIAN_POINT('', (-2.15944509667128E-15, -6., -60.5));
#133 = CARTESIAN_POINT('', (-6., -6., -45.));
#134 = CARTESIAN_POINT('', (-6., -6., -60.5));
#135 = CARTESIAN_POINT('', (-6., 3.12284933782575E-15, -45.));
#136 = CARTESIAN_POINT('', (-6., 4.23307236245091E-15, -60.5));
#137 = ADVANCED_FACE('', (#138), #141, .T.);
#138 = FACE_OUTER_BOUND('', #139, .T.);
#139 = EDGE_LOOP('', (#140));
#140 = ORIENTED_EDGE('', *, *, #102, .T.);
#141 = B_SPLINE_SURFACE_WITH_KNOTS('', 1, 1, ((#142, #143), (#144, #145)), .UNSPECIFIED., .F., .F., .U., (2, 2), (2, 2), (0.486291626490008, 0.566348570602372), (0.433651429397628, 0.513708373509991), .UNSPECIFIED.);
#142 = CARTESIAN_POINT('', (-6.00000000000001, 6.00000000000003, -60.5));
#143 = CARTESIAN_POINT('', (-6.00000000000001, -5.99999999999997, -60.5));
#144 = CARTESIAN_POINT('', (5.99999999999999, 6.00000000000003, -60.5));
#145 = CARTESIAN_POINT('', (5.99999999999999, -5.99999999999997, -60.5));
#146 = DRAUGHTING_MODEL('', (#154, #268, #315, #320, #325, #330, #335, #340), #354);
#147 = PRESENTATION_STYLE_ASSIGNMENT((#148));
#148 = SURFACE_STYLE_USAGE(.POSITIVE., #149);
#149 = SURFACE_SIDE_STYLE('', (#150));
#150 = SURFACE_STYLE_FILL_AREA(#151);
#151 = FILL_AREA_STYLE('', (#152));
#152 = FILL_AREA_STYLE_COLOUR('', #153);
#153 = COLOUR_RGB('', 0.50196078431373, 0.50196078431373, 0.50196078431373);
#154 = STYLED_ITEM('', (#147), #1);
#155 = MANIFOLD_SOLID_BREP('CUT', #156);
#156 = CLOSED_SHELL('', (#157, #174, #213, #252));
#157 = ADVANCED_FACE('', (#158), #169, .T.);
#158 = FACE_OUTER_BOUND('', #159, .T.);
#159 = EDGE_LOOP('', (#160));
#160 = ORIENTED_EDGE('', *, *, #161, .F.);
#161 = EDGE_CURVE('', #162, #162, #164, .T.);
#162 = VERTEX_POINT('', #163);
#163 = CARTESIAN_POINT('', (-6., 4.07195060716495E-15, -60.5));
#164 = CIRCLE('', #165, 6.);
#165 = AXIS2_PLACEMENT_3D('', #166, #167, #168);
#166 = CARTESIAN_POINT('', (1.02695629777827E-15, 1.88737914186277E-15, -60.5));
#167 = DIRECTION('', (0., 0., -1.));
#168 = DIRECTION('', (-1., 3.64095244217031E-16, 0.));
#169 = B_SPLINE_SURFACE_WITH_KNOTS('', 1, 1, ((#170, #171), (#172, #173)), .UNSPECIFIED., .F., .F., .U., (2, 2), (2, 2), (0.433651429397628, 0.513708373509992), (0.486291626490008, 0.566348570602372), .UNSPECIFIED.);
#170 = CARTESIAN_POINT('', (-6., 6.00000000000001, -60.5));
#171 = CARTESIAN_POINT('', (6., 6.00000000000001, -60.5));
#172 = CARTESIAN_POINT('', (-6., -6., -60.5));
#173 = CARTESIAN_POINT('', (6., -6., -60.5));
#174 = ADVANCED_FACE('', (#175), #194, .T.);
#175 = FACE_OUTER_BOUND('', #176, .T.);
#176 = EDGE_LOOP('', (#177, #178, #186, #193));
#177 = ORIENTED_EDGE('', *, *, #161, .T.);
#178 = ORIENTED_EDGE('', *, *, #179, .T.);
#179 = EDGE_CURVE('', #162, #180, #182, .T.);
#180 = VERTEX_POINT('', #181);
#181 = CARTESIAN_POINT('', (-6., 4.82510838864057E-15, -72.8));
#182 = LINE('', #183, #184);
#183 = CARTESIAN_POINT('', (-6., 4.07195060716495E-15, -60.5));
#184 = VECTOR('', #185, 12.3);
#185 = DIRECTION('', (0., 7.5315778147562E-16, -12.3));
#186 = ORIENTED_EDGE('', *, *, #187, .F.);
#187 = EDGE_CURVE('', #180, #180, #188, .T.);
#188 = CIRCLE('', #189, 6.);
#189 = AXIS2_PLACEMENT_3D('', #190, #191, #192);
#190 = CARTESIAN_POINT('', (1.19348975147204E-15, -1.77635683940025E-15, -72.8));
#191 = DIRECTION('', (0., 0., -1.));
#192 = DIRECTION('', (-1., 1.10024420467347E-15, 0.));
#193 = ORIENTED_EDGE('', *, *, #179, .F.);
#194 = (
   BOUNDED_SURFACE ()
   B_SPLINE_SURFACE (2, 1, ((#195, #196), (#197, #198), (#199, #200), (#201, #202), (#203, #204), (#205, #206), (#207, #208), (#209, #210), (#211, #212)), .UNSPECIFIED., .T., .F., .U.)
   B_SPLINE_SURFACE_WITH_KNOTS ((3, 2, 2, 2, 3), (2, 2), (0., 9.42477796076938, 18.8495559215388, 28.2743338823081, 37.6991118430775), (0.557553956834532, 1.), .UNSPECIFIED.)
   GEOMETRIC_REPRESENTATION_ITEM ()
   RATIONAL_B_SPLINE_SURFACE (((1., 1.), (0.707106781186548, 0.707106781186548), (1., 1.), (0.707106781186548, 0.707106781186548), (1., 1.), (0.707106781186548, 0.707106781186548), (1., 1.), (0.707106781186548, 0.707106781186548), (1., 1.)))
   REPRESENTATION_ITEM ('')
   SURFACE ()
);
#195 = CARTESIAN_POINT('', (-6., 4.07195060716495E-15, -60.5));
#196 = CARTESIAN_POINT('', (-6., 2.18457146530218E-15, -72.8));
#197 = CARTESIAN_POINT('', (-6., 6., -60.5));
#198 = CARTESIAN_POINT('', (-6., 6., -72.8));
#199 = CARTESIAN_POINT('', (3.53802311372697E-15, 6., -60.5));
#200 = CARTESIAN_POINT('', (3.53802311372697E-15, 6., -72.8));
#201 = CARTESIAN_POINT('', (6., 6., -60.5));
#202 = CARTESIAN_POINT('', (6., 6., -72.8));
#203 = CARTESIAN_POINT('', (6., -3.11511792275151E-15, -60.5));
#204 = CARTESIAN_POINT('', (6., -5.00249706461427E-15, -72.8));
#205 = CARTESIAN_POINT('', (6., -6., -60.5));
#206 = CARTESIAN_POINT('', (6., -6.00000000000001, -72.8));
#207 = CARTESIAN_POINT('', (-2.91425733670107E-15, -6., -60.5));
#208 = CARTESIAN_POINT('', (-2.91425733670108E-15, -6., -72.8));
#209 = CARTESIAN_POINT('', (-6., -6., -60.5));
#210 = CARTESIAN_POINT('', (-6., -6., -72.8));
#211 = CARTESIAN_POINT('', (-6., 4.07195060716495E-15, -60.5));
#212 = CARTESIAN_POINT('', (-6., 2.18457146530218E-15, -72.8));
#213 = ADVANCED_FACE('', (#214), #233, .T.);
#214 = FACE_OUTER_BOUND('', #215, .T.);
#215 = EDGE_LOOP('', (#216, #224, #225, #226));
#216 = ORIENTED_EDGE('', *, *, #217, .F.);
#217 = EDGE_CURVE('', #180, #218, #220, .T.);
#218 = VERTEX_POINT('', #219);
#219 = CARTESIAN_POINT('', (-5.8, 4.82510838864057E-15, -73.));
#220 = LINE('', #221, #222);
#221 = CARTESIAN_POINT('', (-6., 4.82510838864057E-15, -72.8));
#222 = VECTOR('', #223, 0.282842712474621);
#223 = DIRECTION('', (0.2, 0., -0.200000000000003));
#224 = ORIENTED_EDGE('', *, *, #187, .T.);
#225 = ORIENTED_EDGE('', *, *, #217, .T.);
#226 = ORIENTED_EDGE('', *, *, #227, .F.);
#227 = EDGE_CURVE('', #218, #218, #228, .T.);
#228 = CIRCLE('', #229, 5.8);
#229 = AXIS2_PLACEMENT_3D('', #230, #231, #232);
#230 = CARTESIAN_POINT('', (2.77555756156289E-17, 1.11022302462516E-15, -73.));
#231 = DIRECTION('', (5.34121661799453E-30, 8.33916887031019E-15, -1.));
#232 = DIRECTION('', (-1., 6.40497476554382E-16, 0.));
#233 = (
   BOUNDED_SURFACE ()
   B_SPLINE_SURFACE (2, 1, ((#234, #235), (#236, #237), (#238, #239), (#240, #241), (#242, #243), (#244, #245), (#246, #247), (#248, #249), (#250, #251)), .UNSPECIFIED., .T., .F., .U.)
   B_SPLINE_SURFACE_WITH_KNOTS ((3, 2, 2, 2, 3), (2, 2), (0., 0.25, 0.5, 0.75, 1.), (0., 1.), .UNSPECIFIED.)
   GEOMETRIC_REPRESENTATION_ITEM ()
   RATIONAL_B_SPLINE_SURFACE (((1., 1.), (0.707106781186548, 0.707106781186548), (1., 1.), (0.707106781186548, 0.707106781186548), (1., 1.), (0.707106781186548, 0.707106781186548), (1., 1.), (0.707106781186548, 0.707106781186548), (1., 1.)))
   REPRESENTATION_ITEM ('')
   SURFACE ()
);
#234 = CARTESIAN_POINT('', (-6., 4.82510838864057E-15, -72.8));
#235 = CARTESIAN_POINT('', (-5.8, 1.91091834128216E-15, -73.));
#236 = CARTESIAN_POINT('', (-6., 6., -72.8000000000001));
#237 = CARTESIAN_POINT('', (-5.8, 5.8, -73.0000000000001));
#238 = CARTESIAN_POINT('', (1.79317908979599E-15, 6., -72.8000000000001));
#239 = CARTESIAN_POINT('', (1.77781537445446E-15, 5.8, -73.0000000000001));
#240 = CARTESIAN_POINT('', (6., 6., -72.8000000000001));
#241 = CARTESIAN_POINT('', (5.8, 5.8, -73.0000000000001));
#242 = CARTESIAN_POINT('', (6., 3.90328546814897E-15, -72.8));
#243 = CARTESIAN_POINT('', (5.8, 1.01982285147362E-15, -73.));
#244 = CARTESIAN_POINT('', (6., -6., -72.7999999999999));
#245 = CARTESIAN_POINT('', (5.8, -5.8, -72.9999999999999));
#246 = CARTESIAN_POINT('', (1.6061442487928E-15, -6., -72.7999999999999));
#247 = CARTESIAN_POINT('', (1.59701502815138E-15, -5.8, -72.9999999999999));
#248 = CARTESIAN_POINT('', (-6., -6., -72.7999999999999));
#249 = CARTESIAN_POINT('', (-5.8, -5.8, -72.9999999999999));
#250 = CARTESIAN_POINT('', (-6., 4.82510838864057E-15, -72.8));
#251 = CARTESIAN_POINT('', (-5.8, 1.91091834128216E-15, -73.));
#252 = ADVANCED_FACE('', (#253), #256, .T.);
#253 = FACE_OUTER_BOUND('', #254, .T.);
#254 = EDGE_LOOP('', (#255));
#255 = ORIENTED_EDGE('', *, *, #227, .T.);
#256 = B_SPLINE_SURFACE_WITH_KNOTS('', 1, 1, ((#257, #258), (#259, #260)), .UNSPECIFIED., .F., .F., .U., (2, 2), (2, 2), (0.0454545454545454, 0.954545454545455), (0.0454545454545454, 0.954545454545455), .UNSPECIFIED.);
#257 = CARTESIAN_POINT('', (5.8, -5.8, -73.));
#258 = CARTESIAN_POINT('', (5.8, 5.8, -73.));
#259 = CARTESIAN_POINT('', (-5.8, -5.8, -73.));
#260 = CARTESIAN_POINT('', (-5.8, 5.8, -73.));
#261 = PRESENTATION_STYLE_ASSIGNMENT((#262));
#262 = SURFACE_STYLE_USAGE(.POSITIVE., #263);
#263 = SURFACE_SIDE_STYLE('', (#264));
#264 = SURFACE_STYLE_FILL_AREA(#265);
#265 = FILL_AREA_STYLE('', (#266));
#266 = FILL_AREA_STYLE_COLOUR('', #267);
#267 = COLOUR_RGB('', 0.8, 0.8, 0.8);
#268 = STYLED_ITEM('', (#261), #155);
#269 = TRIMMED_CURVE('cutting part line', #270, (#274), (#275), .T., .CARTESIAN.);
#270 = LINE('', #271, #272);
#271 = CARTESIAN_POINT('', (2.4980018054066E-16, 0., -73.));
#272 = VECTOR('', #273, 5.8);
#273 = DIRECTION('', (5.8, 0., 0.));
#274 = CARTESIAN_POINT('', (2.4980018054066E-16, 0., -73.));
#275 = CARTESIAN_POINT('', (5.8, 0., -73.));
#276 = TRIMMED_CURVE('cutting part line', #277, (#281), (#282), .T., .CARTESIAN.);
#277 = LINE('', #278, #279);
#278 = CARTESIAN_POINT('', (5.8, 1.13330520843517E-15, -73.));
#279 = VECTOR('', #280, 0.282842712474621);
#280 = DIRECTION('', (0.2, 2.88614022393065E-15, 0.200000000000003));
#281 = CARTESIAN_POINT('', (5.8, 1.13330520843517E-15, -73.));
#282 = CARTESIAN_POINT('', (6., 4.01944543236582E-15, -72.8));
#283 = TRIMMED_CURVE('cutting part line', #284, (#288), (#289), .T., .CARTESIAN.);
#284 = LINE('', #285, #286);
#285 = CARTESIAN_POINT('', (6., -1.88709168487773E-15, -72.8));
#286 = VECTOR('', #287, 12.3);
#287 = DIRECTION('', (0., 1.88709168487773E-15, 12.3));
#288 = CARTESIAN_POINT('', (6., -1.88709168487773E-15, -72.8));
#289 = CARTESIAN_POINT('', (6., 0., -60.5));
#290 = TRIMMED_CURVE('cutting part line', #291, (#295), (#296), .T., .CARTESIAN.);
#291 = LINE('', #292, #293);
#292 = CARTESIAN_POINT('', (6., 0., -60.5));
#293 = VECTOR('', #294, 6.);
#294 = DIRECTION('', (-6., 0., 7.105427357601E-15));
#295 = CARTESIAN_POINT('', (6., 0., -60.5));
#296 = CARTESIAN_POINT('', (0., 0., -60.5));
#297 = TRIMMED_CURVE('cutting part line', #298, (#302), (#303), .T., .CARTESIAN.);
#298 = LINE('', #299, #300);
#299 = CARTESIAN_POINT('', (0., 0., -60.5));
#300 = VECTOR('', #301, 12.5000000000001);
#301 = DIRECTION('', (0., 0., -12.5000000000001));
#302 = CARTESIAN_POINT('', (0., 0., -60.5));
#303 = CARTESIAN_POINT('', (0., 0., -73.0000000000001));
#304 = COMPOSITE_CURVE('cutting part line', (#305, #306, #307, #308, #309), .U.);
#305 = COMPOSITE_CURVE_SEGMENT(.CONTINUOUS., .T., #269);
#306 = COMPOSITE_CURVE_SEGMENT(.CONTINUOUS., .T., #276);
#307 = COMPOSITE_CURVE_SEGMENT(.CONTINUOUS., .T., #283);
#308 = COMPOSITE_CURVE_SEGMENT(.CONTINUOUS., .T., #290);
#309 = COMPOSITE_CURVE_SEGMENT(.CONTINUOUS., .T., #297);
#310 = GEOMETRIC_SET('', (#304, #353));
#311 = PRESENTATION_STYLE_ASSIGNMENT((#312));
#312 = CURVE_STYLE('', #314, POSITIVE_LENGTH_MEASURE(1.E-6), #313);
#313 = COLOUR_RGB('', 0., 0., 1.);
#314 = DRAUGHTING_PRE_DEFINED_CURVE_FONT('continuous');
#315 = STYLED_ITEM('', (#311), #304);
#316 = PRESENTATION_STYLE_ASSIGNMENT((#317));
#317 = CURVE_STYLE('', #319, POSITIVE_LENGTH_MEASURE(1.E-6), #318);
#318 = COLOUR_RGB('', 0., 0., 1.);
#319 = DRAUGHTING_PRE_DEFINED_CURVE_FONT('continuous');
#320 = OVER_RIDING_STYLED_ITEM('', (#316), #269, #315);
#321 = PRESENTATION_STYLE_ASSIGNMENT((#322));
#322 = CURVE_STYLE('', #324, POSITIVE_LENGTH_MEASURE(1.E-6), #323);
#323 = COLOUR_RGB('', 0., 0., 1.);
#324 = DRAUGHTING_PRE_DEFINED_CURVE_FONT('continuous');
#325 = OVER_RIDING_STYLED_ITEM('', (#321), #276, #315);
#326 = PRESENTATION_STYLE_ASSIGNMENT((#327));
#327 = CURVE_STYLE('', #329, POSITIVE_LENGTH_MEASURE(1.E-6), #328);
#328 = COLOUR_RGB('', 0., 0., 1.);
#329 = DRAUGHTING_PRE_DEFINED_CURVE_FONT('continuous');
#330 = OVER_RIDING_STYLED_ITEM('', (#326), #283, #315);
#331 = PRESENTATION_STYLE_ASSIGNMENT((#332));
#332 = CURVE_STYLE('', #334, POSITIVE_LENGTH_MEASURE(1.E-6), #333);
#333 = COLOUR_RGB('', 0., 0., 1.);
#334 = DRAUGHTING_PRE_DEFINED_CURVE_FONT('continuous');
#335 = OVER_RIDING_STYLED_ITEM('', (#331), #290, #315);
#336 = PRESENTATION_STYLE_ASSIGNMENT((#337));
#337 = CURVE_STYLE('', #339, POSITIVE_LENGTH_MEASURE(1.E-6), #338);
#338 = COLOUR_RGB('', 0., 0., 1.);
#339 = DRAUGHTING_PRE_DEFINED_CURVE_FONT('continuous');
#340 = OVER_RIDING_STYLED_ITEM('', (#336), #297, #315);
#341 = AXIS2_PLACEMENT_3D('MCS', #342, #343, #344);
#342 = CARTESIAN_POINT('', (0., 0., -45.));
#343 = DIRECTION('', (0., 0., 1.));
#344 = DIRECTION('', (1., 0., 0.));
#345 = AXIS2_PLACEMENT_3D('PCS', #346, #347, #348);
#346 = CARTESIAN_POINT('', (0., 0., 0.));
#347 = DIRECTION('', (0., 0., 1.));
#348 = DIRECTION('', (1., 0., 0.));
#349 = AXIS2_PLACEMENT_3D('CIP', #350, #351, #352);
#350 = CARTESIAN_POINT('', (0., 0., -73.0000000000001));
#351 = DIRECTION('', (0., 0., 1.));
#352 = DIRECTION('', (1., 0., 0.));
#353 = CARTESIAN_POINT('CRP', (6., 0., -73.0000000000001));
#354 = (
   GEOMETRIC_REPRESENTATION_CONTEXT (3)
   GLOBAL_UNCERTAINTY_ASSIGNED_CONTEXT ((#356))
   GLOBAL_UNIT_ASSIGNED_CONTEXT ((#355, #357, #358))
   REPRESENTATION_CONTEXT ('', '3D')
);
#355 = (
   LENGTH_UNIT ()
   NAMED_UNIT (*)
   SI_UNIT (.MILLI., .METRE.)
);
#356 = UNCERTAINTY_MEASURE_WITH_UNIT(LENGTH_MEASURE(1.E-6), #355, 'DISTANCE_ACCURACY_VALUE', '');
#357 = (
   NAMED_UNIT (*)
   SI_UNIT ($, .STERADIAN.)
   SOLID_ANGLE_UNIT ()
);
#358 = (
   NAMED_UNIT (*)
   PLANE_ANGLE_UNIT ()
   SI_UNIT ($, .RADIAN.)
);
#359 = SHAPE_REPRESENTATION('', (), #354);
#360 = PRODUCT_DEFINITION_SHAPE('', '', #361);
#361 = PRODUCT_DEFINITION('', '', #364, #368);
#362 = APPLICATION_CONTEXT('configuration controlled 3D designs of mechanical parts and assemblies');
#363 = APPLICATION_PROTOCOL_DEFINITION('International Standard', 'automotive_design', 2002, #362);
#364 = PRODUCT_DEFINITION_FORMATION_WITH_SPECIFIED_SOURCE('', '', #365, .NOT_KNOWN.);
#365 = PRODUCT('product-name', '1P221-1200-XA       1630', '', (#366));
#366 = PRODUCT_CONTEXT('', #362, 'mechanical');
#367 = PRODUCT_RELATED_PRODUCT_CATEGORY('detail', '', (#365));
#368 = PRODUCT_DEFINITION_CONTEXT('part definition', #362, 'design');
#369 = SHAPE_DEFINITION_REPRESENTATION(#360, #359);
#370 = CONSTRUCTIVE_GEOMETRY_REPRESENTATION('supplemental geometry', (#341, #345, #349), #354);
#371 = CONSTRUCTIVE_GEOMETRY_REPRESENTATION_RELATIONSHIP('', '', #359, #370);
#372 = SHAPE_REPRESENTATION_RELATIONSHIP('', '', #359, #373);
#373 = SHAPE_REPRESENTATION('', (#310), #354);
#374 = SHAPE_REPRESENTATION_RELATIONSHIP('', '', #359, #375);
#375 = ADVANCED_BREP_SHAPE_REPRESENTATION('', (#1, #155), #354);
ENDSEC;
END-ISO-10303-21;
