ISO-10303-21;
HEADER;
FILE_DESCRIPTION(('STEP'), '1');
FILE_NAME('C:\\Users\\ds2002\\OneDrive - Sandvik\\HomeShare\\Documents\\Batchrepair\\CorSRT2\\NEW_MILSQ_SLD\\Output\\MOD000000000000000020082236700000.stp', '2019-01-02T12:05:46', (''), (''), 'Express v3.0.0.0', 'Express Tool', 'Unknown');
FILE_SCHEMA(('AUTOMOTIVE_DESIGN'));
ENDSEC;

DATA;
#1 = MANIFOLD_SOLID_BREP('NOCUT', #2);
#2 = CLOSED_SHELL('', (#3, #50, #89, #98, #137));
#3 = ADVANCED_FACE('', (#4), #31, .T.);
#4 = FACE_OUTER_BOUND('', #5, .T.);
#5 = EDGE_LOOP('', (#6, #16, #23, #24));
#6 = ORIENTED_EDGE('', *, *, #7, .T.);
#7 = EDGE_CURVE('', #8, #10, #12, .T.);
#8 = VERTEX_POINT('', #9);
#9 = CARTESIAN_POINT('', (-10., 3.67394039744206E-15, -50.));
#10 = VERTEX_POINT('', #11);
#11 = CARTESIAN_POINT('', (-10., 6.73555739531044E-16, -1.));
#12 = LINE('', #13, #14);
#13 = CARTESIAN_POINT('', (-10., 3.67394039744206E-15, -50.));
#14 = VECTOR('', #15, 49.);
#15 = DIRECTION('', (0., -3.00038465791102E-15, 49.));
#16 = ORIENTED_EDGE('', *, *, #17, .T.);
#17 = EDGE_CURVE('', #10, #10, #18, .T.);
#18 = CIRCLE('', #19, 10.);
#19 = AXIS2_PLACEMENT_3D('', #20, #21, #22);
#20 = CARTESIAN_POINT('', (-3.10862446895044E-15, -3.99680288865056E-15, -1.));
#21 = DIRECTION('', (1.11022302462516E-17, 3.94546482371774E-17, -1.));
#22 = DIRECTION('', (-1., 4.67035862818161E-16, -1.11022302462516E-17));
#23 = ORIENTED_EDGE('', *, *, #7, .F.);
#24 = ORIENTED_EDGE('', *, *, #25, .F.);
#25 = EDGE_CURVE('', #8, #8, #26, .T.);
#26 = CIRCLE('', #27, 10.);
#27 = AXIS2_PLACEMENT_3D('', #28, #29, #30);
#28 = CARTESIAN_POINT('', (-1.11022302462516E-16, -1.06581410364015E-14, -50.));
#29 = DIRECTION('', (0., 0., -1.));
#30 = DIRECTION('', (-1., 1.43320814338436E-15, 0.));
#31 = (
   BOUNDED_SURFACE ()
   B_SPLINE_SURFACE (1, 2, ((#32, #33, #34, #35, #36, #37, #38, #39, #40), (#41, #42, #43, #44, #45, #46, #47, #48, #49)), .UNSPECIFIED., .F., .T., .U.)
   B_SPLINE_SURFACE_WITH_KNOTS ((2, 2), (3, 2, 2, 2, 3), (0., 1.), (0., 15.707963267949, 31.415926535898, 47.1238898038469, 62.8318530717959), .UNSPECIFIED.)
   GEOMETRIC_REPRESENTATION_ITEM ()
   RATIONAL_B_SPLINE_SURFACE (((1., 0.707106781186548, 1., 0.707106781186548, 1., 0.707106781186548, 1., 0.707106781186548, 1.), (1., 0.707106781186548, 1., 0.707106781186548, 1., 0.707106781186548, 1., 0.707106781186548, 1.)))
   REPRESENTATION_ITEM ('')
   SURFACE ()
);
#32 = CARTESIAN_POINT('', (-10., 4.22626941833155E-15, -50.));
#33 = CARTESIAN_POINT('', (-10., 10., -50.));
#34 = CARTESIAN_POINT('', (1.49342004172382E-15, 10., -50.));
#35 = CARTESIAN_POINT('', (10., 10., -50.));
#36 = CARTESIAN_POINT('', (10., -3.88980103888432E-15, -50.));
#37 = CARTESIAN_POINT('', (10., -10., -50.));
#38 = CARTESIAN_POINT('', (-5.39800361634469E-15, -10., -50.));
#39 = CARTESIAN_POINT('', (-10., -10., -50.));
#40 = CARTESIAN_POINT('', (-10., 4.22626941833155E-15, -50.));
#41 = CARTESIAN_POINT('', (-10., 6.73555739531046E-16, -1.));
#42 = CARTESIAN_POINT('', (-10., 10., -0.999999999999999));
#43 = CARTESIAN_POINT('', (9.49410759657495E-16, 10., -0.999999999999999));
#44 = CARTESIAN_POINT('', (10., 9.99999999999999, -0.999999999999999));
#45 = CARTESIAN_POINT('', (10., -7.44251471768482E-15, -1.));
#46 = CARTESIAN_POINT('', (9.99999999999999, -10., -1.));
#47 = CARTESIAN_POINT('', (-5.94201289841102E-15, -10., -1.));
#48 = CARTESIAN_POINT('', (-10., -10., -1.));
#49 = CARTESIAN_POINT('', (-10., 6.73555739531046E-16, -1.));
#50 = ADVANCED_FACE('', (#51), #70, .T.);
#51 = FACE_OUTER_BOUND('', #52, .T.);
#52 = EDGE_LOOP('', (#53, #61, #68, #69));
#53 = ORIENTED_EDGE('', *, *, #54, .T.);
#54 = EDGE_CURVE('', #10, #55, #57, .T.);
#55 = VERTEX_POINT('', #56);
#56 = CARTESIAN_POINT('', (-9., 5.51091059616309E-16, 0.));
#57 = LINE('', #58, #59);
#58 = CARTESIAN_POINT('', (-10., 6.73555739531044E-16, -1.));
#59 = VECTOR('', #60, 1.4142135623731);
#60 = DIRECTION('', (1., -1.22464679914735E-16, 1.));
#61 = ORIENTED_EDGE('', *, *, #62, .T.);
#62 = EDGE_CURVE('', #55, #55, #63, .T.);
#63 = CIRCLE('', #64, 9.);
#64 = AXIS2_PLACEMENT_3D('', #65, #66, #67);
#65 = CARTESIAN_POINT('', (4.57966997657877E-15, 0., 0.));
#66 = DIRECTION('', (3.74939945665464E-33, 6.12323399573677E-17, -1.));
#67 = DIRECTION('', (-1., 6.12323399573676E-17, 0.));
#68 = ORIENTED_EDGE('', *, *, #54, .F.);
#69 = ORIENTED_EDGE('', *, *, #17, .F.);
#70 = (
   BOUNDED_SURFACE ()
   B_SPLINE_SURFACE (1, 2, ((#71, #72, #73, #74, #75, #76, #77, #78, #79), (#80, #81, #82, #83, #84, #85, #86, #87, #88)), .UNSPECIFIED., .F., .T., .U.)
   B_SPLINE_SURFACE_WITH_KNOTS ((2, 2), (3, 2, 2, 2, 3), (0., 1.), (0., 0.25, 0.5, 0.75, 1.), .UNSPECIFIED.)
   GEOMETRIC_REPRESENTATION_ITEM ()
   RATIONAL_B_SPLINE_SURFACE (((1., 0.707106781186548, 1., 0.707106781186548, 1., 0.707106781186548, 1., 0.707106781186548, 1.), (1., 0.707106781186548, 1., 0.707106781186548, 1., 0.707106781186548, 1., 0.707106781186548, 1.)))
   REPRESENTATION_ITEM ('')
   SURFACE ()
);
#71 = CARTESIAN_POINT('', (-9.99999999999999, -5.38288093340217E-15, -1.));
#72 = CARTESIAN_POINT('', (-9.99999999999999, 9.99999999999999, -1.00000000000006));
#73 = CARTESIAN_POINT('', (4.57966997657877E-15, 9.99999999999999, -1.00000000000006));
#74 = CARTESIAN_POINT('', (10., 9.99999999999999, -1.00000000000006));
#75 = CARTESIAN_POINT('', (10., -5.38288093340217E-15, -1.));
#76 = CARTESIAN_POINT('', (10., -10., -0.99999999999994));
#77 = CARTESIAN_POINT('', (5.80431677572612E-15, -10., -0.99999999999994));
#78 = CARTESIAN_POINT('', (-9.99999999999999, -10., -0.99999999999994));
#79 = CARTESIAN_POINT('', (-9.99999999999999, -5.38288093340217E-15, -1.));
#80 = CARTESIAN_POINT('', (-9., 5.51091059616309E-16, 0.));
#81 = CARTESIAN_POINT('', (-9., 9., -5.39568389967826E-14));
#82 = CARTESIAN_POINT('', (4.57966997657877E-15, 9., -5.39568389967826E-14));
#83 = CARTESIAN_POINT('', (9.00000000000001, 9., -5.39568389967826E-14));
#84 = CARTESIAN_POINT('', (9.00000000000001, 5.51091059616309E-16, -6.60780701695189E-30));
#85 = CARTESIAN_POINT('', (9.00000000000001, -9., 5.39568389967826E-14));
#86 = CARTESIAN_POINT('', (5.68185209581139E-15, -9., 5.39568389967826E-14));
#87 = CARTESIAN_POINT('', (-8.99999999999999, -9., 5.39568389967826E-14));
#88 = CARTESIAN_POINT('', (-9., 5.51091059616309E-16, 0.));
#89 = ADVANCED_FACE('', (#90), #93, .T.);
#90 = FACE_OUTER_BOUND('', #91, .T.);
#91 = EDGE_LOOP('', (#92));
#92 = ORIENTED_EDGE('', *, *, #62, .F.);
#93 = B_SPLINE_SURFACE_WITH_KNOTS('', 1, 1, ((#94, #95), (#96, #97)), .UNSPECIFIED., .F., .F., .U., (2, 2), (2, 2), (0.0454545454545454, 0.954545454545454), (0.0454545454545454, 0.954545454545454), .UNSPECIFIED.);
#94 = CARTESIAN_POINT('', (9., -9., -5.51091059616309E-16));
#95 = CARTESIAN_POINT('', (-9., -9., -5.51091059616309E-16));
#96 = CARTESIAN_POINT('', (9., 9., 5.51091059616309E-16));
#97 = CARTESIAN_POINT('', (-9., 9., 5.51091059616309E-16));
#98 = ADVANCED_FACE('', (#99), #118, .T.);
#99 = FACE_OUTER_BOUND('', #100, .T.);
#100 = EDGE_LOOP('', (#101, #110, #116, #117));
#101 = ORIENTED_EDGE('', *, *, #102, .F.);
#102 = EDGE_CURVE('', #103, #103, #105, .T.);
#103 = VERTEX_POINT('', #104);
#104 = CARTESIAN_POINT('', (-10., 4.99043570652546E-15, -71.5));
#105 = CIRCLE('', #106, 10.);
#106 = AXIS2_PLACEMENT_3D('', #107, #108, #109);
#107 = CARTESIAN_POINT('', (3.33066907387547E-16, -2.44249065417534E-15, -71.5));
#108 = DIRECTION('', (0., 0., -1.));
#109 = DIRECTION('', (-1., 7.4329263607008E-16, 0.));
#110 = ORIENTED_EDGE('', *, *, #111, .F.);
#111 = EDGE_CURVE('', #8, #103, #112, .T.);
#112 = LINE('', #113, #114);
#113 = CARTESIAN_POINT('', (-10., 3.67394039744206E-15, -50.));
#114 = VECTOR('', #115, 21.5);
#115 = DIRECTION('', (0., 1.3164953090834E-15, -21.5));
#116 = ORIENTED_EDGE('', *, *, #25, .T.);
#117 = ORIENTED_EDGE('', *, *, #111, .T.);
#118 = (
   BOUNDED_SURFACE ()
   B_SPLINE_SURFACE (2, 1, ((#119, #120), (#121, #122), (#123, #124), (#125, #126), (#127, #128), (#129, #130), (#131, #132), (#133, #134), (#135, #136)), .UNSPECIFIED., .T., .F., .U.)
   B_SPLINE_SURFACE_WITH_KNOTS ((3, 2, 2, 2, 3), (2, 2), (0., 15.707963267949, 31.415926535898, 47.1238898038469, 62.8318530717959), (0., 0.515587529976019), .UNSPECIFIED.)
   GEOMETRIC_REPRESENTATION_ITEM ()
   RATIONAL_B_SPLINE_SURFACE (((1., 1.), (0.707106781186548, 0.707106781186548), (1., 1.), (0.707106781186548, 0.707106781186548), (1., 1.), (0.707106781186548, 0.707106781186548), (1., 1.), (0.707106781186548, 0.707106781186548), (1., 1.)))
   REPRESENTATION_ITEM ('')
   SURFACE ()
);
#119 = CARTESIAN_POINT('', (-10., 3.67394039744206E-15, -50.));
#120 = CARTESIAN_POINT('', (-10., 3.89598500236709E-15, -71.5));
#121 = CARTESIAN_POINT('', (-10., 10., -50.));
#122 = CARTESIAN_POINT('', (-10., 10., -71.5));
#123 = CARTESIAN_POINT('', (2.00690512447449E-15, 10., -50.));
#124 = CARTESIAN_POINT('', (2.00690512447449E-15, 10., -71.5));
#125 = CARTESIAN_POINT('', (10., 10., -50.));
#126 = CARTESIAN_POINT('', (10., 10., -71.5));
#127 = CARTESIAN_POINT('', (10., -3.33747201799483E-15, -50.));
#128 = CARTESIAN_POINT('', (10., -3.1154274130698E-15, -71.5));
#129 = CARTESIAN_POINT('', (10., -10., -50.));
#130 = CARTESIAN_POINT('', (10., -10., -71.5));
#131 = CARTESIAN_POINT('', (-3.77986049181506E-15, -10., -50.));
#132 = CARTESIAN_POINT('', (-3.77986049181506E-15, -10., -71.5));
#133 = CARTESIAN_POINT('', (-10., -10., -50.));
#134 = CARTESIAN_POINT('', (-10., -10., -71.5));
#135 = CARTESIAN_POINT('', (-10., 3.67394039744206E-15, -50.));
#136 = CARTESIAN_POINT('', (-10., 3.89598500236709E-15, -71.5));
#137 = ADVANCED_FACE('', (#138), #141, .T.);
#138 = FACE_OUTER_BOUND('', #139, .T.);
#139 = EDGE_LOOP('', (#140));
#140 = ORIENTED_EDGE('', *, *, #102, .T.);
#141 = B_SPLINE_SURFACE_WITH_KNOTS('', 1, 1, ((#142, #143), (#144, #145)), .UNSPECIFIED., .F., .F., .U., (2, 2), (2, 2), (0.47684916545199, 0.580745613895854), (0.419254386104146, 0.523150834548009), .UNSPECIFIED.);
#142 = CARTESIAN_POINT('', (-10., 10., -71.5));
#143 = CARTESIAN_POINT('', (-10., -9.99999999999997, -71.5));
#144 = CARTESIAN_POINT('', (9.99999999999997, 10., -71.5));
#145 = CARTESIAN_POINT('', (9.99999999999997, -9.99999999999997, -71.5));
#146 = DRAUGHTING_MODEL('', (#154, #268, #315, #320, #325, #330, #335, #340), #354);
#147 = PRESENTATION_STYLE_ASSIGNMENT((#148));
#148 = SURFACE_STYLE_USAGE(.POSITIVE., #149);
#149 = SURFACE_SIDE_STYLE('', (#150));
#150 = SURFACE_STYLE_FILL_AREA(#151);
#151 = FILL_AREA_STYLE('', (#152));
#152 = FILL_AREA_STYLE_COLOUR('', #153);
#153 = COLOUR_RGB('', 0.50196078431373, 0.50196078431373, 0.50196078431373);
#154 = STYLED_ITEM('', (#147), #1);
#155 = MANIFOLD_SOLID_BREP('CUT', #156);
#156 = CLOSED_SHELL('', (#157, #174, #213, #252));
#157 = ADVANCED_FACE('', (#158), #169, .T.);
#158 = FACE_OUTER_BOUND('', #159, .T.);
#159 = EDGE_LOOP('', (#160));
#160 = ORIENTED_EDGE('', *, *, #161, .F.);
#161 = EDGE_CURVE('', #162, #162, #164, .T.);
#162 = VERTEX_POINT('', #163);
#163 = CARTESIAN_POINT('', (-10., 4.99043570652546E-15, -71.5));
#164 = CIRCLE('', #165, 10.);
#165 = AXIS2_PLACEMENT_3D('', #166, #167, #168);
#166 = CARTESIAN_POINT('', (3.33066907387547E-16, -2.44249065417534E-15, -71.5));
#167 = DIRECTION('', (0., 0., -1.));
#168 = DIRECTION('', (-1., 7.4329263607008E-16, 0.));
#169 = B_SPLINE_SURFACE_WITH_KNOTS('', 1, 1, ((#170, #171), (#172, #173)), .UNSPECIFIED., .F., .F., .U., (2, 2), (2, 2), (0.419254386104146, 0.523150834548009), (0.476849165451991, 0.580745613895854), .UNSPECIFIED.);
#170 = CARTESIAN_POINT('', (-10., 10., -71.5));
#171 = CARTESIAN_POINT('', (10., 10., -71.5));
#172 = CARTESIAN_POINT('', (-10., -10., -71.5));
#173 = CARTESIAN_POINT('', (10., -10., -71.5));
#174 = ADVANCED_FACE('', (#175), #194, .T.);
#175 = FACE_OUTER_BOUND('', #176, .T.);
#176 = EDGE_LOOP('', (#177, #178, #186, #193));
#177 = ORIENTED_EDGE('', *, *, #161, .T.);
#178 = ORIENTED_EDGE('', *, *, #179, .T.);
#179 = EDGE_CURVE('', #162, #180, #182, .T.);
#180 = VERTEX_POINT('', #181);
#181 = CARTESIAN_POINT('', (-10., 6.22732897366429E-15, -91.7));
#182 = LINE('', #183, #184);
#183 = CARTESIAN_POINT('', (-10., 4.99043570652546E-15, -71.5));
#184 = VECTOR('', #185, 20.2);
#185 = DIRECTION('', (0., 1.23689326713883E-15, -20.2));
#186 = ORIENTED_EDGE('', *, *, #187, .F.);
#187 = EDGE_CURVE('', #180, #180, #188, .T.);
#188 = CIRCLE('', #189, 10.);
#189 = AXIS2_PLACEMENT_3D('', #190, #191, #192);
#190 = CARTESIAN_POINT('', (-3.19189119579733E-15, 8.88178419700125E-16, -91.7));
#191 = DIRECTION('', (0., 0., -1.));
#192 = DIRECTION('', (-1., 5.33915055396417E-16, 0.));
#193 = ORIENTED_EDGE('', *, *, #179, .F.);
#194 = (
   BOUNDED_SURFACE ()
   B_SPLINE_SURFACE (2, 1, ((#195, #196), (#197, #198), (#199, #200), (#201, #202), (#203, #204), (#205, #206), (#207, #208), (#209, #210), (#211, #212)), .UNSPECIFIED., .T., .F., .U.)
   B_SPLINE_SURFACE_WITH_KNOTS ((3, 2, 2, 2, 3), (2, 2), (0., 15.707963267949, 31.415926535898, 47.1238898038469, 62.8318530717959), (0.515587529976019, 1.), .UNSPECIFIED.)
   GEOMETRIC_REPRESENTATION_ITEM ()
   RATIONAL_B_SPLINE_SURFACE (((1., 1.), (0.707106781186548, 0.707106781186548), (1., 1.), (0.707106781186548, 0.707106781186548), (1., 1.), (0.707106781186548, 0.707106781186548), (1., 1.), (0.707106781186548, 0.707106781186548), (1., 1.)))
   REPRESENTATION_ITEM ('')
   SURFACE ()
);
#195 = CARTESIAN_POINT('', (-10., 4.99043570652546E-15, -71.5));
#196 = CARTESIAN_POINT('', (-10., 5.43452491637552E-15, -91.7));
#197 = CARTESIAN_POINT('', (-10., 10., -71.5));
#198 = CARTESIAN_POINT('', (-10., 10., -91.7));
#199 = CARTESIAN_POINT('', (6.03354023226253E-16, 10., -71.5));
#200 = CARTESIAN_POINT('', (6.03354023226253E-16, 10., -91.7));
#201 = CARTESIAN_POINT('', (10., 10., -71.5));
#202 = CARTESIAN_POINT('', (10., 10., -91.7));
#203 = CARTESIAN_POINT('', (10., -2.87761048767798E-15, -71.5));
#204 = CARTESIAN_POINT('', (10., -2.43352127782792E-15, -91.7));
#205 = CARTESIAN_POINT('', (9.99999999999999, -10., -71.5));
#206 = CARTESIAN_POINT('', (9.99999999999999, -10., -91.7));
#207 = CARTESIAN_POINT('', (-6.04004537182984E-15, -10., -71.5));
#208 = CARTESIAN_POINT('', (-6.04004537182984E-15, -10., -91.7));
#209 = CARTESIAN_POINT('', (-10., -10., -71.5));
#210 = CARTESIAN_POINT('', (-10., -10., -91.7));
#211 = CARTESIAN_POINT('', (-10., 4.99043570652546E-15, -71.5));
#212 = CARTESIAN_POINT('', (-10., 5.43452491637552E-15, -91.7));
#213 = ADVANCED_FACE('', (#214), #233, .T.);
#214 = FACE_OUTER_BOUND('', #215, .T.);
#215 = EDGE_LOOP('', (#216, #224, #225, #226));
#216 = ORIENTED_EDGE('', *, *, #217, .F.);
#217 = EDGE_CURVE('', #180, #218, #220, .T.);
#218 = VERTEX_POINT('', #219);
#219 = CARTESIAN_POINT('', (-9.7, 6.22732897366429E-15, -92.));
#220 = LINE('', #221, #222);
#221 = CARTESIAN_POINT('', (-10., 6.22732897366429E-15, -91.7));
#222 = VECTOR('', #223, 0.424264068711927);
#223 = DIRECTION('', (0.300000000000001, 0., -0.299999999999997));
#224 = ORIENTED_EDGE('', *, *, #187, .T.);
#225 = ORIENTED_EDGE('', *, *, #217, .T.);
#226 = ORIENTED_EDGE('', *, *, #227, .F.);
#227 = EDGE_CURVE('', #218, #218, #228, .T.);
#228 = CIRCLE('', #229, 9.7);
#229 = AXIS2_PLACEMENT_3D('', #230, #231, #232);
#230 = CARTESIAN_POINT('', (8.32667268468867E-16, 8.65973959207622E-15, -92.));
#231 = DIRECTION('', (0., 0., -1.));
#232 = DIRECTION('', (-1., -2.50763981279581E-16, 0.));
#233 = (
   BOUNDED_SURFACE ()
   B_SPLINE_SURFACE (2, 1, ((#234, #235), (#236, #237), (#238, #239), (#240, #241), (#242, #243), (#244, #245), (#246, #247), (#248, #249), (#250, #251)), .UNSPECIFIED., .T., .F., .U.)
   B_SPLINE_SURFACE_WITH_KNOTS ((3, 2, 2, 2, 3), (2, 2), (0., 0.25, 0.5, 0.75, 1.), (0., 1.), .UNSPECIFIED.)
   GEOMETRIC_REPRESENTATION_ITEM ()
   RATIONAL_B_SPLINE_SURFACE (((1., 1.), (0.707106781186548, 0.707106781186548), (1., 1.), (0.707106781186548, 0.707106781186548), (1., 1.), (0.707106781186548, 0.707106781186548), (1., 1.), (0.707106781186548, 0.707106781186548), (1., 1.)))
   REPRESENTATION_ITEM ('')
   SURFACE ()
);
#234 = CARTESIAN_POINT('', (-10., 6.22732897366429E-15, -91.7));
#235 = CARTESIAN_POINT('', (-9.7, 1.53463984968624E-14, -92.));
#236 = CARTESIAN_POINT('', (-9.99999999999999, 10., -91.6999999999997));
#237 = CARTESIAN_POINT('', (-9.69999999999999, 9.70000000000001, -91.9999999999997));
#238 = CARTESIAN_POINT('', (5.0321384861624E-15, 10., -91.6999999999997));
#239 = CARTESIAN_POINT('', (4.84370430449644E-15, 9.70000000000001, -91.9999999999997));
#240 = CARTESIAN_POINT('', (10., 9.99999999999999, -91.6999999999997));
#241 = CARTESIAN_POINT('', (9.7, 9.7, -91.9999999999997));
#242 = CARTESIAN_POINT('', (9.99999999999999, -6.33494980406712E-15, -91.7));
#243 = CARTESIAN_POINT('', (9.7, 3.16098808246295E-15, -92.));
#244 = CARTESIAN_POINT('', (9.99999999999999, -10., -91.7000000000003));
#245 = CARTESIAN_POINT('', (9.69999999999999, -9.69999999999999, -92.0000000000003));
#246 = CARTESIAN_POINT('', (-6.30549349242165E-15, -10., -91.7000000000003));
#247 = CARTESIAN_POINT('', (-6.1537987147301E-15, -9.69999999999999, -92.0000000000003));
#248 = CARTESIAN_POINT('', (-10., -9.99999999999999, -91.7000000000003));
#249 = CARTESIAN_POINT('', (-9.7, -9.69999999999999, -92.0000000000003));
#250 = CARTESIAN_POINT('', (-10., 6.22732897366429E-15, -91.7));
#251 = CARTESIAN_POINT('', (-9.7, 1.53463984968624E-14, -92.));
#252 = ADVANCED_FACE('', (#253), #256, .T.);
#253 = FACE_OUTER_BOUND('', #254, .T.);
#254 = EDGE_LOOP('', (#255));
#255 = ORIENTED_EDGE('', *, *, #227, .T.);
#256 = B_SPLINE_SURFACE_WITH_KNOTS('', 1, 1, ((#257, #258), (#259, #260)), .UNSPECIFIED., .F., .F., .U., (2, 2), (2, 2), (0.0454545454545454, 0.954545454545454), (0.0454545454545454, 0.954545454545454), .UNSPECIFIED.);
#257 = CARTESIAN_POINT('', (9.7, -9.7, -92.));
#258 = CARTESIAN_POINT('', (9.7, 9.7, -92.));
#259 = CARTESIAN_POINT('', (-9.7, -9.7, -92.));
#260 = CARTESIAN_POINT('', (-9.7, 9.7, -92.));
#261 = PRESENTATION_STYLE_ASSIGNMENT((#262));
#262 = SURFACE_STYLE_USAGE(.POSITIVE., #263);
#263 = SURFACE_SIDE_STYLE('', (#264));
#264 = SURFACE_STYLE_FILL_AREA(#265);
#265 = FILL_AREA_STYLE('', (#266));
#266 = FILL_AREA_STYLE_COLOUR('', #267);
#267 = COLOUR_RGB('', 0.8, 0.8, 0.8);
#268 = STYLED_ITEM('', (#261), #155);
#269 = TRIMMED_CURVE('cutting part line', #270, (#274), (#275), .T., .CARTESIAN.);
#270 = LINE('', #271, #272);
#271 = CARTESIAN_POINT('', (-9.71445146547012E-16, 0., -92.));
#272 = VECTOR('', #273, 9.7);
#273 = DIRECTION('', (9.7, 0., 0.));
#274 = CARTESIAN_POINT('', (-9.71445146547012E-16, 0., -92.));
#275 = CARTESIAN_POINT('', (9.7, 0., -92.));
#276 = TRIMMED_CURVE('cutting part line', #277, (#281), (#282), .T., .CARTESIAN.);
#277 = LINE('', #278, #279);
#278 = CARTESIAN_POINT('', (9.7, 8.63662260039745E-15, -92.));
#279 = VECTOR('', #280, 0.424264068711926);
#280 = DIRECTION('', (0.299999999999999, -9.32445303116057E-15, 0.299999999999997));
#281 = CARTESIAN_POINT('', (9.7, 8.63662260039745E-15, -92.));
#282 = CARTESIAN_POINT('', (9.99999999999999, -6.87830430763124E-16, -91.7));
#283 = TRIMMED_CURVE('cutting part line', #284, (#288), (#289), .T., .CARTESIAN.);
#284 = LINE('', #285, #286);
#285 = CARTESIAN_POINT('', (10., 4.44021572912408E-16, -91.7));
#286 = VECTOR('', #287, 20.2);
#287 = DIRECTION('', (0., -4.44021572912408E-16, 20.2));
#288 = CARTESIAN_POINT('', (10., 4.44021572912408E-16, -91.7));
#289 = CARTESIAN_POINT('', (10., 0., -71.5));
#290 = TRIMMED_CURVE('cutting part line', #291, (#295), (#296), .T., .CARTESIAN.);
#291 = LINE('', #292, #293);
#292 = CARTESIAN_POINT('', (10., 0., -71.5));
#293 = VECTOR('', #294, 10.);
#294 = DIRECTION('', (-10., 0., 0.));
#295 = CARTESIAN_POINT('', (10., 0., -71.5));
#296 = CARTESIAN_POINT('', (0., 0., -71.5));
#297 = TRIMMED_CURVE('cutting part line', #298, (#302), (#303), .T., .CARTESIAN.);
#298 = LINE('', #299, #300);
#299 = CARTESIAN_POINT('', (0., 0., -71.5));
#300 = VECTOR('', #301, 20.5000000000003);
#301 = DIRECTION('', (0., 0., -20.5000000000003));
#302 = CARTESIAN_POINT('', (0., 0., -71.5));
#303 = CARTESIAN_POINT('', (0., 0., -92.0000000000003));
#304 = COMPOSITE_CURVE('cutting part line', (#305, #306, #307, #308, #309), .U.);
#305 = COMPOSITE_CURVE_SEGMENT(.CONTINUOUS., .T., #269);
#306 = COMPOSITE_CURVE_SEGMENT(.CONTINUOUS., .T., #276);
#307 = COMPOSITE_CURVE_SEGMENT(.CONTINUOUS., .T., #283);
#308 = COMPOSITE_CURVE_SEGMENT(.CONTINUOUS., .T., #290);
#309 = COMPOSITE_CURVE_SEGMENT(.CONTINUOUS., .T., #297);
#310 = GEOMETRIC_SET('', (#304, #353));
#311 = PRESENTATION_STYLE_ASSIGNMENT((#312));
#312 = CURVE_STYLE('', #314, POSITIVE_LENGTH_MEASURE(1.E-6), #313);
#313 = COLOUR_RGB('', 0., 0., 1.);
#314 = DRAUGHTING_PRE_DEFINED_CURVE_FONT('continuous');
#315 = STYLED_ITEM('', (#311), #304);
#316 = PRESENTATION_STYLE_ASSIGNMENT((#317));
#317 = CURVE_STYLE('', #319, POSITIVE_LENGTH_MEASURE(1.E-6), #318);
#318 = COLOUR_RGB('', 0., 0., 1.);
#319 = DRAUGHTING_PRE_DEFINED_CURVE_FONT('continuous');
#320 = OVER_RIDING_STYLED_ITEM('', (#316), #269, #315);
#321 = PRESENTATION_STYLE_ASSIGNMENT((#322));
#322 = CURVE_STYLE('', #324, POSITIVE_LENGTH_MEASURE(1.E-6), #323);
#323 = COLOUR_RGB('', 0., 0., 1.);
#324 = DRAUGHTING_PRE_DEFINED_CURVE_FONT('continuous');
#325 = OVER_RIDING_STYLED_ITEM('', (#321), #276, #315);
#326 = PRESENTATION_STYLE_ASSIGNMENT((#327));
#327 = CURVE_STYLE('', #329, POSITIVE_LENGTH_MEASURE(1.E-6), #328);
#328 = COLOUR_RGB('', 0., 0., 1.);
#329 = DRAUGHTING_PRE_DEFINED_CURVE_FONT('continuous');
#330 = OVER_RIDING_STYLED_ITEM('', (#326), #283, #315);
#331 = PRESENTATION_STYLE_ASSIGNMENT((#332));
#332 = CURVE_STYLE('', #334, POSITIVE_LENGTH_MEASURE(1.E-6), #333);
#333 = COLOUR_RGB('', 0., 0., 1.);
#334 = DRAUGHTING_PRE_DEFINED_CURVE_FONT('continuous');
#335 = OVER_RIDING_STYLED_ITEM('', (#331), #290, #315);
#336 = PRESENTATION_STYLE_ASSIGNMENT((#337));
#337 = CURVE_STYLE('', #339, POSITIVE_LENGTH_MEASURE(1.E-6), #338);
#338 = COLOUR_RGB('', 0., 0., 1.);
#339 = DRAUGHTING_PRE_DEFINED_CURVE_FONT('continuous');
#340 = OVER_RIDING_STYLED_ITEM('', (#336), #297, #315);
#341 = AXIS2_PLACEMENT_3D('MCS', #342, #343, #344);
#342 = CARTESIAN_POINT('', (0., 0., -50.));
#343 = DIRECTION('', (0., 0., 1.));
#344 = DIRECTION('', (1., 0., 0.));
#345 = AXIS2_PLACEMENT_3D('PCS', #346, #347, #348);
#346 = CARTESIAN_POINT('', (0., 0., 0.));
#347 = DIRECTION('', (0., 0., 1.));
#348 = DIRECTION('', (1., 0., 0.));
#349 = AXIS2_PLACEMENT_3D('CIP', #350, #351, #352);
#350 = CARTESIAN_POINT('', (0., 0., -92.0000000000003));
#351 = DIRECTION('', (0., 0., 1.));
#352 = DIRECTION('', (1., 0., 0.));
#353 = CARTESIAN_POINT('CRP', (10., 0., -92.0000000000003));
#354 = (
   GEOMETRIC_REPRESENTATION_CONTEXT (3)
   GLOBAL_UNCERTAINTY_ASSIGNED_CONTEXT ((#356))
   GLOBAL_UNIT_ASSIGNED_CONTEXT ((#355, #357, #358))
   REPRESENTATION_CONTEXT ('', '3D')
);
#355 = (
   LENGTH_UNIT ()
   NAMED_UNIT (*)
   SI_UNIT (.MILLI., .METRE.)
);
#356 = UNCERTAINTY_MEASURE_WITH_UNIT(LENGTH_MEASURE(1.E-6), #355, 'DISTANCE_ACCURACY_VALUE', '');
#357 = (
   NAMED_UNIT (*)
   SI_UNIT ($, .STERADIAN.)
   SOLID_ANGLE_UNIT ()
);
#358 = (
   NAMED_UNIT (*)
   PLANE_ANGLE_UNIT ()
   SI_UNIT ($, .RADIAN.)
);
#359 = SHAPE_REPRESENTATION('', (), #354);
#360 = PRODUCT_DEFINITION_SHAPE('', '', #361);
#361 = PRODUCT_DEFINITION('', '', #364, #368);
#362 = APPLICATION_CONTEXT('configuration controlled 3D designs of mechanical parts and assemblies');
#363 = APPLICATION_PROTOCOL_DEFINITION('International Standard', 'automotive_design', 2002, #362);
#364 = PRODUCT_DEFINITION_FORMATION_WITH_SPECIFIED_SOURCE('', '', #365, .NOT_KNOWN.);
#365 = PRODUCT('product-name', '1P220-2000-XB       1630', '', (#366));
#366 = PRODUCT_CONTEXT('', #362, 'mechanical');
#367 = PRODUCT_RELATED_PRODUCT_CATEGORY('detail', '', (#365));
#368 = PRODUCT_DEFINITION_CONTEXT('part definition', #362, 'design');
#369 = SHAPE_DEFINITION_REPRESENTATION(#360, #359);
#370 = CONSTRUCTIVE_GEOMETRY_REPRESENTATION('supplemental geometry', (#341, #345, #349), #354);
#371 = CONSTRUCTIVE_GEOMETRY_REPRESENTATION_RELATIONSHIP('', '', #359, #370);
#372 = SHAPE_REPRESENTATION_RELATIONSHIP('', '', #359, #373);
#373 = SHAPE_REPRESENTATION('', (#310), #354);
#374 = SHAPE_REPRESENTATION_RELATIONSHIP('', '', #359, #375);
#375 = ADVANCED_BREP_SHAPE_REPRESENTATION('', (#1, #155), #354);
ENDSEC;
END-ISO-10303-21;
