ISO-10303-21;
HEADER;
/****************************************************************
 * Generated by software with PDElib inside                     *
 * PDElib Version v7.5, created Tue 10/04/2016 12:12:03.09      *
 * International Technegroup Inc. (www.iti-global.com)          *
 ****************************************************************/
FILE_DESCRIPTION((''),'2;1');
FILE_NAME('E:\\17.0 Project Information\\2020\\12. 2D & 3D drawing for all HPMT product (dxf & stp file)\\...Customer request\\Dormer\\Sent to Dormer\\K67\\Step File\\K67 2000 125.stp','2020-09-07T14:27:40',(''),(''),'STEP Write','Mastercam 2019 ... CNC Software, Inc.','');
FILE_SCHEMA(('AUTOMOTIVE_DESIGN'));
ENDSEC;
DATA;
#10=(NAMED_UNIT(*)PLANE_ANGLE_UNIT()SI_UNIT($,.RADIAN.));
#11=DIMENSIONAL_EXPONENTS(0.0,0.0,0.0,0.0,0.0,0.0,0.0);
#12=PLANE_ANGLE_MEASURE_WITH_UNIT(PLANE_ANGLE_MEASURE(0.017453292500000),#10);
#16=(CONVERSION_BASED_UNIT('DEGREE',#12)NAMED_UNIT(#11)PLANE_ANGLE_UNIT());
#20=(NAMED_UNIT(*)SI_UNIT($,.STERADIAN.)SOLID_ANGLE_UNIT());
#24=(LENGTH_UNIT()NAMED_UNIT(*)SI_UNIT(.MILLI.,.METRE.));
#26=UNCERTAINTY_MEASURE_WITH_UNIT(LENGTH_MEASURE(0.000050000000000),#24,'DISTANCE_ACCURACY_VALUE','');
#28=(GEOMETRIC_REPRESENTATION_CONTEXT(3)GLOBAL_UNCERTAINTY_ASSIGNED_CONTEXT((#26))GLOBAL_UNIT_ASSIGNED_CONTEXT((#16,#20,#24))REPRESENTATION_CONTEXT('','3D'));
#29=APPLICATION_CONTEXT('automotive design');
#30=APPLICATION_PROTOCOL_DEFINITION('Draft International Standard','automotive_design',1998,#29);
#31=PRODUCT_CONTEXT('None',#29,'mechanical');
#32=PRODUCT('None','None','None',(#31));
#33=PRODUCT_RELATED_PRODUCT_CATEGORY('part','description',(#32));
#34=PRODUCT_DEFINITION_FORMATION('None','None',#32);
#35=PRODUCT_DEFINITION_CONTEXT('part definition',#29,'design');
#36=PRODUCT_DEFINITION('None','None',#34,#35);
#37=PRODUCT_DEFINITION_SHAPE('None','None',#36);
#38=SHAPE_REPRESENTATION('',(),#28);
#39=SHAPE_DEFINITION_REPRESENTATION(#37,#38);
#40=CARTESIAN_POINT('',(0.0,0.0,0.0));
#41=DIRECTION('',(1.0,0.0,0.0));
#42=VECTOR('',#41,9.699999999999999);
#43=LINE('',#40,#42);
#44=CARTESIAN_POINT('',(9.699999999999999,0.0,0.0));
#45=TRIMMED_CURVE('',#43,(PARAMETER_VALUE(0.0),#40),(PARAMETER_VALUE(1.0),#44),.T.,.PARAMETER.);
#46=CARTESIAN_POINT('',(10.0,0.300000000000000,0.0));
#47=DIRECTION('',(0.0,1.0,0.0));
#48=VECTOR('',#47,66.700000000000003);
#49=LINE('',#46,#48);
#50=CARTESIAN_POINT('',(10.0,67.0,0.0));
#51=TRIMMED_CURVE('',#49,(PARAMETER_VALUE(0.0),#46),(PARAMETER_VALUE(1.0),#50),.T.,.PARAMETER.);
#52=CARTESIAN_POINT('',(10.0,67.0,0.0));
#53=DIRECTION('',(-1.0,0.0,0.0));
#54=VECTOR('',#53,0.150000000000000);
#55=LINE('',#52,#54);
#56=CARTESIAN_POINT('',(9.850000000000000,67.0,0.0));
#57=TRIMMED_CURVE('',#55,(PARAMETER_VALUE(0.0),#52),(PARAMETER_VALUE(1.0),#56),.T.,.PARAMETER.);
#58=CARTESIAN_POINT('',(9.850000381469727,67.0,0.0));
#59=DIRECTION('',(0.0,1.0,0.0));
#60=VECTOR('',#59,8.0);
#61=LINE('',#58,#60);
#62=CARTESIAN_POINT('',(9.850000381469727,75.0,0.0));
#63=TRIMMED_CURVE('',#61,(PARAMETER_VALUE(0.0),#58),(PARAMETER_VALUE(1.0),#62),.T.,.PARAMETER.);
#64=CARTESIAN_POINT('',(9.850000381469727,75.0,0.0));
#65=DIRECTION('',(1.0,0.0,0.0));
#66=VECTOR('',#65,0.150000000000004);
#67=LINE('',#64,#66);
#68=CARTESIAN_POINT('',(10.000000381469730,75.0,0.0));
#69=TRIMMED_CURVE('',#67,(PARAMETER_VALUE(0.0),#64),(PARAMETER_VALUE(1.0),#68),.T.,.PARAMETER.);
#70=CARTESIAN_POINT('',(10.000000381469730,75.0,0.0));
#71=DIRECTION('',(0.0,1.0,0.0));
#72=VECTOR('',#71,50.0);
#73=LINE('',#70,#72);
#74=CARTESIAN_POINT('',(10.000000381469730,125.0,0.0));
#75=TRIMMED_CURVE('',#73,(PARAMETER_VALUE(0.0),#70),(PARAMETER_VALUE(1.0),#74),.T.,.PARAMETER.);
#76=CARTESIAN_POINT('',(0.0,125.0,0.0));
#77=DIRECTION('',(1.0,0.0,0.0));
#78=VECTOR('',#77,10.000000381469730);
#79=LINE('',#76,#78);
#80=CARTESIAN_POINT('',(10.000000381469730,125.0,0.0));
#81=TRIMMED_CURVE('',#79,(PARAMETER_VALUE(0.0),#76),(PARAMETER_VALUE(1.0),#80),.T.,.PARAMETER.);
#82=CARTESIAN_POINT('',(9.699999999999999,0.300000000000000,0.0));
#83=DIRECTION('',(0.0,0.0,1.0));
#84=DIRECTION('',(1.0,0.0,0.0));
#85=AXIS2_PLACEMENT_3D('',#82,#83,#84);
#86=CIRCLE('',#85,0.300000000000000);
#87=CARTESIAN_POINT('',(0.0,125.0,0.0));
#88=DIRECTION('',(0.0,-1.0,0.0));
#89=VECTOR('',#88,125.0);
#90=LINE('',#87,#89);
#91=CARTESIAN_POINT('',(0.0,0.0,0.0));
#92=TRIMMED_CURVE('',#90,(PARAMETER_VALUE(0.0),#87),(PARAMETER_VALUE(1.0),#91),.T.,.PARAMETER.);
#93=CARTESIAN_POINT('',(0.0,125.0,0.0));
#94=DIRECTION('',(0.0,1.0,0.0));
#95=DIRECTION('',(0.0,0.0,1.0));
#96=AXIS2_PLACEMENT_3D('',#93,#94,#95);
#97=PLANE('',#96);
#98=CARTESIAN_POINT('',(0.0,125.0,10.000000381469730));
#99=VERTEX_POINT('',#98);
#100=CARTESIAN_POINT('',(0.0,125.0,0.0));
#101=DIRECTION('',(0.0,1.0,0.0));
#102=DIRECTION('',(0.0,0.0,1.0));
#103=AXIS2_PLACEMENT_3D('',#100,#101,#102);
#104=CIRCLE('',#103,10.000000381469730);
#105=EDGE_CURVE('',#99,#99,#104,.T.);
#106=ORIENTED_EDGE('',*,*,#105,.T.);
#107=EDGE_LOOP('',(#106));
#108=FACE_OUTER_BOUND('',#107,.T.);
#109=ADVANCED_FACE('',(#108),#97,.T.);
#110=CARTESIAN_POINT('',(0.0,125.0,0.0));
#111=DIRECTION('',(0.0,1.0,0.0));
#112=DIRECTION('',(0.0,0.0,1.0));
#113=AXIS2_PLACEMENT_3D('',#110,#111,#112);
#114=CYLINDRICAL_SURFACE('',#113,10.000000381469730);
#115=ORIENTED_EDGE('',*,*,#105,.F.);
#116=EDGE_LOOP('',(#115));
#117=FACE_BOUND('',#116,.T.);
#118=CARTESIAN_POINT('',(0.0,75.0,10.000000381469730));
#119=VERTEX_POINT('',#118);
#120=CARTESIAN_POINT('',(0.0,75.0,0.0));
#121=DIRECTION('',(0.0,1.0,0.0));
#122=DIRECTION('',(0.0,0.0,1.0));
#123=AXIS2_PLACEMENT_3D('',#120,#121,#122);
#124=CIRCLE('',#123,10.000000381469730);
#125=EDGE_CURVE('',#119,#119,#124,.T.);
#126=ORIENTED_EDGE('',*,*,#125,.T.);
#127=EDGE_LOOP('',(#126));
#128=FACE_BOUND('',#127,.T.);
#129=ADVANCED_FACE('',(#117,#128),#114,.T.);
#130=CARTESIAN_POINT('',(9.850000381469727,75.000000000000014,0.0));
#131=DIRECTION('',(0.0,1.0,0.0));
#132=DIRECTION('',(0.0,0.0,1.0));
#133=AXIS2_PLACEMENT_3D('',#130,#131,#132);
#134=PLANE('',#133);
#135=ORIENTED_EDGE('',*,*,#125,.F.);
#136=EDGE_LOOP('',(#135));
#137=FACE_OUTER_BOUND('',#136,.T.);
#138=CARTESIAN_POINT('',(0.0,75.000000000000014,9.850000381469727));
#139=VERTEX_POINT('',#138);
#140=CARTESIAN_POINT('',(0.0,75.000000000000014,0.0));
#141=DIRECTION('',(0.0,1.0,0.0));
#142=DIRECTION('',(0.0,0.0,1.0));
#143=AXIS2_PLACEMENT_3D('',#140,#141,#142);
#144=CIRCLE('',#143,9.850000381469727);
#145=EDGE_CURVE('',#139,#139,#144,.T.);
#146=ORIENTED_EDGE('',*,*,#145,.T.);
#147=EDGE_LOOP('',(#146));
#148=FACE_BOUND('',#147,.T.);
#149=ADVANCED_FACE('',(#137,#148),#134,.F.);
#150=CARTESIAN_POINT('',(0.0,125.0,0.0));
#151=DIRECTION('',(0.0,1.0,0.0));
#152=DIRECTION('',(0.0,0.0,1.0));
#153=AXIS2_PLACEMENT_3D('',#150,#151,#152);
#154=CYLINDRICAL_SURFACE('',#153,9.850000381469727);
#155=ORIENTED_EDGE('',*,*,#145,.F.);
#156=EDGE_LOOP('',(#155));
#157=FACE_BOUND('',#156,.T.);
#158=CARTESIAN_POINT('',(0.0,67.0,9.850000381469727));
#159=VERTEX_POINT('',#158);
#160=CARTESIAN_POINT('',(0.0,67.0,0.0));
#161=DIRECTION('',(0.0,1.0,0.0));
#162=DIRECTION('',(0.0,0.0,1.0));
#163=AXIS2_PLACEMENT_3D('',#160,#161,#162);
#164=CIRCLE('',#163,9.850000381469727);
#165=EDGE_CURVE('',#159,#159,#164,.T.);
#166=ORIENTED_EDGE('',*,*,#165,.T.);
#167=EDGE_LOOP('',(#166));
#168=FACE_BOUND('',#167,.T.);
#169=ADVANCED_FACE('',(#157,#168),#154,.T.);
#170=CARTESIAN_POINT('',(10.0,67.0,0.0));
#171=DIRECTION('',(0.0,-1.0,0.0));
#172=DIRECTION('',(0.0,0.0,-1.0));
#173=AXIS2_PLACEMENT_3D('',#170,#171,#172);
#174=PLANE('',#173);
#175=CARTESIAN_POINT('',(0.0,67.0,10.0));
#176=VERTEX_POINT('',#175);
#177=CARTESIAN_POINT('',(0.0,67.0,0.0));
#178=DIRECTION('',(0.0,1.0,0.0));
#179=DIRECTION('',(0.0,0.0,1.0));
#180=AXIS2_PLACEMENT_3D('',#177,#178,#179);
#181=CIRCLE('',#180,10.0);
#182=EDGE_CURVE('',#176,#176,#181,.T.);
#183=ORIENTED_EDGE('',*,*,#182,.T.);
#184=EDGE_LOOP('',(#183));
#185=FACE_OUTER_BOUND('',#184,.T.);
#186=ORIENTED_EDGE('',*,*,#165,.F.);
#187=EDGE_LOOP('',(#186));
#188=FACE_BOUND('',#187,.T.);
#189=ADVANCED_FACE('',(#185,#188),#174,.F.);
#190=CARTESIAN_POINT('',(0.0,125.0,0.0));
#191=DIRECTION('',(0.0,1.0,0.0));
#192=DIRECTION('',(0.0,0.0,1.0));
#193=AXIS2_PLACEMENT_3D('',#190,#191,#192);
#194=CYLINDRICAL_SURFACE('',#193,10.0);
#195=ORIENTED_EDGE('',*,*,#182,.F.);
#196=EDGE_LOOP('',(#195));
#197=FACE_BOUND('',#196,.T.);
#198=CARTESIAN_POINT('',(0.0,0.299999999999995,10.0));
#199=VERTEX_POINT('',#198);
#200=CARTESIAN_POINT('',(0.0,0.299999999999995,0.0));
#201=DIRECTION('',(0.0,1.0,0.0));
#202=DIRECTION('',(0.0,0.0,1.0));
#203=AXIS2_PLACEMENT_3D('',#200,#201,#202);
#204=CIRCLE('',#203,10.0);
#205=EDGE_CURVE('',#199,#199,#204,.T.);
#206=ORIENTED_EDGE('',*,*,#205,.T.);
#207=EDGE_LOOP('',(#206));
#208=FACE_BOUND('',#207,.T.);
#209=ADVANCED_FACE('',(#197,#208),#194,.T.);
#210=CARTESIAN_POINT('',(0.0,0.300000000000000,0.0));
#211=DIRECTION('',(0.0,1.0,0.0));
#212=DIRECTION('',(0.0,0.0,1.0));
#213=AXIS2_PLACEMENT_3D('',#210,#211,#212);
#214=TOROIDAL_SURFACE('',#213,9.700000000000001,0.300000000000000);
#215=CARTESIAN_POINT('',(0.0,0.0,9.699999999999999));
#216=VERTEX_POINT('',#215);
#217=CARTESIAN_POINT('',(0.0,0.0,0.0));
#218=DIRECTION('',(0.0,1.0,0.0));
#219=DIRECTION('',(0.0,0.0,1.0));
#220=AXIS2_PLACEMENT_3D('',#217,#218,#219);
#221=CIRCLE('',#220,9.699999999999999);
#222=EDGE_CURVE('',#216,#216,#221,.T.);
#223=ORIENTED_EDGE('',*,*,#222,.T.);
#224=EDGE_LOOP('',(#223));
#225=FACE_BOUND('',#224,.T.);
#226=ORIENTED_EDGE('',*,*,#205,.F.);
#227=EDGE_LOOP('',(#226));
#228=FACE_BOUND('',#227,.T.);
#229=ADVANCED_FACE('',(#225,#228),#214,.T.);
#230=CARTESIAN_POINT('',(0.0,0.0,0.0));
#231=DIRECTION('',(0.0,1.0,0.0));
#232=DIRECTION('',(0.0,0.0,1.0));
#233=AXIS2_PLACEMENT_3D('',#230,#231,#232);
#234=PLANE('',#233);
#235=ORIENTED_EDGE('',*,*,#222,.F.);
#236=EDGE_LOOP('',(#235));
#237=FACE_OUTER_BOUND('',#236,.T.);
#238=ADVANCED_FACE('',(#237),#234,.F.);
#239=CLOSED_SHELL('',(#109,#129,#149,#169,#189,#209,#229,#238));
#240=MANIFOLD_SOLID_BREP('',#239);
#241=ADVANCED_BREP_SHAPE_REPRESENTATION('',(#240),#28);
#242=SHAPE_REPRESENTATION_RELATIONSHIP('','',#241,#38);
#243=GEOMETRIC_SET('',(#45,#51,#57,#63,#69,#75,#81,#92));
#244=GEOMETRICALLY_BOUNDED_SURFACE_SHAPE_REPRESENTATION('',(#243),#28);
#245=SHAPE_REPRESENTATION_RELATIONSHIP('','',#244,#38);
#246=COLOUR_RGB('',0.0,0.0,1.0);
#247=DRAUGHTING_PRE_DEFINED_CURVE_FONT('continuous');
#248=CURVE_STYLE('',#247,POSITIVE_LENGTH_MEASURE(0.100000000000000),#246);
#249=PRESENTATION_STYLE_ASSIGNMENT((#248));
#250=STYLED_ITEM('',(#249),#45);
#251=STYLED_ITEM('',(#249),#51);
#252=STYLED_ITEM('',(#249),#57);
#253=STYLED_ITEM('',(#249),#63);
#254=STYLED_ITEM('',(#249),#69);
#255=STYLED_ITEM('',(#249),#75);
#256=STYLED_ITEM('',(#249),#81);
#257=COLOUR_RGB('',0.501960784313725,0.501960784313725,0.501960784313725);
#258=DRAUGHTING_PRE_DEFINED_CURVE_FONT('continuous');
#259=CURVE_STYLE('',#258,POSITIVE_LENGTH_MEASURE(0.100000000000000),#257);
#260=PRESENTATION_STYLE_ASSIGNMENT((#259));
#261=STYLED_ITEM('',(#260),#92);
#262=FILL_AREA_STYLE_COLOUR('',#257);
#263=FILL_AREA_STYLE('',(#262));
#264=SURFACE_STYLE_FILL_AREA(#263);
#265=SURFACE_SIDE_STYLE('',(#264));
#266=SURFACE_STYLE_USAGE(.BOTH.,#265);
#267=PRESENTATION_STYLE_ASSIGNMENT((#266));
#268=STYLED_ITEM('',(#267),#109);
#269=STYLED_ITEM('',(#267),#129);
#270=STYLED_ITEM('',(#267),#149);
#271=STYLED_ITEM('',(#267),#169);
#272=STYLED_ITEM('',(#267),#189);
#273=STYLED_ITEM('',(#267),#209);
#274=STYLED_ITEM('',(#267),#229);
#275=STYLED_ITEM('',(#267),#238);
#276=STYLED_ITEM('',(#267),#240);
#277=PRESENTATION_LAYER_ASSIGNMENT('0','',(#45,#51,#57,#63,#69,#75,#81,#92,#240));
#278=MECHANICAL_DESIGN_GEOMETRIC_PRESENTATION_REPRESENTATION('',(#250,#251,#252,#253,#254,#255,#256,#261,#268,#269,#270,#271,#272,#273,#274,#275,#276),#28);
#279=PRESENTATION_STYLE_ASSIGNMENT((NULL_STYLE(.NULL.)));
#280=DRAUGHTING_MODEL('',(#290,#291),#28);
#281=AXIS2_PLACEMENT_3D('',#282,#283,#284);
#282=CARTESIAN_POINT('',(0.0,0.0,0.0));
#283=DIRECTION('',(0.0,0.0,1.0));
#284=DIRECTION('',(1.0,0.0,0.0));
#285=REPRESENTATION_MAP(#281,#38);
#286=AXIS2_PLACEMENT_3D('',#287,#288,#289);
#287=CARTESIAN_POINT('',(0.0,0.0,0.0));
#288=DIRECTION('',(0.0,0.0,1.0));
#289=DIRECTION('',(1.0,0.0,0.0));
#290=MAPPED_ITEM('',#285,#286);
#291=STYLED_ITEM('',(#279),#290);
ENDSEC;
END-ISO-10303-21;
