  0
SECTION
  2
HEADER
  9
$ACADVER
  1
AC1009
  9
$DWGCODEPAGE
  3
ansi_1252
  9
$INSBASE
 10
0.0
 20
0.0
 30
0.0
  9
$EXTMIN
 10
1.000000000000000E+20
 20
1.000000000000000E+20
 30
1.000000000000000E+20
  9
$EXTMAX
 10
-1.000000000000000E+20
 20
-1.000000000000000E+20
 30
-1.000000000000000E+20
  9
$LIMMIN
 10
0.0
 20
0.0
  9
$LIMMAX
 10
420.0
 20
297.0
  9
$ORTHOMODE
 70
     0
  9
$REGENMODE
 70
     1
  9
$FILLMODE
 70
     1
  9
$QTEXTMODE
 70
     0
  9
$MIRRTEXT
 70
     1
  9
$DRAGMODE
 70
     2
  9
$LTSCALE
 40
1.0
  9
$OSMODE
 70
    37
  9
$ATTMODE
 70
     1
  9
$TEXTSIZE
 40
2.5
  9
$TRACEWID
 40
1.0
  9
$TEXTSTYLE
  7
STANDARD
  9
$CLAYER
  8
0
  9
$CELTYPE
  6
BYLAYER
  9
$CECOLOR
 62
   256
  9
$DIMSCALE
 40
1.0
  9
$DIMASZ
 40
2.5
  9
$DIMEXO
 40
0.625
  9
$DIMDLI
 40
3.75
  9
$DIMRND
 40
0.0
  9
$DIMDLE
 40
0.0
  9
$DIMEXE
 40
1.25
  9
$DIMTP
 40
0.0
  9
$DIMTM
 40
0.0
  9
$DIMTXT
 40
2.5
  9
$DIMCEN
 40
2.5
  9
$DIMTSZ
 40
0.0
  9
$DIMTOL
 70
     0
  9
$DIMLIM
 70
     0
  9
$DIMTIH
 70
     0
  9
$DIMTOH
 70
     0
  9
$DIMSE1
 70
     0
  9
$DIMSE2
 70
     0
  9
$DIMTAD
 70
     1
  9
$DIMZIN
 70
     8
  9
$DIMBLK
  1

  9
$DIMASO
 70
     1
  9
$DIMSHO
 70
     1
  9
$DIMPOST
  1

  9
$DIMAPOST
  1

  9
$DIMALT
 70
     0
  9
$DIMALTD
 70
     3
  9
$DIMALTF
 40
0.03937007874016
  9
$DIMLFAC
 40
1.0
  9
$DIMTOFL
 70
     1
  9
$DIMTVP
 40
0.0
  9
$DIMTIX
 70
     0
  9
$DIMSOXD
 70
     0
  9
$DIMSAH
 70
     0
  9
$DIMBLK1
  1

  9
$DIMBLK2
  1

  9
$DIMSTYLE
  2
ISO-25
  9
$DIMCLRD
 70
     0
  9
$DIMCLRE
 70
     0
  9
$DIMCLRT
 70
     0
  9
$DIMTFAC
 40
1.0
  9
$DIMGAP
 40
0.625
  9
$LUNITS
 70
     2
  9
$LUPREC
 70
     4
  9
$SKETCHINC
 40
1.0
  9
$FILLETRAD
 40
10.0
  9
$AUNITS
 70
     0
  9
$AUPREC
 70
     0
  9
$MENU
  1
.
  9
$ELEVATION
 40
0.0
  9
$PELEVATION
 40
0.0
  9
$THICKNESS
 40
0.0
  9
$LIMCHECK
 70
     0
  9
$CHAMFERA
 40
0.0
  9
$CHAMFERB
 40
0.0
  9
$SKPOLY
 70
     0
  9
$TDCREATE
 40
2459100.464890069
  9
$TDUPDATE
 40
2459100.464890359
  9
$TDINDWG
 40
0.0000000116
  9
$TDUSRTIMER
 40
0.0000000116
  9
$USRTIMER
 70
     1
  9
$ANGBASE
 50
0.0
  9
$ANGDIR
 70
     0
  9
$PDMODE
 70
     0
  9
$PDSIZE
 40
0.0
  9
$PLINEWID
 40
0.0
  9
$COORDS
 70
     1
  9
$SPLFRAME
 70
     0
  9
$SPLINETYPE
 70
     6
  9
$SPLINESEGS
 70
     8
  9
$ATTDIA
 70
     0
  9
$ATTREQ
 70
     1
  9
$HANDLING
 70
     1
  9
$HANDSEED
  5
B73
  9
$SURFTAB1
 70
     6
  9
$SURFTAB2
 70
     6
  9
$SURFTYPE
 70
     6
  9
$SURFU
 70
     6
  9
$SURFV
 70
     6
  9
$UCSNAME
  2

  9
$UCSORG
 10
0.0
 20
0.0
 30
0.0
  9
$UCSXDIR
 10
1.0
 20
0.0
 30
0.0
  9
$UCSYDIR
 10
0.0
 20
1.0
 30
0.0
  9
$PUCSNAME
  2

  9
$PUCSORG
 10
0.0
 20
0.0
 30
0.0
  9
$PUCSXDIR
 10
1.0
 20
0.0
 30
0.0
  9
$PUCSYDIR
 10
0.0
 20
1.0
 30
0.0
  9
$USERI1
 70
     0
  9
$USERI2
 70
     0
  9
$USERI3
 70
     0
  9
$USERI4
 70
     0
  9
$USERI5
 70
     0
  9
$USERR1
 40
0.0
  9
$USERR2
 40
0.0
  9
$USERR3
 40
0.0
  9
$USERR4
 40
0.0
  9
$USERR5
 40
0.0
  9
$WORLDVIEW
 70
     1
  9
$SHADEDGE
 70
     3
  9
$SHADEDIF
 70
    70
  9
$TILEMODE
 70
     1
  9
$MAXACTVP
 70
    64
  9
$PLIMCHECK
 70
     0
  9
$PEXTMIN
 10
1.000000000000000E+20
 20
1.000000000000000E+20
 30
1.000000000000000E+20
  9
$PEXTMAX
 10
-1.000000000000000E+20
 20
-1.000000000000000E+20
 30
-1.000000000000000E+20
  9
$PLIMMIN
 10
0.0
 20
0.0
  9
$PLIMMAX
 10
420.0
 20
297.0
  9
$UNITMODE
 70
     0
  9
$VISRETAIN
 70
     1
  9
$PLINEGEN
 70
     0
  9
$PSLTSCALE
 70
     1
  0
ENDSEC
  0
SECTION
  2
TABLES
  0
TABLE
  2
VPORT
 70
     1
  0
VPORT
  2
*ACTIVE
 70
     0
 10
0.0
 20
0.0
 11
1.0
 21
1.0
 12
344.1869158878504
 22
148.5
 13
0.0
 23
0.0
 14
10.0
 24
10.0
 15
10.0
 25
10.0
 16
0.0
 26
0.0
 36
1.0
 17
0.0
 27
0.0
 37
0.0
 40
297.0
 41
1.972972972850329
 42
50.0
 43
0.0
 44
0.0
 50
0.0
 51
0.0
 71
     0
 72
   100
 73
     1
 74
     3
 75
     0
 76
     0
 77
     0
 78
     0
  0
ENDTAB
  0
TABLE
  2
LTYPE
 70
    17
  0
LTYPE
  2
CONTINUOUS
 70
     0
  3
Solid line
 72
    65
 73
     0
 40
0.0
  0
LTYPE
  2
HCS_00
 70
     0
  3
_______________
 72
    65
 73
     0
 40
0.0
  0
LTYPE
  2
HCS_01
 70
     0
  3
_______________
 72
    65
 73
     0
 40
0.0
  0
LTYPE
  2
HCS_02
 70
     0
  3
_ _ _ _ _ _ _ _ _ _ _ _ _ _ 
 72
    65
 73
     2
 40
10.0
 49
5.0
 49
-5.0
  0
LTYPE
  2
HCS_03
 70
     0
  3
_   _   _   _   _   _   _   
 72
    65
 73
     2
 40
3.3
 49
2.5
 49
-7.5
  0
LTYPE
  2
HCS_04
 70
     0
  3
_____ _ _____ _ _____ _ _____ _ 
 72
    65
 73
     4
 40
10.0
 49
6.25
 49
-1.25
 49
1.25
 49
-1.25
  0
LTYPE
  2
HCS_05
 70
     0
  3
___ _ _ ___ _ _ ___ _ _ ___ _ _ 
 72
    65
 73
     6
 40
10.0
 49
3.75
 49
-1.25
 49
1.25
 49
-1.25
 49
1.25
 49
-1.25
  0
LTYPE
  2
HCS_06
 70
     0
  3
___ . ___ . ___ . ___ . ___ . ___ . 
 72
    65
 73
     4
 40
10.0
 49
5.625
 49
-1.875
 49
0.625
 49
-1.875
  0
LTYPE
  2
HCS_07
 70
     0
  3
____ . . ____ . . ____ . . ____ . . 
 72
    65
 73
     6
 40
10.0
 49
5.0
 49
-1.25
 49
0.625
 49
-1.25
 49
0.625
 49
-1.25
  0
LTYPE
  2
HCS_08
 70
     0
  3
__ . _ . __ . _ . __ . _ . __ . _ . 
 72
    65
 73
     8
 40
10.0
 49
2.5
 49
-1.25
 49
0.625
 49
-1.25
 49
1.25
 49
-1.25
 49
0.625
 49
-1.25
  0
LTYPE
  2
HCS_09
 70
     0
  3
_____   _____   _____   _____    
 72
    65
 73
     2
 40
10.0
 49
6.25
 49
-3.75
  0
LTYPE
  2
HCS_10
 70
     0
  3
______   ______   ______   ______   
 72
    65
 73
     2
 40
10.0
 49
6.875
 49
-3.125
  0
LTYPE
  2
HCS_11
 70
     0
  3
___      ___      ___      ___      
 72
    65
 73
     2
 40
10.0
 49
3.125
 49
-6.875
  0
LTYPE
  2
HCS_12
 70
     0
  3
_____   _____   _____   _____   
 72
    65
 73
     2
 40
10.0
 49
5.625
 49
-4.375
  0
LTYPE
  2
HCS_13
 70
     0
  3
____    ____    ____    ____    
 72
    65
 73
     2
 40
10.0
 49
5.0
 49
-5.0
  0
LTYPE
  2
HCS_14
 70
     0
  3
__      __      __      __      
 72
    65
 73
     2
 40
10.0
 49
2.5
 49
-7.5
  0
LTYPE
  2
HCS_15
 70
     0
  3
_______________
 72
    65
 73
     0
 40
0.0
  0
ENDTAB
  0
TABLE
  2
LAYER
 70
     2
  0
LAYER
  2
0
 70
     0
 62
     7
  6
CONTINUOUS
  0
LAYER
  2
UNNAMED_LEVEL_1
 70
     0
 62
     7
  6
CONTINUOUS
  0
ENDTAB
  0
TABLE
  2
STYLE
 70
     1
  0
STYLE
  2
STANDARD
 70
     0
 40
0.0
 41
1.0
 50
0.0
 71
     0
 42
2.5
  3
txt
  4

  0
ENDTAB
  0
TABLE
  2
VIEW
 70
     0
  0
ENDTAB
  0
TABLE
  2
UCS
 70
     0
  0
ENDTAB
  0
TABLE
  2
APPID
 70
     2
  0
APPID
  2
ACAD
 70
     0
  0
APPID
  2
ACAECLAYERSTANDARD
 70
     0
  0
ENDTAB
  0
TABLE
  2
DIMSTYLE
 70
     1
  0
DIMSTYLE
  2
ISO-25
 70
     0
  3

  4

  5

  6

  7

 40
1.0
 41
2.5
 42
0.625
 43
3.75
 44
1.25
 45
0.0
 46
0.0
 47
0.0
 48
0.0
140
2.5
141
2.5
142
0.0
143
0.03937007874016
144
1.0
145
0.0
146
1.0
147
0.625
 71
     0
 72
     0
 73
     0
 74
     0
 75
     0
 76
     0
 77
     1
 78
     8
170
     0
171
     3
172
     1
173
     0
174
     0
175
     0
176
     0
177
     0
178
     0
  0
ENDTAB
  0
ENDSEC
  0
SECTION
  2
BLOCKS
  0
BLOCK
  8
0
  2
$MODEL_SPACE
 70
     0
 10
0.0
 20
0.0
 30
0.0
  3
$MODEL_SPACE
  1

  0
ENDBLK
  5
21
  8
0
  0
BLOCK
 67
     1
  8
0
  2
$PAPER_SPACE
 70
     0
 10
0.0
 20
0.0
 30
0.0
  3
$PAPER_SPACE
  1

  0
ENDBLK
  5
1D
 67
     1
  8
0
  0
BLOCK
  8
0
  2
GNODE_13
 70
     0
 10
0.0
 20
0.0
 30
0.0
  3
GNODE_13
  1

  0
LINE
  5
A5
  8
0
  6
HCS_01
 62
     7
 10
17.51310729980469
 20
0.0
 30
0.0
 11
2.75
 21
0.0
 31
0.0
  0
LINE
  5
A6
  8
0
  6
HCS_01
 62
     7
 10
17.51310729980469
 20
40.0
 30
0.0
 11
4.0
 21
40.0
 31
0.0
  0
LINE
  5
A7
  8
0
  6
HCS_01
 62
     7
 10
16.51310729980469
 20
-4.5
 30
0.0
 11
16.51310729980469
 21
18.5674991607666
 31
0.0
  0
LINE
  5
A8
  8
0
  6
HCS_01
 62
     7
 10
16.51310729980469
 20
21.96449851989746
 30
0.0
 11
16.51310729980469
 21
44.5
 31
0.0
  0
POLYLINE
  5
A9
  8
0
  6
HCS_01
 62
     7
 66
     1
 10
0.0
 20
0.0
 30
0.0
 70
    64
 71
   444
 72
   148
  0
VERTEX
  5
AA
  8
0
  6
HCS_01
 62
     7
 10
14.51757144927979
 20
19.89999961853027
 30
0.0099999997764826
 70
   192
  0
VERTEX
  5
AB
  8
0
  6
HCS_01
 62
     7
 10
14.64990425109863
 20
19.89999961853027
 30
0.0099999997764826
 70
   192
  0
VERTEX
  5
AC
  8
0
  6
HCS_01
 62
     7
 10
14.51757144927979
 20
20.78199195861816
 30
0.0099999997764826
 70
   192
  0
VERTEX
  5
AD
  8
0
  6
HCS_01
 62
     7
 10
14.64990425109863
 20
20.78199195861816
 30
0.0099999997764826
 70
   192
  0
VERTEX
  5
AE
  8
0
  6
HCS_01
 62
     7
 10
14.51757144927979
 20
20.78199195861816
 30
0.0099999997764826
 70
   192
  0
VERTEX
  5
AF
  8
0
  6
HCS_01
 62
     7
 10
14.64990425109863
 20
19.89999961853027
 30
0.0099999997764826
 70
   192
  0
VERTEX
  5
B0
  8
0
  6
HCS_01
 62
     7
 10
14.51757144927979
 20
20.78199195861816
 30
0.0099999997764826
 70
   192
  0
VERTEX
  5
B1
  8
0
  6
HCS_01
 62
     7
 10
14.64990425109863
 20
20.78199195861816
 30
0.0099999997764826
 70
   192
  0
VERTEX
  5
B2
  8
0
  6
HCS_01
 62
     7
 10
14.98073673248291
 20
20.89999961853027
 30
0.0099999997764826
 70
   192
  0
VERTEX
  5
B3
  8
0
  6
HCS_01
 62
     7
 10
14.98073673248291
 20
20.78199195861816
 30
0.0099999997764826
 70
   192
  0
VERTEX
  5
B4
  8
0
  6
HCS_01
 62
     7
 10
14.98073673248291
 20
20.89999961853027
 30
0.0099999997764826
 70
   192
  0
VERTEX
  5
B5
  8
0
  6
HCS_01
 62
     7
 10
14.64990425109863
 20
20.78199195861816
 30
0.0099999997764826
 70
   192
  0
VERTEX
  5
B6
  8
0
  6
HCS_01
 62
     7
 10
14.18810367584229
 20
20.89999961853027
 30
0.0099999997764826
 70
   192
  0
VERTEX
  5
B7
  8
0
  6
HCS_01
 62
     7
 10
14.18810367584229
 20
20.78199195861816
 30
0.0099999997764826
 70
   192
  0
VERTEX
  5
B8
  8
0
  6
HCS_01
 62
     7
 10
14.51757144927979
 20
20.78199195861816
 30
0.0099999997764826
 70
   192
  0
VERTEX
  5
B9
  8
0
  6
HCS_01
 62
     7
 10
14.18810367584229
 20
20.89999961853027
 30
0.0099999997764826
 70
   192
  0
VERTEX
  5
BA
  8
0
  6
HCS_01
 62
     7
 10
14.51757144927979
 20
20.78199195861816
 30
0.0099999997764826
 70
   192
  0
VERTEX
  5
BB
  8
0
  6
HCS_01
 62
     7
 10
14.98073673248291
 20
20.89999961853027
 30
0.0099999997764826
 70
   192
  0
VERTEX
  5
BC
  8
0
  6
HCS_01
 62
     7
 10
15.11102294921875
 20
19.89999961853027
 30
0.0099999997764826
 70
   192
  0
VERTEX
  5
BD
  8
0
  6
HCS_01
 62
     7
 10
15.73585224151611
 20
19.89999961853027
 30
0.0099999997764826
 70
   192
  0
VERTEX
  5
BE
  8
0
  6
HCS_01
 62
     7
 10
15.73585224151611
 20
20.01800727844238
 30
0.0099999997764826
 70
   192
  0
VERTEX
  5
BF
  8
0
  6
HCS_01
 62
     7
 10
15.11102294921875
 20
19.89999961853027
 30
0.0099999997764826
 70
   192
  0
VERTEX
  5
C0
  8
0
  6
HCS_01
 62
     7
 10
15.73585224151611
 20
20.01800727844238
 30
0.0099999997764826
 70
   192
  0
VERTEX
  5
C1
  8
0
  6
HCS_01
 62
     7
 10
15.2433557510376
 20
20.01800727844238
 30
0.0099999997764826
 70
   192
  0
VERTEX
  5
C2
  8
0
  6
HCS_01
 62
     7
 10
15.11102294921875
 20
19.89999961853027
 30
0.0099999997764826
 70
   192
  0
VERTEX
  5
C3
  8
0
  6
HCS_01
 62
     7
 10
15.2433557510376
 20
20.01800727844238
 30
0.0099999997764826
 70
   192
  0
VERTEX
  5
C4
  8
0
  6
HCS_01
 62
     7
 10
15.2433557510376
 20
20.89999961853027
 30
0.0099999997764826
 70
   192
  0
VERTEX
  5
C5
  8
0
  6
HCS_01
 62
     7
 10
15.11102294921875
 20
19.89999961853027
 30
0.0099999997764826
 70
   192
  0
VERTEX
  5
C6
  8
0
  6
HCS_01
 62
     7
 10
15.2433557510376
 20
20.89999961853027
 30
0.0099999997764826
 70
   192
  0
VERTEX
  5
C7
  8
0
  6
HCS_01
 62
     7
 10
15.11102294921875
 20
20.89999961853027
 30
0.0099999997764826
 70
   192
  0
VERTEX
  5
C8
  8
0
  6
HCS_01
 62
     7
 10
16.19151306152344
 20
20.13942718505859
 30
0.0099999997764826
 70
   192
  0
VERTEX
  5
C9
  8
0
  6
HCS_01
 62
     7
 10
16.62534713745117
 20
20.13942718505859
 30
0.0099999997764826
 70
   192
  0
VERTEX
  5
CA
  8
0
  6
HCS_01
 62
     7
 10
16.19151306152344
 20
20.25197792053223
 30
0.0099999997764826
 70
   192
  0
VERTEX
  5
CB
  8
0
  6
HCS_01
 62
     7
 10
16.3122501373291
 20
20.25197792053223
 30
0.0099999997764826
 70
   192
  0
VERTEX
  5
CC
  8
0
  6
HCS_01
 62
     7
 10
16.19151306152344
 20
20.25197792053223
 30
0.0099999997764826
 70
   192
  0
VERTEX
  5
CD
  8
0
  6
HCS_01
 62
     7
 10
16.62534713745117
 20
20.13942718505859
 30
0.0099999997764826
 70
   192
  0
VERTEX
  5
CE
  8
0
  6
HCS_01
 62
     7
 10
16.19151306152344
 20
20.25197792053223
 30
0.0099999997764826
 70
   192
  0
VERTEX
  5
CF
  8
0
  6
HCS_01
 62
     7
 10
16.3122501373291
 20
20.25197792053223
 30
0.0099999997764826
 70
   192
  0
VERTEX
  5
D0
  8
0
  6
HCS_01
 62
     7
 10
16.64785766601562
 20
20.89999961853027
 30
0.0099999997764826
 70
   192
  0
VERTEX
  5
D1
  8
0
  6
HCS_01
 62
     7
 10
16.62534713745117
 20
20.7028636932373
 30
0.0099999997764826
 70
   192
  0
VERTEX
  5
D2
  8
0
  6
HCS_01
 62
     7
 10
16.64785766601562
 20
20.89999961853027
 30
0.0099999997764826
 70
   192
  0
VERTEX
  5
D3
  8
0
  6
HCS_01
 62
     7
 10
16.3122501373291
 20
20.25197792053223
 30
0.0099999997764826
 70
   192
  0
VERTEX
  5
D4
  8
0
  6
HCS_01
 62
     7
 10
16.64785766601562
 20
20.89999961853027
 30
0.0099999997764826
 70
   192
  0
VERTEX
  5
D5
  8
0
  6
HCS_01
 62
     7
 10
16.62534713745117
 20
20.7028636932373
 30
0.0099999997764826
 70
   192
  0
VERTEX
  5
D6
  8
0
  6
HCS_01
 62
     7
 10
16.74813079833984
 20
19.89999961853027
 30
0.0099999997764826
 70
   192
  0
VERTEX
  5
D7
  8
0
  6
HCS_01
 62
     7
 10
16.62534713745117
 20
20.25197792053223
 30
0.0099999997764826
 70
   192
  0
VERTEX
  5
D8
  8
0
  6
HCS_01
 62
     7
 10
16.74813079833984
 20
19.89999961853027
 30
0.0099999997764826
 70
   192
  0
VERTEX
  5
D9
  8
0
  6
HCS_01
 62
     7
 10
16.62534713745117
 20
20.7028636932373
 30
0.0099999997764826
 70
   192
  0
VERTEX
  5
DA
  8
0
  6
HCS_01
 62
     7
 10
16.74813079833984
 20
19.89999961853027
 30
0.0099999997764826
 70
   192
  0
VERTEX
  5
DB
  8
0
  6
HCS_01
 62
     7
 10
16.62534713745117
 20
20.25197792053223
 30
0.0099999997764826
 70
   192
  0
VERTEX
  5
DC
  8
0
  6
HCS_01
 62
     7
 10
16.62534713745117
 20
20.13942718505859
 30
0.0099999997764826
 70
   192
  0
VERTEX
  5
DD
  8
0
  6
HCS_01
 62
     7
 10
16.3122501373291
 20
20.25197792053223
 30
0.0099999997764826
 70
   192
  0
VERTEX
  5
DE
  8
0
  6
HCS_01
 62
     7
 10
16.62534713745117
 20
20.13942718505859
 30
0.0099999997764826
 70
   192
  0
VERTEX
  5
DF
  8
0
  6
HCS_01
 62
     7
 10
16.62534713745117
 20
20.25197792053223
 30
0.0099999997764826
 70
   192
  0
VERTEX
  5
E0
  8
0
  6
HCS_01
 62
     7
 10
16.64785766601562
 20
20.89999961853027
 30
0.0099999997764826
 70
   192
  0
VERTEX
  5
E1
  8
0
  6
HCS_01
 62
     7
 10
16.74813079833984
 20
19.89999961853027
 30
0.0099999997764826
 70
   192
  0
VERTEX
  5
E2
  8
0
  6
HCS_01
 62
     7
 10
16.74813079833984
 20
20.89999961853027
 30
0.0099999997764826
 70
   192
  0
VERTEX
  5
E3
  8
0
  6
HCS_01
 62
     7
 10
16.74813079833984
 20
20.13942718505859
 30
0.0099999997764826
 70
   192
  0
VERTEX
  5
E4
  8
0
  6
HCS_01
 62
     7
 10
16.74813079833984
 20
20.89999961853027
 30
0.0099999997764826
 70
   192
  0
VERTEX
  5
E5
  8
0
  6
HCS_01
 62
     7
 10
16.74813079833984
 20
19.89999961853027
 30
0.0099999997764826
 70
   192
  0
VERTEX
  5
E6
  8
0
  6
HCS_01
 62
     7
 10
16.74813079833984
 20
20.25197792053223
 30
0.0099999997764826
 70
   192
  0
VERTEX
  5
E7
  8
0
  6
HCS_01
 62
     7
 10
16.74813079833984
 20
20.13942718505859
 30
0.0099999997764826
 70
   192
  0
VERTEX
  5
E8
  8
0
  6
HCS_01
 62
     7
 10
16.74813079833984
 20
20.89999961853027
 30
0.0099999997764826
 70
   192
  0
VERTEX
  5
E9
  8
0
  6
HCS_01
 62
     7
 10
16.88319206237793
 20
20.13942718505859
 30
0.0099999997764826
 70
   192
  0
VERTEX
  5
EA
  8
0
  6
HCS_01
 62
     7
 10
16.74813079833984
 20
20.25197792053223
 30
0.0099999997764826
 70
   192
  0
VERTEX
  5
EB
  8
0
  6
HCS_01
 62
     7
 10
16.74813079833984
 20
20.13942718505859
 30
0.0099999997764826
 70
   192
  0
VERTEX
  5
EC
  8
0
  6
HCS_01
 62
     7
 10
16.74813079833984
 20
20.25197792053223
 30
0.0099999997764826
 70
   192
  0
VERTEX
  5
ED
  8
0
  6
HCS_01
 62
     7
 10
16.88319206237793
 20
20.13942718505859
 30
0.0099999997764826
 70
   192
  0
VERTEX
  5
EE
  8
0
  6
HCS_01
 62
     7
 10
16.88319206237793
 20
20.25197792053223
 30
0.0099999997764826
 70
   192
  0
VERTEX
  5
EF
  8
0
  6
HCS_01
 62
     7
 10
16.74813079833984
 20
19.89999961853027
 30
0.0099999997764826
 70
   192
  0
VERTEX
  5
F0
  8
0
  6
HCS_01
 62
     7
 10
16.62534713745117
 20
20.13942718505859
 30
0.0099999997764826
 70
   192
  0
VERTEX
  5
F1
  8
0
  6
HCS_01
 62
     7
 10
16.62534713745117
 20
19.89999961853027
 30
0.0099999997764826
 70
   192
  0
VERTEX
  5
F2
  8
0
  6
HCS_01
 62
     7
 10
17.66081809997559
 20
20.39317893981934
 30
0.0099999997764826
 70
   192
  0
VERTEX
  5
F3
  8
0
  6
HCS_01
 62
     7
 10
17.65519142150879
 20
20.52661895751953
 30
0.0099999997764826
 70
   192
  0
VERTEX
  5
F4
  8
0
  6
HCS_01
 62
     7
 10
17.65177917480469
 20
20.23415756225586
 30
0.0099999997764826
 70
   192
  0
VERTEX
  5
F5
  8
0
  6
HCS_01
 62
     7
 10
17.63830757141113
 20
20.62953567504883
 30
0.0099999997764826
 70
   192
  0
VERTEX
  5
F6
  8
0
  6
HCS_01
 62
     7
 10
17.65177917480469
 20
20.23415756225586
 30
0.0099999997764826
 70
   192
  0
VERTEX
  5
F7
  8
0
  6
HCS_01
 62
     7
 10
17.65519142150879
 20
20.52661895751953
 30
0.0099999997764826
 70
   192
  0
VERTEX
  5
F8
  8
0
  6
HCS_01
 62
     7
 10
17.65177917480469
 20
20.23415756225586
 30
0.0099999997764826
 70
   192
  0
VERTEX
  5
F9
  8
0
  6
HCS_01
 62
     7
 10
17.63830757141113
 20
20.62953567504883
 30
0.0099999997764826
 70
   192
  0
VERTEX
  5
FA
  8
0
  6
HCS_01
 62
     7
 10
17.62466621398926
 20
20.10907173156738
 30
0.0099999997764826
 70
   192
  0
VERTEX
  5
FB
  8
0
  6
HCS_01
 62
     7
 10
17.61153411865234
 20
20.71053886413574
 30
0.0099999997764826
 70
   192
  0
VERTEX
  5
FC
  8
0
  6
HCS_01
 62
     7
 10
17.62466621398926
 20
20.10907173156738
 30
0.0099999997764826
 70
   192
  0
VERTEX
  5
FD
  8
0
  6
HCS_01
 62
     7
 10
17.63830757141113
 20
20.62953567504883
 30
0.0099999997764826
 70
   192
  0
VERTEX
  5
FE
  8
0
  6
HCS_01
 62
     7
 10
17.62466621398926
 20
20.10907173156738
 30
0.0099999997764826
 70
   192
  0
VERTEX
  5
FF
  8
0
  6
HCS_01
 62
     7
 10
17.61153411865234
 20
20.71053886413574
 30
0.0099999997764826
 70
   192
  0
VERTEX
  5
100
  8
0
  6
HCS_01
 62
     7
 10
17.57955932617188
 20
20.01323318481445
 30
0.0099999997764826
 70
   192
  0
VERTEX
  5
101
  8
0
  6
HCS_01
 62
     7
 10
17.57623481750488
 20
20.77824020385742
 30
0.0099999997764826
 70
   192
  0
VERTEX
  5
102
  8
0
  6
HCS_01
 62
     7
 10
17.57955932617188
 20
20.01323318481445
 30
0.0099999997764826
 70
   192
  0
VERTEX
  5
103
  8
0
  6
HCS_01
 62
     7
 10
17.61153411865234
 20
20.71053886413574
 30
0.0099999997764826
 70
   192
  0
VERTEX
  5
104
  8
0
  6
HCS_01
 62
     7
 10
17.57955932617188
 20
20.01323318481445
 30
0.0099999997764826
 70
   192
  0
VERTEX
  5
105
  8
0
  6
HCS_01
 62
     7
 10
17.57623481750488
 20
20.77824020385742
 30
0.0099999997764826
 70
   192
  0
VERTEX
  5
106
  8
0
  6
HCS_01
 62
     7
 10
17.53462409973145
 20
20.39317893981934
 30
0.0099999997764826
 70
   192
  0
VERTEX
  5
107
  8
0
  6
HCS_01
 62
     7
 10
17.5313835144043
 20
20.83212852478027
 30
0.0099999997764826
 70
   192
  0
VERTEX
  5
108
  8
0
  6
HCS_01
 62
     7
 10
17.53462409973145
 20
20.39317893981934
 30
0.0099999997764826
 70
   192
  0
VERTEX
  5
109
  8
0
  6
HCS_01
 62
     7
 10
17.57623481750488
 20
20.77824020385742
 30
0.0099999997764826
 70
   192
  0
VERTEX
  5
10A
  8
0
  6
HCS_01
 62
     7
 10
17.53462409973145
 20
20.39317893981934
 30
0.0099999997764826
 70
   192
  0
VERTEX
  5
10B
  8
0
  6
HCS_01
 62
     7
 10
17.5313835144043
 20
20.83212852478027
 30
0.0099999997764826
 70
   192
  0
VERTEX
  5
10C
  8
0
  6
HCS_01
 62
     7
 10
17.52021408081055
 20
20.59866905212402
 30
0.0099999997764826
 70
   192
  0
VERTEX
  5
10D
  8
0
  6
HCS_01
 62
     7
 10
17.47698402404785
 20
20.72128295898438
 30
0.0099999997764826
 70
   192
  0
VERTEX
  5
10E
  8
0
  6
HCS_01
 62
     7
 10
17.52021408081055
 20
20.59866905212402
 30
0.0099999997764826
 70
   192
  0
VERTEX
  5
10F
  8
0
  6
HCS_01
 62
     7
 10
17.5313835144043
 20
20.83212852478027
 30
0.0099999997764826
 70
   192
  0
VERTEX
  5
110
  8
0
  6
HCS_01
 62
     7
 10
17.47596168518066
 20
20.87169075012207
 30
0.0099999997764826
 70
   192
  0
VERTEX
  5
111
  8
0
  6
HCS_01
 62
     7
 10
17.41030693054199
 20
20.89599227905273
 30
0.0099999997764826
 70
   192
  0
VERTEX
  5
112
  8
0
  6
HCS_01
 62
     7
 10
17.41226768493652
 20
20.78216171264648
 30
0.0099999997764826
 70
   192
  0
VERTEX
  5
113
  8
0
  6
HCS_01
 62
     7
 10
17.47596168518066
 20
20.87169075012207
 30
0.0099999997764826
 70
   192
  0
VERTEX
  5
114
  8
0
  6
HCS_01
 62
     7
 10
17.41226768493652
 20
20.78216171264648
 30
0.0099999997764826
 70
   192
  0
VERTEX
  5
115
  8
0
  6
HCS_01
 62
     7
 10
17.47698402404785
 20
20.72128295898438
 30
0.0099999997764826
 70
   192
  0
VERTEX
  5
116
  8
0
  6
HCS_01
 62
     7
 10
17.47596168518066
 20
20.87169075012207
 30
0.0099999997764826
 70
   192
  0
VERTEX
  5
117
  8
0
  6
HCS_01
 62
     7
 10
17.47698402404785
 20
20.72128295898438
 30
0.0099999997764826
 70
   192
  0
VERTEX
  5
118
  8
0
  6
HCS_01
 62
     7
 10
17.5313835144043
 20
20.83212852478027
 30
0.0099999997764826
 70
   192
  0
VERTEX
  5
119
  8
0
  6
HCS_01
 62
     7
 10
17.33476066589355
 20
20.90409278869629
 30
0.0099999997764826
 70
   192
  0
VERTEX
  5
11A
  8
0
  6
HCS_01
 62
     7
 10
17.23491477966309
 20
20.88942718505859
 30
0.0099999997764826
 70
   192
  0
VERTEX
  5
11B
  8
0
  6
HCS_01
 62
     7
 10
17.25733947753906
 20
20.78454971313477
 30
0.0099999997764826
 70
   192
  0
VERTEX
  5
11C
  8
0
  6
HCS_01
 62
     7
 10
17.33476066589355
 20
20.90409278869629
 30
0.0099999997764826
 70
   192
  0
VERTEX
  5
11D
  8
0
  6
HCS_01
 62
     7
 10
17.25733947753906
 20
20.78454971313477
 30
0.0099999997764826
 70
   192
  0
VERTEX
  5
11E
  8
0
  6
HCS_01
 62
     7
 10
17.33339691162109
 20
20.80245590209961
 30
0.0099999997764826
 70
   192
  0
VERTEX
  5
11F
  8
0
  6
HCS_01
 62
     7
 10
17.33476066589355
 20
20.90409278869629
 30
0.0099999997764826
 70
   192
  0
VERTEX
  5
120
  8
0
  6
HCS_01
 62
     7
 10
17.33339691162109
 20
20.80245590209961
 30
0.0099999997764826
 70
   192
  0
VERTEX
  5
121
  8
0
  6
HCS_01
 62
     7
 10
17.41226768493652
 20
20.78216171264648
 30
0.0099999997764826
 70
   192
  0
VERTEX
  5
122
  8
0
  6
HCS_01
 62
     7
 10
17.33476066589355
 20
20.90409278869629
 30
0.0099999997764826
 70
   192
  0
VERTEX
  5
123
  8
0
  6
HCS_01
 62
     7
 10
17.41226768493652
 20
20.78216171264648
 30
0.0099999997764826
 70
   192
  0
VERTEX
  5
124
  8
0
  6
HCS_01
 62
     7
 10
17.41030693054199
 20
20.89599227905273
 30
0.0099999997764826
 70
   192
  0
VERTEX
  5
125
  8
0
  6
HCS_01
 62
     7
 10
17.13489723205566
 20
20.39317893981934
 30
0.0099999997764826
 70
   192
  0
VERTEX
  5
126
  8
0
  6
HCS_01
 62
     7
 10
17.1507568359375
 20
20.60071563720703
 30
0.0099999997764826
 70
   192
  0
VERTEX
  5
127
  8
0
  6
HCS_01
 62
     7
 10
17.15365600585938
 20
20.84542846679688
 30
0.0099999997764826
 70
   192
  0
VERTEX
  5
128
  8
0
  6
HCS_01
 62
     7
 10
17.19833564758301
 20
20.73083114624023
 30
0.0099999997764826
 70
   192
  0
VERTEX
  5
129
  8
0
  6
HCS_01
 62
     7
 10
17.15365600585938
 20
20.84542846679688
 30
0.0099999997764826
 70
   192
  0
VERTEX
  5
12A
  8
0
  6
HCS_01
 62
     7
 10
17.1507568359375
 20
20.60071563720703
 30
0.0099999997764826
 70
   192
  0
VERTEX
  5
12B
  8
0
  6
HCS_01
 62
     7
 10
17.15365600585938
 20
20.84542846679688
 30
0.0099999997764826
 70
   192
  0
VERTEX
  5
12C
  8
0
  6
HCS_01
 62
     7
 10
17.19833564758301
 20
20.73083114624023
 30
0.0099999997764826
 70
   192
  0
VERTEX
  5
12D
  8
0
  6
HCS_01
 62
     7
 10
17.23491477966309
 20
20.88942718505859
 30
0.0099999997764826
 70
   192
  0
VERTEX
  5
12E
  8
0
  6
HCS_01
 62
     7
 10
17.25733947753906
 20
20.78454971313477
 30
0.0099999997764826
 70
   192
  0
VERTEX
  5
12F
  8
0
  6
HCS_01
 62
     7
 10
17.23491477966309
 20
20.88942718505859
 30
0.0099999997764826
 70
   192
  0
VERTEX
  5
130
  8
0
  6
HCS_01
 62
     7
 10
17.19833564758301
 20
20.73083114624023
 30
0.0099999997764826
 70
   192
  0
VERTEX
  5
131
  8
0
  6
HCS_01
 62
     7
 10
17.10761260986328
 20
19.98662948608398
 30
0.0099999997764826
 70
   192
  0
VERTEX
  5
132
  8
0
  6
HCS_01
 62
     7
 10
17.20566749572754
 20
19.90886688232422
 30
0.0099999997764826
 70
   192
  0
VERTEX
  5
133
  8
0
  6
HCS_01
 62
     7
 10
17.14930725097656
 20
20.18811416625977
 30
0.0099999997764826
 70
   192
  0
VERTEX
  5
134
  8
0
  6
HCS_01
 62
     7
 10
17.10761260986328
 20
19.98662948608398
 30
0.0099999997764826
 70
   192
  0
VERTEX
  5
135
  8
0
  6
HCS_01
 62
     7
 10
17.14930725097656
 20
20.18811416625977
 30
0.0099999997764826
 70
   192
  0
VERTEX
  5
136
  8
0
  6
HCS_01
 62
     7
 10
17.13489723205566
 20
20.39317893981934
 30
0.0099999997764826
 70
   192
  0
VERTEX
  5
137
  8
0
  6
HCS_01
 62
     7
 10
17.10761260986328
 20
19.98662948608398
 30
0.0099999997764826
 70
   192
  0
VERTEX
  5
138
  8
0
  6
HCS_01
 62
     7
 10
17.13489723205566
 20
20.39317893981934
 30
0.0099999997764826
 70
   192
  0
VERTEX
  5
139
  8
0
  6
HCS_01
 62
     7
 10
17.15365600585938
 20
20.84542846679688
 30
0.0099999997764826
 70
   192
  0
VERTEX
  5
13A
  8
0
  6
HCS_01
 62
     7
 10
17.10761260986328
 20
19.98662948608398
 30
0.0099999997764826
 70
   192
  0
VERTEX
  5
13B
  8
0
  6
HCS_01
 62
     7
 10
17.15365600585938
 20
20.84542846679688
 30
0.0099999997764826
 70
   192
  0
VERTEX
  5
13C
  8
0
  6
HCS_01
 62
     7
 10
17.0905590057373
 20
20.7744026184082
 30
0.0099999997764826
 70
   192
  0
VERTEX
  5
13D
  8
0
  6
HCS_01
 62
     7
 10
17.10761260986328
 20
19.98662948608398
 30
0.0099999997764826
 70
   192
  0
VERTEX
  5
13E
  8
0
  6
HCS_01
 62
     7
 10
17.0905590057373
 20
20.7744026184082
 30
0.0099999997764826
 70
   192
  0
VERTEX
  5
13F
  8
0
  6
HCS_01
 62
     7
 10
17.04519653320312
 20
20.67864990234375
 30
0.0099999997764826
 70
   192
  0
VERTEX
  5
140
  8
0
  6
HCS_01
 62
     7
 10
17.10761260986328
 20
19.98662948608398
 30
0.0099999997764826
 70
   192
  0
VERTEX
  5
141
  8
0
  6
HCS_01
 62
     7
 10
17.04519653320312
 20
20.67864990234375
 30
0.0099999997764826
 70
   192
  0
VERTEX
  5
142
  8
0
  6
HCS_01
 62
     7
 10
17.0334300994873
 20
20.15068244934082
 30
0.0099999997764826
 70
   192
  0
VERTEX
  5
143
  8
0
  6
HCS_01
 62
     7
 10
17.01782608032227
 20
20.55322265625
 30
0.0099999997764826
 70
   192
  0
VERTEX
  5
144
  8
0
  6
HCS_01
 62
     7
 10
17.00870323181152
 20
20.39317893981934
 30
0.0099999997764826
 70
   192
  0
VERTEX
  5
145
  8
0
  6
HCS_01
 62
     7
 10
17.0334300994873
 20
20.15068244934082
 30
0.0099999997764826
 70
   192
  0
VERTEX
  5
146
  8
0
  6
HCS_01
 62
     7
 10
17.01782608032227
 20
20.55322265625
 30
0.0099999997764826
 70
   192
  0
VERTEX
  5
147
  8
0
  6
HCS_01
 62
     7
 10
17.0334300994873
 20
20.15068244934082
 30
0.0099999997764826
 70
   192
  0
VERTEX
  5
148
  8
0
  6
HCS_01
 62
     7
 10
17.04519653320312
 20
20.67864990234375
 30
0.0099999997764826
 70
   192
  0
VERTEX
  5
149
  8
0
  6
HCS_01
 62
     7
 10
17.4126091003418
 20
20.00436592102051
 30
0.0099999997764826
 70
   192
  0
VERTEX
  5
14A
  8
0
  6
HCS_01
 62
     7
 10
17.43511962890625
 20
19.89769744873047
 30
0.0099999997764826
 70
   192
  0
VERTEX
  5
14B
  8
0
  6
HCS_01
 62
     7
 10
17.47698402404785
 20
20.06575584411621
 30
0.0099999997764826
 70
   192
  0
VERTEX
  5
14C
  8
0
  6
HCS_01
 62
     7
 10
17.51654815673828
 20
19.94194984436035
 30
0.0099999997764826
 70
   192
  0
VERTEX
  5
14D
  8
0
  6
HCS_01
 62
     7
 10
17.47698402404785
 20
20.06575584411621
 30
0.0099999997764826
 70
   192
  0
VERTEX
  5
14E
  8
0
  6
HCS_01
 62
     7
 10
17.43511962890625
 20
19.89769744873047
 30
0.0099999997764826
 70
   192
  0
VERTEX
  5
14F
  8
0
  6
HCS_01
 62
     7
 10
17.47698402404785
 20
20.06575584411621
 30
0.0099999997764826
 70
   192
  0
VERTEX
  5
150
  8
0
  6
HCS_01
 62
     7
 10
17.51654815673828
 20
19.94194984436035
 30
0.0099999997764826
 70
   192
  0
VERTEX
  5
151
  8
0
  6
HCS_01
 62
     7
 10
17.52021408081055
 20
20.18853950500488
 30
0.0099999997764826
 70
   192
  0
VERTEX
  5
152
  8
0
  6
HCS_01
 62
     7
 10
17.57955932617188
 20
20.01323318481445
 30
0.0099999997764826
 70
   192
  0
VERTEX
  5
153
  8
0
  6
HCS_01
 62
     7
 10
17.52021408081055
 20
20.18853950500488
 30
0.0099999997764826
 70
   192
  0
VERTEX
  5
154
  8
0
  6
HCS_01
 62
     7
 10
17.51654815673828
 20
19.94194984436035
 30
0.0099999997764826
 70
   192
  0
VERTEX
  5
155
  8
0
  6
HCS_01
 62
     7
 10
17.52021408081055
 20
20.18853950500488
 30
0.0099999997764826
 70
   192
  0
VERTEX
  5
156
  8
0
  6
HCS_01
 62
     7
 10
17.57955932617188
 20
20.01323318481445
 30
0.0099999997764826
 70
   192
  0
VERTEX
  5
157
  8
0
  6
HCS_01
 62
     7
 10
17.53462409973145
 20
20.39317893981934
 30
0.0099999997764826
 70
   192
  0
VERTEX
  5
158
  8
0
  6
HCS_01
 62
     7
 10
17.19253730773926
 20
20.06541633605957
 30
0.0099999997764826
 70
   192
  0
VERTEX
  5
159
  8
0
  6
HCS_01
 62
     7
 10
17.20566749572754
 20
19.90886688232422
 30
0.0099999997764826
 70
   192
  0
VERTEX
  5
15A
  8
0
  6
HCS_01
 62
     7
 10
17.25691223144531
 20
20.00428009033203
 30
0.0099999997764826
 70
   192
  0
VERTEX
  5
15B
  8
0
  6
HCS_01
 62
     7
 10
17.33476066589355
 20
19.8829460144043
 30
0.0099999997764826
 70
   192
  0
VERTEX
  5
15C
  8
0
  6
HCS_01
 62
     7
 10
17.25691223144531
 20
20.00428009033203
 30
0.0099999997764826
 70
   192
  0
VERTEX
  5
15D
  8
0
  6
HCS_01
 62
     7
 10
17.20566749572754
 20
19.90886688232422
 30
0.0099999997764826
 70
   192
  0
VERTEX
  5
15E
  8
0
  6
HCS_01
 62
     7
 10
17.25691223144531
 20
20.00428009033203
 30
0.0099999997764826
 70
   192
  0
VERTEX
  5
15F
  8
0
  6
HCS_01
 62
     7
 10
17.33476066589355
 20
19.8829460144043
 30
0.0099999997764826
 70
   192
  0
VERTEX
  5
160
  8
0
  6
HCS_01
 62
     7
 10
17.33476066589355
 20
19.98390197753906
 30
0.0099999997764826
 70
   192
  0
VERTEX
  5
161
  8
0
  6
HCS_01
 62
     7
 10
17.43511962890625
 20
19.89769744873047
 30
0.0099999997764826
 70
   192
  0
VERTEX
  5
162
  8
0
  6
HCS_01
 62
     7
 10
17.33476066589355
 20
19.98390197753906
 30
0.0099999997764826
 70
   192
  0
VERTEX
  5
163
  8
0
  6
HCS_01
 62
     7
 10
17.33476066589355
 20
19.8829460144043
 30
0.0099999997764826
 70
   192
  0
VERTEX
  5
164
  8
0
  6
HCS_01
 62
     7
 10
17.33476066589355
 20
19.98390197753906
 30
0.0099999997764826
 70
   192
  0
VERTEX
  5
165
  8
0
  6
HCS_01
 62
     7
 10
17.43511962890625
 20
19.89769744873047
 30
0.0099999997764826
 70
   192
  0
VERTEX
  5
166
  8
0
  6
HCS_01
 62
     7
 10
17.4126091003418
 20
20.00436592102051
 30
0.0099999997764826
 70
   192
  0
VERTEX
  5
167
  8
0
  6
HCS_01
 62
     7
 10
17.14930725097656
 20
20.18811416625977
 30
0.0099999997764826
 70
   192
  0
VERTEX
  5
168
  8
0
  6
HCS_01
 62
     7
 10
17.20566749572754
 20
19.90886688232422
 30
0.0099999997764826
 70
   192
  0
VERTEX
  5
169
  8
0
  6
HCS_01
 62
     7
 10
17.19253730773926
 20
20.06541633605957
 30
0.0099999997764826
 70
   192
  0
VERTEX
  5
16A
  8
0
  6
HCS_01
 62
     7
 10
17.85454177856445
 20
19.89999961853027
 30
0.0099999997764826
 70
   192
  0
VERTEX
  5
16B
  8
0
  6
HCS_01
 62
     7
 10
17.9943790435791
 20
19.89999961853027
 30
0.0099999997764826
 70
   192
  0
VERTEX
  5
16C
  8
0
  6
HCS_01
 62
     7
 10
17.9943790435791
 20
20.03983497619629
 30
0.0099999997764826
 70
   192
  0
VERTEX
  5
16D
  8
0
  6
HCS_01
 62
     7
 10
17.85454177856445
 20
19.89999961853027
 30
0.0099999997764826
 70
   192
  0
VERTEX
  5
16E
  8
0
  6
HCS_01
 62
     7
 10
17.9943790435791
 20
20.03983497619629
 30
0.0099999997764826
 70
   192
  0
VERTEX
  5
16F
  8
0
  6
HCS_01
 62
     7
 10
17.85454177856445
 20
20.03983497619629
 30
0.0099999997764826
 70
   192
  0
VERTEX
  5
170
  8
0
  6
HCS_01
 62
     7
 10
18.82589340209961
 20
20.39317893981934
 30
0.0099999997764826
 70
   192
  0
VERTEX
  5
171
  8
0
  6
HCS_01
 62
     7
 10
18.82026672363281
 20
20.52661895751953
 30
0.0099999997764826
 70
   192
  0
VERTEX
  5
172
  8
0
  6
HCS_01
 62
     7
 10
18.81685447692871
 20
20.23415756225586
 30
0.0099999997764826
 70
   192
  0
VERTEX
  5
173
  8
0
  6
HCS_01
 62
     7
 10
18.80338287353516
 20
20.62953567504883
 30
0.0099999997764826
 70
   192
  0
VERTEX
  5
174
  8
0
  6
HCS_01
 62
     7
 10
18.81685447692871
 20
20.23415756225586
 30
0.0099999997764826
 70
   192
  0
VERTEX
  5
175
  8
0
  6
HCS_01
 62
     7
 10
18.82026672363281
 20
20.52661895751953
 30
0.0099999997764826
 70
   192
  0
VERTEX
  5
176
  8
0
  6
HCS_01
 62
     7
 10
18.81685447692871
 20
20.23415756225586
 30
0.0099999997764826
 70
   192
  0
VERTEX
  5
177
  8
0
  6
HCS_01
 62
     7
 10
18.80338287353516
 20
20.62953567504883
 30
0.0099999997764826
 70
   192
  0
VERTEX
  5
178
  8
0
  6
HCS_01
 62
     7
 10
18.78974151611328
 20
20.10907173156738
 30
0.0099999997764826
 70
   192
  0
VERTEX
  5
179
  8
0
  6
HCS_01
 62
     7
 10
18.77660942077637
 20
20.71053886413574
 30
0.0099999997764826
 70
   192
  0
VERTEX
  5
17A
  8
0
  6
HCS_01
 62
     7
 10
18.78974151611328
 20
20.10907173156738
 30
0.0099999997764826
 70
   192
  0
VERTEX
  5
17B
  8
0
  6
HCS_01
 62
     7
 10
18.80338287353516
 20
20.62953567504883
 30
0.0099999997764826
 70
   192
  0
VERTEX
  5
17C
  8
0
  6
HCS_01
 62
     7
 10
18.78974151611328
 20
20.10907173156738
 30
0.0099999997764826
 70
   192
  0
VERTEX
  5
17D
  8
0
  6
HCS_01
 62
     7
 10
18.77660942077637
 20
20.71053886413574
 30
0.0099999997764826
 70
   192
  0
VERTEX
  5
17E
  8
0
  6
HCS_01
 62
     7
 10
18.7446346282959
 20
20.01323318481445
 30
0.0099999997764826
 70
   192
  0
VERTEX
  5
17F
  8
0
  6
HCS_01
 62
     7
 10
18.74131011962891
 20
20.77824020385742
 30
0.0099999997764826
 70
   192
  0
VERTEX
  5
180
  8
0
  6
HCS_01
 62
     7
 10
18.7446346282959
 20
20.01323318481445
 30
0.0099999997764826
 70
   192
  0
VERTEX
  5
181
  8
0
  6
HCS_01
 62
     7
 10
18.77660942077637
 20
20.71053886413574
 30
0.0099999997764826
 70
   192
  0
VERTEX
  5
182
  8
0
  6
HCS_01
 62
     7
 10
18.7446346282959
 20
20.01323318481445
 30
0.0099999997764826
 70
   192
  0
VERTEX
  5
183
  8
0
  6
HCS_01
 62
     7
 10
18.74131011962891
 20
20.77824020385742
 30
0.0099999997764826
 70
   192
  0
VERTEX
  5
184
  8
0
  6
HCS_01
 62
     7
 10
18.69969940185547
 20
20.39317893981934
 30
0.0099999997764826
 70
   192
  0
VERTEX
  5
185
  8
0
  6
HCS_01
 62
     7
 10
18.69645881652832
 20
20.83212852478027
 30
0.0099999997764826
 70
   192
  0
VERTEX
  5
186
  8
0
  6
HCS_01
 62
     7
 10
18.69969940185547
 20
20.39317893981934
 30
0.0099999997764826
 70
   192
  0
VERTEX
  5
187
  8
0
  6
HCS_01
 62
     7
 10
18.74131011962891
 20
20.77824020385742
 30
0.0099999997764826
 70
   192
  0
VERTEX
  5
188
  8
0
  6
HCS_01
 62
     7
 10
18.69969940185547
 20
20.39317893981934
 30
0.0099999997764826
 70
   192
  0
VERTEX
  5
189
  8
0
  6
HCS_01
 62
     7
 10
18.69645881652832
 20
20.83212852478027
 30
0.0099999997764826
 70
   192
  0
VERTEX
  5
18A
  8
0
  6
HCS_01
 62
     7
 10
18.68528938293457
 20
20.59866905212402
 30
0.0099999997764826
 70
   192
  0
VERTEX
  5
18B
  8
0
  6
HCS_01
 62
     7
 10
18.64205932617188
 20
20.72128295898438
 30
0.0099999997764826
 70
   192
  0
VERTEX
  5
18C
  8
0
  6
HCS_01
 62
     7
 10
18.68528938293457
 20
20.59866905212402
 30
0.0099999997764826
 70
   192
  0
VERTEX
  5
18D
  8
0
  6
HCS_01
 62
     7
 10
18.69645881652832
 20
20.83212852478027
 30
0.0099999997764826
 70
   192
  0
VERTEX
  5
18E
  8
0
  6
HCS_01
 62
     7
 10
18.64103698730469
 20
20.87169075012207
 30
0.0099999997764826
 70
   192
  0
VERTEX
  5
18F
  8
0
  6
HCS_01
 62
     7
 10
18.57538223266602
 20
20.89599227905273
 30
0.0099999997764826
 70
   192
  0
VERTEX
  5
190
  8
0
  6
HCS_01
 62
     7
 10
18.57734298706055
 20
20.78216171264648
 30
0.0099999997764826
 70
   192
  0
VERTEX
  5
191
  8
0
  6
HCS_01
 62
     7
 10
18.64103698730469
 20
20.87169075012207
 30
0.0099999997764826
 70
   192
  0
VERTEX
  5
192
  8
0
  6
HCS_01
 62
     7
 10
18.57734298706055
 20
20.78216171264648
 30
0.0099999997764826
 70
   192
  0
VERTEX
  5
193
  8
0
  6
HCS_01
 62
     7
 10
18.64205932617188
 20
20.72128295898438
 30
0.0099999997764826
 70
   192
  0
VERTEX
  5
194
  8
0
  6
HCS_01
 62
     7
 10
18.64103698730469
 20
20.87169075012207
 30
0.0099999997764826
 70
   192
  0
VERTEX
  5
195
  8
0
  6
HCS_01
 62
     7
 10
18.64205932617188
 20
20.72128295898438
 30
0.0099999997764826
 70
   192
  0
VERTEX
  5
196
  8
0
  6
HCS_01
 62
     7
 10
18.69645881652832
 20
20.83212852478027
 30
0.0099999997764826
 70
   192
  0
VERTEX
  5
197
  8
0
  6
HCS_01
 62
     7
 10
18.49983596801758
 20
20.90409278869629
 30
0.0099999997764826
 70
   192
  0
VERTEX
  5
198
  8
0
  6
HCS_01
 62
     7
 10
18.39999008178711
 20
20.88942718505859
 30
0.0099999997764826
 70
   192
  0
VERTEX
  5
199
  8
0
  6
HCS_01
 62
     7
 10
18.42241477966309
 20
20.78454971313477
 30
0.0099999997764826
 70
   192
  0
VERTEX
  5
19A
  8
0
  6
HCS_01
 62
     7
 10
18.49983596801758
 20
20.90409278869629
 30
0.0099999997764826
 70
   192
  0
VERTEX
  5
19B
  8
0
  6
HCS_01
 62
     7
 10
18.42241477966309
 20
20.78454971313477
 30
0.0099999997764826
 70
   192
  0
VERTEX
  5
19C
  8
0
  6
HCS_01
 62
     7
 10
18.49847221374512
 20
20.80245590209961
 30
0.0099999997764826
 70
   192
  0
VERTEX
  5
19D
  8
0
  6
HCS_01
 62
     7
 10
18.49983596801758
 20
20.90409278869629
 30
0.0099999997764826
 70
   192
  0
VERTEX
  5
19E
  8
0
  6
HCS_01
 62
     7
 10
18.49847221374512
 20
20.80245590209961
 30
0.0099999997764826
 70
   192
  0
VERTEX
  5
19F
  8
0
  6
HCS_01
 62
     7
 10
18.57734298706055
 20
20.78216171264648
 30
0.0099999997764826
 70
   192
  0
VERTEX
  5
1A0
  8
0
  6
HCS_01
 62
     7
 10
18.49983596801758
 20
20.90409278869629
 30
0.0099999997764826
 70
   192
  0
VERTEX
  5
1A1
  8
0
  6
HCS_01
 62
     7
 10
18.57734298706055
 20
20.78216171264648
 30
0.0099999997764826
 70
   192
  0
VERTEX
  5
1A2
  8
0
  6
HCS_01
 62
     7
 10
18.57538223266602
 20
20.89599227905273
 30
0.0099999997764826
 70
   192
  0
VERTEX
  5
1A3
  8
0
  6
HCS_01
 62
     7
 10
18.29997253417969
 20
20.39317893981934
 30
0.0099999997764826
 70
   192
  0
VERTEX
  5
1A4
  8
0
  6
HCS_01
 62
     7
 10
18.31583213806152
 20
20.60071563720703
 30
0.0099999997764826
 70
   192
  0
VERTEX
  5
1A5
  8
0
  6
HCS_01
 62
     7
 10
18.3187313079834
 20
20.84542846679688
 30
0.0099999997764826
 70
   192
  0
VERTEX
  5
1A6
  8
0
  6
HCS_01
 62
     7
 10
18.36341094970703
 20
20.73083114624023
 30
0.0099999997764826
 70
   192
  0
VERTEX
  5
1A7
  8
0
  6
HCS_01
 62
     7
 10
18.3187313079834
 20
20.84542846679688
 30
0.0099999997764826
 70
   192
  0
VERTEX
  5
1A8
  8
0
  6
HCS_01
 62
     7
 10
18.31583213806152
 20
20.60071563720703
 30
0.0099999997764826
 70
   192
  0
VERTEX
  5
1A9
  8
0
  6
HCS_01
 62
     7
 10
18.3187313079834
 20
20.84542846679688
 30
0.0099999997764826
 70
   192
  0
VERTEX
  5
1AA
  8
0
  6
HCS_01
 62
     7
 10
18.36341094970703
 20
20.73083114624023
 30
0.0099999997764826
 70
   192
  0
VERTEX
  5
1AB
  8
0
  6
HCS_01
 62
     7
 10
18.39999008178711
 20
20.88942718505859
 30
0.0099999997764826
 70
   192
  0
VERTEX
  5
1AC
  8
0
  6
HCS_01
 62
     7
 10
18.42241477966309
 20
20.78454971313477
 30
0.0099999997764826
 70
   192
  0
VERTEX
  5
1AD
  8
0
  6
HCS_01
 62
     7
 10
18.39999008178711
 20
20.88942718505859
 30
0.0099999997764826
 70
   192
  0
VERTEX
  5
1AE
  8
0
  6
HCS_01
 62
     7
 10
18.36341094970703
 20
20.73083114624023
 30
0.0099999997764826
 70
   192
  0
VERTEX
  5
1AF
  8
0
  6
HCS_01
 62
     7
 10
18.2726879119873
 20
19.98662948608398
 30
0.0099999997764826
 70
   192
  0
VERTEX
  5
1B0
  8
0
  6
HCS_01
 62
     7
 10
18.37074279785156
 20
19.90886688232422
 30
0.0099999997764826
 70
   192
  0
VERTEX
  5
1B1
  8
0
  6
HCS_01
 62
     7
 10
18.31438255310059
 20
20.18811416625977
 30
0.0099999997764826
 70
   192
  0
VERTEX
  5
1B2
  8
0
  6
HCS_01
 62
     7
 10
18.2726879119873
 20
19.98662948608398
 30
0.0099999997764826
 70
   192
  0
VERTEX
  5
1B3
  8
0
  6
HCS_01
 62
     7
 10
18.31438255310059
 20
20.18811416625977
 30
0.0099999997764826
 70
   192
  0
VERTEX
  5
1B4
  8
0
  6
HCS_01
 62
     7
 10
18.29997253417969
 20
20.39317893981934
 30
0.0099999997764826
 70
   192
  0
VERTEX
  5
1B5
  8
0
  6
HCS_01
 62
     7
 10
18.2726879119873
 20
19.98662948608398
 30
0.0099999997764826
 70
   192
  0
VERTEX
  5
1B6
  8
0
  6
HCS_01
 62
     7
 10
18.29997253417969
 20
20.39317893981934
 30
0.0099999997764826
 70
   192
  0
VERTEX
  5
1B7
  8
0
  6
HCS_01
 62
     7
 10
18.3187313079834
 20
20.84542846679688
 30
0.0099999997764826
 70
   192
  0
VERTEX
  5
1B8
  8
0
  6
HCS_01
 62
     7
 10
18.2726879119873
 20
19.98662948608398
 30
0.0099999997764826
 70
   192
  0
VERTEX
  5
1B9
  8
0
  6
HCS_01
 62
     7
 10
18.3187313079834
 20
20.84542846679688
 30
0.0099999997764826
 70
   192
  0
VERTEX
  5
1BA
  8
0
  6
HCS_01
 62
     7
 10
18.25563430786133
 20
20.7744026184082
 30
0.0099999997764826
 70
   192
  0
VERTEX
  5
1BB
  8
0
  6
HCS_01
 62
     7
 10
18.2726879119873
 20
19.98662948608398
 30
0.0099999997764826
 70
   192
  0
VERTEX
  5
1BC
  8
0
  6
HCS_01
 62
     7
 10
18.25563430786133
 20
20.7744026184082
 30
0.0099999997764826
 70
   192
  0
VERTEX
  5
1BD
  8
0
  6
HCS_01
 62
     7
 10
18.21027183532715
 20
20.67864990234375
 30
0.0099999997764826
 70
   192
  0
VERTEX
  5
1BE
  8
0
  6
HCS_01
 62
     7
 10
18.2726879119873
 20
19.98662948608398
 30
0.0099999997764826
 70
   192
  0
VERTEX
  5
1BF
  8
0
  6
HCS_01
 62
     7
 10
18.21027183532715
 20
20.67864990234375
 30
0.0099999997764826
 70
   192
  0
VERTEX
  5
1C0
  8
0
  6
HCS_01
 62
     7
 10
18.19850540161133
 20
20.15068244934082
 30
0.0099999997764826
 70
   192
  0
VERTEX
  5
1C1
  8
0
  6
HCS_01
 62
     7
 10
18.18290328979492
 20
20.55322265625
 30
0.0099999997764826
 70
   192
  0
VERTEX
  5
1C2
  8
0
  6
HCS_01
 62
     7
 10
18.17377853393555
 20
20.39317893981934
 30
0.0099999997764826
 70
   192
  0
VERTEX
  5
1C3
  8
0
  6
HCS_01
 62
     7
 10
18.19850540161133
 20
20.15068244934082
 30
0.0099999997764826
 70
   192
  0
VERTEX
  5
1C4
  8
0
  6
HCS_01
 62
     7
 10
18.18290328979492
 20
20.55322265625
 30
0.0099999997764826
 70
   192
  0
VERTEX
  5
1C5
  8
0
  6
HCS_01
 62
     7
 10
18.19850540161133
 20
20.15068244934082
 30
0.0099999997764826
 70
   192
  0
VERTEX
  5
1C6
  8
0
  6
HCS_01
 62
     7
 10
18.21027183532715
 20
20.67864990234375
 30
0.0099999997764826
 70
   192
  0
VERTEX
  5
1C7
  8
0
  6
HCS_01
 62
     7
 10
18.57768440246582
 20
20.00436592102051
 30
0.0099999997764826
 70
   192
  0
VERTEX
  5
1C8
  8
0
  6
HCS_01
 62
     7
 10
18.60019302368164
 20
19.89769744873047
 30
0.0099999997764826
 70
   192
  0
VERTEX
  5
1C9
  8
0
  6
HCS_01
 62
     7
 10
18.64205932617188
 20
20.06575584411621
 30
0.0099999997764826
 70
   192
  0
VERTEX
  5
1CA
  8
0
  6
HCS_01
 62
     7
 10
18.6816234588623
 20
19.94194984436035
 30
0.0099999997764826
 70
   192
  0
VERTEX
  5
1CB
  8
0
  6
HCS_01
 62
     7
 10
18.64205932617188
 20
20.06575584411621
 30
0.0099999997764826
 70
   192
  0
VERTEX
  5
1CC
  8
0
  6
HCS_01
 62
     7
 10
18.60019302368164
 20
19.89769744873047
 30
0.0099999997764826
 70
   192
  0
VERTEX
  5
1CD
  8
0
  6
HCS_01
 62
     7
 10
18.64205932617188
 20
20.06575584411621
 30
0.0099999997764826
 70
   192
  0
VERTEX
  5
1CE
  8
0
  6
HCS_01
 62
     7
 10
18.6816234588623
 20
19.94194984436035
 30
0.0099999997764826
 70
   192
  0
VERTEX
  5
1CF
  8
0
  6
HCS_01
 62
     7
 10
18.68528938293457
 20
20.18853950500488
 30
0.0099999997764826
 70
   192
  0
VERTEX
  5
1D0
  8
0
  6
HCS_01
 62
     7
 10
18.7446346282959
 20
20.01323318481445
 30
0.0099999997764826
 70
   192
  0
VERTEX
  5
1D1
  8
0
  6
HCS_01
 62
     7
 10
18.68528938293457
 20
20.18853950500488
 30
0.0099999997764826
 70
   192
  0
VERTEX
  5
1D2
  8
0
  6
HCS_01
 62
     7
 10
18.6816234588623
 20
19.94194984436035
 30
0.0099999997764826
 70
   192
  0
VERTEX
  5
1D3
  8
0
  6
HCS_01
 62
     7
 10
18.68528938293457
 20
20.18853950500488
 30
0.0099999997764826
 70
   192
  0
VERTEX
  5
1D4
  8
0
  6
HCS_01
 62
     7
 10
18.7446346282959
 20
20.01323318481445
 30
0.0099999997764826
 70
   192
  0
VERTEX
  5
1D5
  8
0
  6
HCS_01
 62
     7
 10
18.69969940185547
 20
20.39317893981934
 30
0.0099999997764826
 70
   192
  0
VERTEX
  5
1D6
  8
0
  6
HCS_01
 62
     7
 10
18.35761260986328
 20
20.06541633605957
 30
0.0099999997764826
 70
   192
  0
VERTEX
  5
1D7
  8
0
  6
HCS_01
 62
     7
 10
18.37074279785156
 20
19.90886688232422
 30
0.0099999997764826
 70
   192
  0
VERTEX
  5
1D8
  8
0
  6
HCS_01
 62
     7
 10
18.42198753356934
 20
20.00428009033203
 30
0.0099999997764826
 70
   192
  0
VERTEX
  5
1D9
  8
0
  6
HCS_01
 62
     7
 10
18.49983596801758
 20
19.8829460144043
 30
0.0099999997764826
 70
   192
  0
VERTEX
  5
1DA
  8
0
  6
HCS_01
 62
     7
 10
18.42198753356934
 20
20.00428009033203
 30
0.0099999997764826
 70
   192
  0
VERTEX
  5
1DB
  8
0
  6
HCS_01
 62
     7
 10
18.37074279785156
 20
19.90886688232422
 30
0.0099999997764826
 70
   192
  0
VERTEX
  5
1DC
  8
0
  6
HCS_01
 62
     7
 10
18.42198753356934
 20
20.00428009033203
 30
0.0099999997764826
 70
   192
  0
VERTEX
  5
1DD
  8
0
  6
HCS_01
 62
     7
 10
18.49983596801758
 20
19.8829460144043
 30
0.0099999997764826
 70
   192
  0
VERTEX
  5
1DE
  8
0
  6
HCS_01
 62
     7
 10
18.49983596801758
 20
19.98390197753906
 30
0.0099999997764826
 70
   192
  0
VERTEX
  5
1DF
  8
0
  6
HCS_01
 62
     7
 10
18.60019302368164
 20
19.89769744873047
 30
0.0099999997764826
 70
   192
  0
VERTEX
  5
1E0
  8
0
  6
HCS_01
 62
     7
 10
18.49983596801758
 20
19.98390197753906
 30
0.0099999997764826
 70
   192
  0
VERTEX
  5
1E1
  8
0
  6
HCS_01
 62
     7
 10
18.49983596801758
 20
19.8829460144043
 30
0.0099999997764826
 70
   192
  0
VERTEX
  5
1E2
  8
0
  6
HCS_01
 62
     7
 10
18.49983596801758
 20
19.98390197753906
 30
0.0099999997764826
 70
   192
  0
VERTEX
  5
1E3
  8
0
  6
HCS_01
 62
     7
 10
18.60019302368164
 20
19.89769744873047
 30
0.0099999997764826
 70
   192
  0
VERTEX
  5
1E4
  8
0
  6
HCS_01
 62
     7
 10
18.57768440246582
 20
20.00436592102051
 30
0.0099999997764826
 70
   192
  0
VERTEX
  5
1E5
  8
0
  6
HCS_01
 62
     7
 10
18.31438255310059
 20
20.18811416625977
 30
0.0099999997764826
 70
   192
  0
VERTEX
  5
1E6
  8
0
  6
HCS_01
 62
     7
 10
18.37074279785156
 20
19.90886688232422
 30
0.0099999997764826
 70
   192
  0
VERTEX
  5
1E7
  8
0
  6
HCS_01
 62
     7
 10
18.35761260986328
 20
20.06541633605957
 30
0.0099999997764826
 70
   192
  0
VERTEX
  5
1E8
  8
0
  6
HCS_01
 62
     7
 10
19.60283660888672
 20
20.39317893981934
 30
0.0099999997764826
 70
   192
  0
VERTEX
  5
1E9
  8
0
  6
HCS_01
 62
     7
 10
19.59720993041992
 20
20.52661895751953
 30
0.0099999997764826
 70
   192
  0
VERTEX
  5
1EA
  8
0
  6
HCS_01
 62
     7
 10
19.59379959106445
 20
20.23415756225586
 30
0.0099999997764826
 70
   192
  0
VERTEX
  5
1EB
  8
0
  6
HCS_01
 62
     7
 10
19.58032608032227
 20
20.62953567504883
 30
0.0099999997764826
 70
   192
  0
VERTEX
  5
1EC
  8
0
  6
HCS_01
 62
     7
 10
19.59379959106445
 20
20.23415756225586
 30
0.0099999997764826
 70
   192
  0
VERTEX
  5
1ED
  8
0
  6
HCS_01
 62
     7
 10
19.59720993041992
 20
20.52661895751953
 30
0.0099999997764826
 70
   192
  0
VERTEX
  5
1EE
  8
0
  6
HCS_01
 62
     7
 10
19.59379959106445
 20
20.23415756225586
 30
0.0099999997764826
 70
   192
  0
VERTEX
  5
1EF
  8
0
  6
HCS_01
 62
     7
 10
19.58032608032227
 20
20.62953567504883
 30
0.0099999997764826
 70
   192
  0
VERTEX
  5
1F0
  8
0
  6
HCS_01
 62
     7
 10
19.56668472290039
 20
20.10907173156738
 30
0.0099999997764826
 70
   192
  0
VERTEX
  5
1F1
  8
0
  6
HCS_01
 62
     7
 10
19.55355453491211
 20
20.71053886413574
 30
0.0099999997764826
 70
   192
  0
VERTEX
  5
1F2
  8
0
  6
HCS_01
 62
     7
 10
19.56668472290039
 20
20.10907173156738
 30
0.0099999997764826
 70
   192
  0
VERTEX
  5
1F3
  8
0
  6
HCS_01
 62
     7
 10
19.58032608032227
 20
20.62953567504883
 30
0.0099999997764826
 70
   192
  0
VERTEX
  5
1F4
  8
0
  6
HCS_01
 62
     7
 10
19.56668472290039
 20
20.10907173156738
 30
0.0099999997764826
 70
   192
  0
VERTEX
  5
1F5
  8
0
  6
HCS_01
 62
     7
 10
19.55355453491211
 20
20.71053886413574
 30
0.0099999997764826
 70
   192
  0
VERTEX
  5
1F6
  8
0
  6
HCS_01
 62
     7
 10
19.52157974243164
 20
20.01323318481445
 30
0.0099999997764826
 70
   192
  0
VERTEX
  5
1F7
  8
0
  6
HCS_01
 62
     7
 10
19.51825332641602
 20
20.77824020385742
 30
0.0099999997764826
 70
   192
  0
VERTEX
  5
1F8
  8
0
  6
HCS_01
 62
     7
 10
19.52157974243164
 20
20.01323318481445
 30
0.0099999997764826
 70
   192
  0
VERTEX
  5
1F9
  8
0
  6
HCS_01
 62
     7
 10
19.55355453491211
 20
20.71053886413574
 30
0.0099999997764826
 70
   192
  0
VERTEX
  5
1FA
  8
0
  6
HCS_01
 62
     7
 10
19.52157974243164
 20
20.01323318481445
 30
0.0099999997764826
 70
   192
  0
VERTEX
  5
1FB
  8
0
  6
HCS_01
 62
     7
 10
19.51825332641602
 20
20.77824020385742
 30
0.0099999997764826
 70
   192
  0
VERTEX
  5
1FC
  8
0
  6
HCS_01
 62
     7
 10
19.47664260864258
 20
20.39317893981934
 30
0.0099999997764826
 70
   192
  0
VERTEX
  5
1FD
  8
0
  6
HCS_01
 62
     7
 10
19.47340393066406
 20
20.83212852478027
 30
0.0099999997764826
 70
   192
  0
VERTEX
  5
1FE
  8
0
  6
HCS_01
 62
     7
 10
19.47664260864258
 20
20.39317893981934
 30
0.0099999997764826
 70
   192
  0
VERTEX
  5
1FF
  8
0
  6
HCS_01
 62
     7
 10
19.51825332641602
 20
20.77824020385742
 30
0.0099999997764826
 70
   192
  0
VERTEX
  5
200
  8
0
  6
HCS_01
 62
     7
 10
19.47664260864258
 20
20.39317893981934
 30
0.0099999997764826
 70
   192
  0
VERTEX
  5
201
  8
0
  6
HCS_01
 62
     7
 10
19.47340393066406
 20
20.83212852478027
 30
0.0099999997764826
 70
   192
  0
VERTEX
  5
202
  8
0
  6
HCS_01
 62
     7
 10
19.46223449707031
 20
20.59866905212402
 30
0.0099999997764826
 70
   192
  0
VERTEX
  5
203
  8
0
  6
HCS_01
 62
     7
 10
19.41900253295898
 20
20.72128295898438
 30
0.0099999997764826
 70
   192
  0
VERTEX
  5
204
  8
0
  6
HCS_01
 62
     7
 10
19.46223449707031
 20
20.59866905212402
 30
0.0099999997764826
 70
   192
  0
VERTEX
  5
205
  8
0
  6
HCS_01
 62
     7
 10
19.47340393066406
 20
20.83212852478027
 30
0.0099999997764826
 70
   192
  0
VERTEX
  5
206
  8
0
  6
HCS_01
 62
     7
 10
19.4179801940918
 20
20.87169075012207
 30
0.0099999997764826
 70
   192
  0
VERTEX
  5
207
  8
0
  6
HCS_01
 62
     7
 10
19.35232543945312
 20
20.89599227905273
 30
0.0099999997764826
 70
   192
  0
VERTEX
  5
208
  8
0
  6
HCS_01
 62
     7
 10
19.35428619384766
 20
20.78216171264648
 30
0.0099999997764826
 70
   192
  0
VERTEX
  5
209
  8
0
  6
HCS_01
 62
     7
 10
19.4179801940918
 20
20.87169075012207
 30
0.0099999997764826
 70
   192
  0
VERTEX
  5
20A
  8
0
  6
HCS_01
 62
     7
 10
19.35428619384766
 20
20.78216171264648
 30
0.0099999997764826
 70
   192
  0
VERTEX
  5
20B
  8
0
  6
HCS_01
 62
     7
 10
19.41900253295898
 20
20.72128295898438
 30
0.0099999997764826
 70
   192
  0
VERTEX
  5
20C
  8
0
  6
HCS_01
 62
     7
 10
19.4179801940918
 20
20.87169075012207
 30
0.0099999997764826
 70
   192
  0
VERTEX
  5
20D
  8
0
  6
HCS_01
 62
     7
 10
19.41900253295898
 20
20.72128295898438
 30
0.0099999997764826
 70
   192
  0
VERTEX
  5
20E
  8
0
  6
HCS_01
 62
     7
 10
19.47340393066406
 20
20.83212852478027
 30
0.0099999997764826
 70
   192
  0
VERTEX
  5
20F
  8
0
  6
HCS_01
 62
     7
 10
19.27677917480469
 20
20.90409278869629
 30
0.0099999997764826
 70
   192
  0
VERTEX
  5
210
  8
0
  6
HCS_01
 62
     7
 10
19.17693328857422
 20
20.88942718505859
 30
0.0099999997764826
 70
   192
  0
VERTEX
  5
211
  8
0
  6
HCS_01
 62
     7
 10
19.1993579864502
 20
20.78454971313477
 30
0.0099999997764826
 70
   192
  0
VERTEX
  5
212
  8
0
  6
HCS_01
 62
     7
 10
19.27677917480469
 20
20.90409278869629
 30
0.0099999997764826
 70
   192
  0
VERTEX
  5
213
  8
0
  6
HCS_01
 62
     7
 10
19.1993579864502
 20
20.78454971313477
 30
0.0099999997764826
 70
   192
  0
VERTEX
  5
214
  8
0
  6
HCS_01
 62
     7
 10
19.27541542053223
 20
20.80245590209961
 30
0.0099999997764826
 70
   192
  0
VERTEX
  5
215
  8
0
  6
HCS_01
 62
     7
 10
19.27677917480469
 20
20.90409278869629
 30
0.0099999997764826
 70
   192
  0
VERTEX
  5
216
  8
0
  6
HCS_01
 62
     7
 10
19.27541542053223
 20
20.80245590209961
 30
0.0099999997764826
 70
   192
  0
VERTEX
  5
217
  8
0
  6
HCS_01
 62
     7
 10
19.35428619384766
 20
20.78216171264648
 30
0.0099999997764826
 70
   192
  0
VERTEX
  5
218
  8
0
  6
HCS_01
 62
     7
 10
19.27677917480469
 20
20.90409278869629
 30
0.0099999997764826
 70
   192
  0
VERTEX
  5
219
  8
0
  6
HCS_01
 62
     7
 10
19.35428619384766
 20
20.78216171264648
 30
0.0099999997764826
 70
   192
  0
VERTEX
  5
21A
  8
0
  6
HCS_01
 62
     7
 10
19.35232543945312
 20
20.89599227905273
 30
0.0099999997764826
 70
   192
  0
VERTEX
  5
21B
  8
0
  6
HCS_01
 62
     7
 10
19.0769157409668
 20
20.39317893981934
 30
0.0099999997764826
 70
   192
  0
VERTEX
  5
21C
  8
0
  6
HCS_01
 62
     7
 10
19.09277534484863
 20
20.60071563720703
 30
0.0099999997764826
 70
   192
  0
VERTEX
  5
21D
  8
0
  6
HCS_01
 62
     7
 10
19.09567451477051
 20
20.84542846679688
 30
0.0099999997764826
 70
   192
  0
VERTEX
  5
21E
  8
0
  6
HCS_01
 62
     7
 10
19.14035415649414
 20
20.73083114624023
 30
0.0099999997764826
 70
   192
  0
VERTEX
  5
21F
  8
0
  6
HCS_01
 62
     7
 10
19.09567451477051
 20
20.84542846679688
 30
0.0099999997764826
 70
   192
  0
VERTEX
  5
220
  8
0
  6
HCS_01
 62
     7
 10
19.09277534484863
 20
20.60071563720703
 30
0.0099999997764826
 70
   192
  0
VERTEX
  5
221
  8
0
  6
HCS_01
 62
     7
 10
19.09567451477051
 20
20.84542846679688
 30
0.0099999997764826
 70
   192
  0
VERTEX
  5
222
  8
0
  6
HCS_01
 62
     7
 10
19.14035415649414
 20
20.73083114624023
 30
0.0099999997764826
 70
   192
  0
VERTEX
  5
223
  8
0
  6
HCS_01
 62
     7
 10
19.17693328857422
 20
20.88942718505859
 30
0.0099999997764826
 70
   192
  0
VERTEX
  5
224
  8
0
  6
HCS_01
 62
     7
 10
19.1993579864502
 20
20.78454971313477
 30
0.0099999997764826
 70
   192
  0
VERTEX
  5
225
  8
0
  6
HCS_01
 62
     7
 10
19.17693328857422
 20
20.88942718505859
 30
0.0099999997764826
 70
   192
  0
VERTEX
  5
226
  8
0
  6
HCS_01
 62
     7
 10
19.14035415649414
 20
20.73083114624023
 30
0.0099999997764826
 70
   192
  0
VERTEX
  5
227
  8
0
  6
HCS_01
 62
     7
 10
19.04963111877441
 20
19.98662948608398
 30
0.0099999997764826
 70
   192
  0
VERTEX
  5
228
  8
0
  6
HCS_01
 62
     7
 10
19.14768600463867
 20
19.90886688232422
 30
0.0099999997764826
 70
   192
  0
VERTEX
  5
229
  8
0
  6
HCS_01
 62
     7
 10
19.0913257598877
 20
20.18811416625977
 30
0.0099999997764826
 70
   192
  0
VERTEX
  5
22A
  8
0
  6
HCS_01
 62
     7
 10
19.04963111877441
 20
19.98662948608398
 30
0.0099999997764826
 70
   192
  0
VERTEX
  5
22B
  8
0
  6
HCS_01
 62
     7
 10
19.0913257598877
 20
20.18811416625977
 30
0.0099999997764826
 70
   192
  0
VERTEX
  5
22C
  8
0
  6
HCS_01
 62
     7
 10
19.0769157409668
 20
20.39317893981934
 30
0.0099999997764826
 70
   192
  0
VERTEX
  5
22D
  8
0
  6
HCS_01
 62
     7
 10
19.04963111877441
 20
19.98662948608398
 30
0.0099999997764826
 70
   192
  0
VERTEX
  5
22E
  8
0
  6
HCS_01
 62
     7
 10
19.0769157409668
 20
20.39317893981934
 30
0.0099999997764826
 70
   192
  0
VERTEX
  5
22F
  8
0
  6
HCS_01
 62
     7
 10
19.09567451477051
 20
20.84542846679688
 30
0.0099999997764826
 70
   192
  0
VERTEX
  5
230
  8
0
  6
HCS_01
 62
     7
 10
19.04963111877441
 20
19.98662948608398
 30
0.0099999997764826
 70
   192
  0
VERTEX
  5
231
  8
0
  6
HCS_01
 62
     7
 10
19.09567451477051
 20
20.84542846679688
 30
0.0099999997764826
 70
   192
  0
VERTEX
  5
232
  8
0
  6
HCS_01
 62
     7
 10
19.03257751464844
 20
20.7744026184082
 30
0.0099999997764826
 70
   192
  0
VERTEX
  5
233
  8
0
  6
HCS_01
 62
     7
 10
19.04963111877441
 20
19.98662948608398
 30
0.0099999997764826
 70
   192
  0
VERTEX
  5
234
  8
0
  6
HCS_01
 62
     7
 10
19.03257751464844
 20
20.7744026184082
 30
0.0099999997764826
 70
   192
  0
VERTEX
  5
235
  8
0
  6
HCS_01
 62
     7
 10
18.98721694946289
 20
20.67864990234375
 30
0.0099999997764826
 70
   192
  0
VERTEX
  5
236
  8
0
  6
HCS_01
 62
     7
 10
19.04963111877441
 20
19.98662948608398
 30
0.0099999997764826
 70
   192
  0
VERTEX
  5
237
  8
0
  6
HCS_01
 62
     7
 10
18.98721694946289
 20
20.67864990234375
 30
0.0099999997764826
 70
   192
  0
VERTEX
  5
238
  8
0
  6
HCS_01
 62
     7
 10
18.97544860839844
 20
20.15068244934082
 30
0.0099999997764826
 70
   192
  0
VERTEX
  5
239
  8
0
  6
HCS_01
 62
     7
 10
18.95984649658203
 20
20.55322265625
 30
0.0099999997764826
 70
   192
  0
VERTEX
  5
23A
  8
0
  6
HCS_01
 62
     7
 10
18.95072174072266
 20
20.39317893981934
 30
0.0099999997764826
 70
   192
  0
VERTEX
  5
23B
  8
0
  6
HCS_01
 62
     7
 10
18.97544860839844
 20
20.15068244934082
 30
0.0099999997764826
 70
   192
  0
VERTEX
  5
23C
  8
0
  6
HCS_01
 62
     7
 10
18.95984649658203
 20
20.55322265625
 30
0.0099999997764826
 70
   192
  0
VERTEX
  5
23D
  8
0
  6
HCS_01
 62
     7
 10
18.97544860839844
 20
20.15068244934082
 30
0.0099999997764826
 70
   192
  0
VERTEX
  5
23E
  8
0
  6
HCS_01
 62
     7
 10
18.98721694946289
 20
20.67864990234375
 30
0.0099999997764826
 70
   192
  0
VERTEX
  5
23F
  8
0
  6
HCS_01
 62
     7
 10
19.35462760925293
 20
20.00436592102051
 30
0.0099999997764826
 70
   192
  0
VERTEX
  5
240
  8
0
  6
HCS_01
 62
     7
 10
19.37713813781738
 20
19.89769744873047
 30
0.0099999997764826
 70
   192
  0
VERTEX
  5
241
  8
0
  6
HCS_01
 62
     7
 10
19.41900253295898
 20
20.06575584411621
 30
0.0099999997764826
 70
   192
  0
VERTEX
  5
242
  8
0
  6
HCS_01
 62
     7
 10
19.45856666564941
 20
19.94194984436035
 30
0.0099999997764826
 70
   192
  0
VERTEX
  5
243
  8
0
  6
HCS_01
 62
     7
 10
19.41900253295898
 20
20.06575584411621
 30
0.0099999997764826
 70
   192
  0
VERTEX
  5
244
  8
0
  6
HCS_01
 62
     7
 10
19.37713813781738
 20
19.89769744873047
 30
0.0099999997764826
 70
   192
  0
VERTEX
  5
245
  8
0
  6
HCS_01
 62
     7
 10
19.41900253295898
 20
20.06575584411621
 30
0.0099999997764826
 70
   192
  0
VERTEX
  5
246
  8
0
  6
HCS_01
 62
     7
 10
19.45856666564941
 20
19.94194984436035
 30
0.0099999997764826
 70
   192
  0
VERTEX
  5
247
  8
0
  6
HCS_01
 62
     7
 10
19.46223449707031
 20
20.18853950500488
 30
0.0099999997764826
 70
   192
  0
VERTEX
  5
248
  8
0
  6
HCS_01
 62
     7
 10
19.52157974243164
 20
20.01323318481445
 30
0.0099999997764826
 70
   192
  0
VERTEX
  5
249
  8
0
  6
HCS_01
 62
     7
 10
19.46223449707031
 20
20.18853950500488
 30
0.0099999997764826
 70
   192
  0
VERTEX
  5
24A
  8
0
  6
HCS_01
 62
     7
 10
19.45856666564941
 20
19.94194984436035
 30
0.0099999997764826
 70
   192
  0
VERTEX
  5
24B
  8
0
  6
HCS_01
 62
     7
 10
19.46223449707031
 20
20.18853950500488
 30
0.0099999997764826
 70
   192
  0
VERTEX
  5
24C
  8
0
  6
HCS_01
 62
     7
 10
19.52157974243164
 20
20.01323318481445
 30
0.0099999997764826
 70
   192
  0
VERTEX
  5
24D
  8
0
  6
HCS_01
 62
     7
 10
19.47664260864258
 20
20.39317893981934
 30
0.0099999997764826
 70
   192
  0
VERTEX
  5
24E
  8
0
  6
HCS_01
 62
     7
 10
19.13455581665039
 20
20.06541633605957
 30
0.0099999997764826
 70
   192
  0
VERTEX
  5
24F
  8
0
  6
HCS_01
 62
     7
 10
19.14768600463867
 20
19.90886688232422
 30
0.0099999997764826
 70
   192
  0
VERTEX
  5
250
  8
0
  6
HCS_01
 62
     7
 10
19.19893264770508
 20
20.00428009033203
 30
0.0099999997764826
 70
   192
  0
VERTEX
  5
251
  8
0
  6
HCS_01
 62
     7
 10
19.27677917480469
 20
19.8829460144043
 30
0.0099999997764826
 70
   192
  0
VERTEX
  5
252
  8
0
  6
HCS_01
 62
     7
 10
19.19893264770508
 20
20.00428009033203
 30
0.0099999997764826
 70
   192
  0
VERTEX
  5
253
  8
0
  6
HCS_01
 62
     7
 10
19.14768600463867
 20
19.90886688232422
 30
0.0099999997764826
 70
   192
  0
VERTEX
  5
254
  8
0
  6
HCS_01
 62
     7
 10
19.19893264770508
 20
20.00428009033203
 30
0.0099999997764826
 70
   192
  0
VERTEX
  5
255
  8
0
  6
HCS_01
 62
     7
 10
19.27677917480469
 20
19.8829460144043
 30
0.0099999997764826
 70
   192
  0
VERTEX
  5
256
  8
0
  6
HCS_01
 62
     7
 10
19.27677917480469
 20
19.98390197753906
 30
0.0099999997764826
 70
   192
  0
VERTEX
  5
257
  8
0
  6
HCS_01
 62
     7
 10
19.37713813781738
 20
19.89769744873047
 30
0.0099999997764826
 70
   192
  0
VERTEX
  5
258
  8
0
  6
HCS_01
 62
     7
 10
19.27677917480469
 20
19.98390197753906
 30
0.0099999997764826
 70
   192
  0
VERTEX
  5
259
  8
0
  6
HCS_01
 62
     7
 10
19.27677917480469
 20
19.8829460144043
 30
0.0099999997764826
 70
   192
  0
VERTEX
  5
25A
  8
0
  6
HCS_01
 62
     7
 10
19.27677917480469
 20
19.98390197753906
 30
0.0099999997764826
 70
   192
  0
VERTEX
  5
25B
  8
0
  6
HCS_01
 62
     7
 10
19.37713813781738
 20
19.89769744873047
 30
0.0099999997764826
 70
   192
  0
VERTEX
  5
25C
  8
0
  6
HCS_01
 62
     7
 10
19.35462760925293
 20
20.00436592102051
 30
0.0099999997764826
 70
   192
  0
VERTEX
  5
25D
  8
0
  6
HCS_01
 62
     7
 10
19.0913257598877
 20
20.18811416625977
 30
0.0099999997764826
 70
   192
  0
VERTEX
  5
25E
  8
0
  6
HCS_01
 62
     7
 10
19.14768600463867
 20
19.90886688232422
 30
0.0099999997764826
 70
   192
  0
VERTEX
  5
25F
  8
0
  6
HCS_01
 62
     7
 10
19.13455581665039
 20
20.06541633605957
 30
0.0099999997764826
 70
   192
  0
VERTEX
  5
260
  8
0
  6
HCS_01
 62
     7
 10
17.11310005187988
 20
-3.0
 30
0.0099999997764826
 70
   192
  0
VERTEX
  5
261
  8
0
  6
HCS_01
 62
     7
 10
15.91310024261475
 20
-3.0
 30
0.0099999997764826
 70
   192
  0
VERTEX
  5
262
  8
0
  6
HCS_01
 62
     7
 10
16.51309967041016
 20
0.0
 30
0.0099999997764826
 70
   192
  0
VERTEX
  5
263
  8
0
  6
HCS_01
 62
     7
 10
15.91310024261475
 20
43.0
 30
0.0099999997764826
 70
   192
  0
VERTEX
  5
264
  8
0
  6
HCS_01
 62
     7
 10
17.11310005187988
 20
43.0
 30
0.0099999997764826
 70
   192
  0
VERTEX
  5
265
  8
0
  6
HCS_01
 62
     7
 10
16.51309967041016
 20
40.0
 30
0.0099999997764826
 70
   192
  0
VERTEX
  5
266
  8
0
  6
HCS_01
 62
     7
 10
0.0
 20
0.0
 30
0.0
 70
   128
 71
     1
 72
     2
 73
     3
  0
VERTEX
  5
267
  8
0
  6
HCS_01
 62
     7
 10
0.0
 20
0.0
 30
0.0
 70
   128
 71
     4
 72
     5
 73
     6
  0
VERTEX
  5
268
  8
0
  6
HCS_01
 62
     7
 10
0.0
 20
0.0
 30
0.0
 70
   128
 71
     7
 72
     8
 73
     9
  0
VERTEX
  5
269
  8
0
  6
HCS_01
 62
     7
 10
0.0
 20
0.0
 30
0.0
 70
   128
 71
    10
 72
    11
 73
    12
  0
VERTEX
  5
26A
  8
0
  6
HCS_01
 62
     7
 10
0.0
 20
0.0
 30
0.0
 70
   128
 71
    13
 72
    14
 73
    15
  0
VERTEX
  5
26B
  8
0
  6
HCS_01
 62
     7
 10
0.0
 20
0.0
 30
0.0
 70
   128
 71
    16
 72
    17
 73
    18
  0
VERTEX
  5
26C
  8
0
  6
HCS_01
 62
     7
 10
0.0
 20
0.0
 30
0.0
 70
   128
 71
    19
 72
    20
 73
    21
  0
VERTEX
  5
26D
  8
0
  6
HCS_01
 62
     7
 10
0.0
 20
0.0
 30
0.0
 70
   128
 71
    22
 72
    23
 73
    24
  0
VERTEX
  5
26E
  8
0
  6
HCS_01
 62
     7
 10
0.0
 20
0.0
 30
0.0
 70
   128
 71
    25
 72
    26
 73
    27
  0
VERTEX
  5
26F
  8
0
  6
HCS_01
 62
     7
 10
0.0
 20
0.0
 30
0.0
 70
   128
 71
    28
 72
    29
 73
    30
  0
VERTEX
  5
270
  8
0
  6
HCS_01
 62
     7
 10
0.0
 20
0.0
 30
0.0
 70
   128
 71
    31
 72
    32
 73
    33
  0
VERTEX
  5
271
  8
0
  6
HCS_01
 62
     7
 10
0.0
 20
0.0
 30
0.0
 70
   128
 71
    34
 72
    35
 73
    36
  0
VERTEX
  5
272
  8
0
  6
HCS_01
 62
     7
 10
0.0
 20
0.0
 30
0.0
 70
   128
 71
    37
 72
    38
 73
    39
  0
VERTEX
  5
273
  8
0
  6
HCS_01
 62
     7
 10
0.0
 20
0.0
 30
0.0
 70
   128
 71
    40
 72
    41
 73
    42
  0
VERTEX
  5
274
  8
0
  6
HCS_01
 62
     7
 10
0.0
 20
0.0
 30
0.0
 70
   128
 71
    43
 72
    44
 73
    45
  0
VERTEX
  5
275
  8
0
  6
HCS_01
 62
     7
 10
0.0
 20
0.0
 30
0.0
 70
   128
 71
    46
 72
    47
 73
    48
  0
VERTEX
  5
276
  8
0
  6
HCS_01
 62
     7
 10
0.0
 20
0.0
 30
0.0
 70
   128
 71
    49
 72
    50
 73
    51
  0
VERTEX
  5
277
  8
0
  6
HCS_01
 62
     7
 10
0.0
 20
0.0
 30
0.0
 70
   128
 71
    52
 72
    53
 73
    54
  0
VERTEX
  5
278
  8
0
  6
HCS_01
 62
     7
 10
0.0
 20
0.0
 30
0.0
 70
   128
 71
    55
 72
    56
 73
    57
  0
VERTEX
  5
279
  8
0
  6
HCS_01
 62
     7
 10
0.0
 20
0.0
 30
0.0
 70
   128
 71
    58
 72
    59
 73
    60
  0
VERTEX
  5
27A
  8
0
  6
HCS_01
 62
     7
 10
0.0
 20
0.0
 30
0.0
 70
   128
 71
    61
 72
    62
 73
    63
  0
VERTEX
  5
27B
  8
0
  6
HCS_01
 62
     7
 10
0.0
 20
0.0
 30
0.0
 70
   128
 71
    64
 72
    65
 73
    66
  0
VERTEX
  5
27C
  8
0
  6
HCS_01
 62
     7
 10
0.0
 20
0.0
 30
0.0
 70
   128
 71
    67
 72
    68
 73
    69
  0
VERTEX
  5
27D
  8
0
  6
HCS_01
 62
     7
 10
0.0
 20
0.0
 30
0.0
 70
   128
 71
    70
 72
    71
 73
    72
  0
VERTEX
  5
27E
  8
0
  6
HCS_01
 62
     7
 10
0.0
 20
0.0
 30
0.0
 70
   128
 71
    73
 72
    74
 73
    75
  0
VERTEX
  5
27F
  8
0
  6
HCS_01
 62
     7
 10
0.0
 20
0.0
 30
0.0
 70
   128
 71
    76
 72
    77
 73
    78
  0
VERTEX
  5
280
  8
0
  6
HCS_01
 62
     7
 10
0.0
 20
0.0
 30
0.0
 70
   128
 71
    79
 72
    80
 73
    81
  0
VERTEX
  5
281
  8
0
  6
HCS_01
 62
     7
 10
0.0
 20
0.0
 30
0.0
 70
   128
 71
    82
 72
    83
 73
    84
  0
VERTEX
  5
282
  8
0
  6
HCS_01
 62
     7
 10
0.0
 20
0.0
 30
0.0
 70
   128
 71
    85
 72
    86
 73
    87
  0
VERTEX
  5
283
  8
0
  6
HCS_01
 62
     7
 10
0.0
 20
0.0
 30
0.0
 70
   128
 71
    88
 72
    89
 73
    90
  0
VERTEX
  5
284
  8
0
  6
HCS_01
 62
     7
 10
0.0
 20
0.0
 30
0.0
 70
   128
 71
    91
 72
    92
 73
    93
  0
VERTEX
  5
285
  8
0
  6
HCS_01
 62
     7
 10
0.0
 20
0.0
 30
0.0
 70
   128
 71
    94
 72
    95
 73
    96
  0
VERTEX
  5
286
  8
0
  6
HCS_01
 62
     7
 10
0.0
 20
0.0
 30
0.0
 70
   128
 71
    97
 72
    98
 73
    99
  0
VERTEX
  5
287
  8
0
  6
HCS_01
 62
     7
 10
0.0
 20
0.0
 30
0.0
 70
   128
 71
   100
 72
   101
 73
   102
  0
VERTEX
  5
288
  8
0
  6
HCS_01
 62
     7
 10
0.0
 20
0.0
 30
0.0
 70
   128
 71
   103
 72
   104
 73
   105
  0
VERTEX
  5
289
  8
0
  6
HCS_01
 62
     7
 10
0.0
 20
0.0
 30
0.0
 70
   128
 71
   106
 72
   107
 73
   108
  0
VERTEX
  5
28A
  8
0
  6
HCS_01
 62
     7
 10
0.0
 20
0.0
 30
0.0
 70
   128
 71
   109
 72
   110
 73
   111
  0
VERTEX
  5
28B
  8
0
  6
HCS_01
 62
     7
 10
0.0
 20
0.0
 30
0.0
 70
   128
 71
   112
 72
   113
 73
   114
  0
VERTEX
  5
28C
  8
0
  6
HCS_01
 62
     7
 10
0.0
 20
0.0
 30
0.0
 70
   128
 71
   115
 72
   116
 73
   117
  0
VERTEX
  5
28D
  8
0
  6
HCS_01
 62
     7
 10
0.0
 20
0.0
 30
0.0
 70
   128
 71
   118
 72
   119
 73
   120
  0
VERTEX
  5
28E
  8
0
  6
HCS_01
 62
     7
 10
0.0
 20
0.0
 30
0.0
 70
   128
 71
   121
 72
   122
 73
   123
  0
VERTEX
  5
28F
  8
0
  6
HCS_01
 62
     7
 10
0.0
 20
0.0
 30
0.0
 70
   128
 71
   124
 72
   125
 73
   126
  0
VERTEX
  5
290
  8
0
  6
HCS_01
 62
     7
 10
0.0
 20
0.0
 30
0.0
 70
   128
 71
   127
 72
   128
 73
   129
  0
VERTEX
  5
291
  8
0
  6
HCS_01
 62
     7
 10
0.0
 20
0.0
 30
0.0
 70
   128
 71
   130
 72
   131
 73
   132
  0
VERTEX
  5
292
  8
0
  6
HCS_01
 62
     7
 10
0.0
 20
0.0
 30
0.0
 70
   128
 71
   133
 72
   134
 73
   135
  0
VERTEX
  5
293
  8
0
  6
HCS_01
 62
     7
 10
0.0
 20
0.0
 30
0.0
 70
   128
 71
   136
 72
   137
 73
   138
  0
VERTEX
  5
294
  8
0
  6
HCS_01
 62
     7
 10
0.0
 20
0.0
 30
0.0
 70
   128
 71
   139
 72
   140
 73
   141
  0
VERTEX
  5
295
  8
0
  6
HCS_01
 62
     7
 10
0.0
 20
0.0
 30
0.0
 70
   128
 71
   142
 72
   143
 73
   144
  0
VERTEX
  5
296
  8
0
  6
HCS_01
 62
     7
 10
0.0
 20
0.0
 30
0.0
 70
   128
 71
   145
 72
   146
 73
   147
  0
VERTEX
  5
297
  8
0
  6
HCS_01
 62
     7
 10
0.0
 20
0.0
 30
0.0
 70
   128
 71
   148
 72
   149
 73
   150
  0
VERTEX
  5
298
  8
0
  6
HCS_01
 62
     7
 10
0.0
 20
0.0
 30
0.0
 70
   128
 71
   151
 72
   152
 73
   153
  0
VERTEX
  5
299
  8
0
  6
HCS_01
 62
     7
 10
0.0
 20
0.0
 30
0.0
 70
   128
 71
   154
 72
   155
 73
   156
  0
VERTEX
  5
29A
  8
0
  6
HCS_01
 62
     7
 10
0.0
 20
0.0
 30
0.0
 70
   128
 71
   157
 72
   158
 73
   159
  0
VERTEX
  5
29B
  8
0
  6
HCS_01
 62
     7
 10
0.0
 20
0.0
 30
0.0
 70
   128
 71
   160
 72
   161
 73
   162
  0
VERTEX
  5
29C
  8
0
  6
HCS_01
 62
     7
 10
0.0
 20
0.0
 30
0.0
 70
   128
 71
   163
 72
   164
 73
   165
  0
VERTEX
  5
29D
  8
0
  6
HCS_01
 62
     7
 10
0.0
 20
0.0
 30
0.0
 70
   128
 71
   166
 72
   167
 73
   168
  0
VERTEX
  5
29E
  8
0
  6
HCS_01
 62
     7
 10
0.0
 20
0.0
 30
0.0
 70
   128
 71
   169
 72
   170
 73
   171
  0
VERTEX
  5
29F
  8
0
  6
HCS_01
 62
     7
 10
0.0
 20
0.0
 30
0.0
 70
   128
 71
   172
 72
   173
 73
   174
  0
VERTEX
  5
2A0
  8
0
  6
HCS_01
 62
     7
 10
0.0
 20
0.0
 30
0.0
 70
   128
 71
   175
 72
   176
 73
   177
  0
VERTEX
  5
2A1
  8
0
  6
HCS_01
 62
     7
 10
0.0
 20
0.0
 30
0.0
 70
   128
 71
   178
 72
   179
 73
   180
  0
VERTEX
  5
2A2
  8
0
  6
HCS_01
 62
     7
 10
0.0
 20
0.0
 30
0.0
 70
   128
 71
   181
 72
   182
 73
   183
  0
VERTEX
  5
2A3
  8
0
  6
HCS_01
 62
     7
 10
0.0
 20
0.0
 30
0.0
 70
   128
 71
   184
 72
   185
 73
   186
  0
VERTEX
  5
2A4
  8
0
  6
HCS_01
 62
     7
 10
0.0
 20
0.0
 30
0.0
 70
   128
 71
   187
 72
   188
 73
   189
  0
VERTEX
  5
2A5
  8
0
  6
HCS_01
 62
     7
 10
0.0
 20
0.0
 30
0.0
 70
   128
 71
   190
 72
   191
 73
   192
  0
VERTEX
  5
2A6
  8
0
  6
HCS_01
 62
     7
 10
0.0
 20
0.0
 30
0.0
 70
   128
 71
   193
 72
   194
 73
   195
  0
VERTEX
  5
2A7
  8
0
  6
HCS_01
 62
     7
 10
0.0
 20
0.0
 30
0.0
 70
   128
 71
   196
 72
   197
 73
   198
  0
VERTEX
  5
2A8
  8
0
  6
HCS_01
 62
     7
 10
0.0
 20
0.0
 30
0.0
 70
   128
 71
   199
 72
   200
 73
   201
  0
VERTEX
  5
2A9
  8
0
  6
HCS_01
 62
     7
 10
0.0
 20
0.0
 30
0.0
 70
   128
 71
   202
 72
   203
 73
   204
  0
VERTEX
  5
2AA
  8
0
  6
HCS_01
 62
     7
 10
0.0
 20
0.0
 30
0.0
 70
   128
 71
   205
 72
   206
 73
   207
  0
VERTEX
  5
2AB
  8
0
  6
HCS_01
 62
     7
 10
0.0
 20
0.0
 30
0.0
 70
   128
 71
   208
 72
   209
 73
   210
  0
VERTEX
  5
2AC
  8
0
  6
HCS_01
 62
     7
 10
0.0
 20
0.0
 30
0.0
 70
   128
 71
   211
 72
   212
 73
   213
  0
VERTEX
  5
2AD
  8
0
  6
HCS_01
 62
     7
 10
0.0
 20
0.0
 30
0.0
 70
   128
 71
   214
 72
   215
 73
   216
  0
VERTEX
  5
2AE
  8
0
  6
HCS_01
 62
     7
 10
0.0
 20
0.0
 30
0.0
 70
   128
 71
   217
 72
   218
 73
   219
  0
VERTEX
  5
2AF
  8
0
  6
HCS_01
 62
     7
 10
0.0
 20
0.0
 30
0.0
 70
   128
 71
   220
 72
   221
 73
   222
  0
VERTEX
  5
2B0
  8
0
  6
HCS_01
 62
     7
 10
0.0
 20
0.0
 30
0.0
 70
   128
 71
   223
 72
   224
 73
   225
  0
VERTEX
  5
2B1
  8
0
  6
HCS_01
 62
     7
 10
0.0
 20
0.0
 30
0.0
 70
   128
 71
   226
 72
   227
 73
   228
  0
VERTEX
  5
2B2
  8
0
  6
HCS_01
 62
     7
 10
0.0
 20
0.0
 30
0.0
 70
   128
 71
   229
 72
   230
 73
   231
  0
VERTEX
  5
2B3
  8
0
  6
HCS_01
 62
     7
 10
0.0
 20
0.0
 30
0.0
 70
   128
 71
   232
 72
   233
 73
   234
  0
VERTEX
  5
2B4
  8
0
  6
HCS_01
 62
     7
 10
0.0
 20
0.0
 30
0.0
 70
   128
 71
   235
 72
   236
 73
   237
  0
VERTEX
  5
2B5
  8
0
  6
HCS_01
 62
     7
 10
0.0
 20
0.0
 30
0.0
 70
   128
 71
   238
 72
   239
 73
   240
  0
VERTEX
  5
2B6
  8
0
  6
HCS_01
 62
     7
 10
0.0
 20
0.0
 30
0.0
 70
   128
 71
   241
 72
   242
 73
   243
  0
VERTEX
  5
2B7
  8
0
  6
HCS_01
 62
     7
 10
0.0
 20
0.0
 30
0.0
 70
   128
 71
   244
 72
   245
 73
   246
  0
VERTEX
  5
2B8
  8
0
  6
HCS_01
 62
     7
 10
0.0
 20
0.0
 30
0.0
 70
   128
 71
   247
 72
   248
 73
   249
  0
VERTEX
  5
2B9
  8
0
  6
HCS_01
 62
     7
 10
0.0
 20
0.0
 30
0.0
 70
   128
 71
   250
 72
   251
 73
   252
  0
VERTEX
  5
2BA
  8
0
  6
HCS_01
 62
     7
 10
0.0
 20
0.0
 30
0.0
 70
   128
 71
   253
 72
   254
 73
   255
  0
VERTEX
  5
2BB
  8
0
  6
HCS_01
 62
     7
 10
0.0
 20
0.0
 30
0.0
 70
   128
 71
   256
 72
   257
 73
   258
  0
VERTEX
  5
2BC
  8
0
  6
HCS_01
 62
     7
 10
0.0
 20
0.0
 30
0.0
 70
   128
 71
   259
 72
   260
 73
   261
  0
VERTEX
  5
2BD
  8
0
  6
HCS_01
 62
     7
 10
0.0
 20
0.0
 30
0.0
 70
   128
 71
   262
 72
   263
 73
   264
  0
VERTEX
  5
2BE
  8
0
  6
HCS_01
 62
     7
 10
0.0
 20
0.0
 30
0.0
 70
   128
 71
   265
 72
   266
 73
   267
  0
VERTEX
  5
2BF
  8
0
  6
HCS_01
 62
     7
 10
0.0
 20
0.0
 30
0.0
 70
   128
 71
   268
 72
   269
 73
   270
  0
VERTEX
  5
2C0
  8
0
  6
HCS_01
 62
     7
 10
0.0
 20
0.0
 30
0.0
 70
   128
 71
   271
 72
   272
 73
   273
  0
VERTEX
  5
2C1
  8
0
  6
HCS_01
 62
     7
 10
0.0
 20
0.0
 30
0.0
 70
   128
 71
   274
 72
   275
 73
   276
  0
VERTEX
  5
2C2
  8
0
  6
HCS_01
 62
     7
 10
0.0
 20
0.0
 30
0.0
 70
   128
 71
   277
 72
   278
 73
   279
  0
VERTEX
  5
2C3
  8
0
  6
HCS_01
 62
     7
 10
0.0
 20
0.0
 30
0.0
 70
   128
 71
   280
 72
   281
 73
   282
  0
VERTEX
  5
2C4
  8
0
  6
HCS_01
 62
     7
 10
0.0
 20
0.0
 30
0.0
 70
   128
 71
   283
 72
   284
 73
   285
  0
VERTEX
  5
2C5
  8
0
  6
HCS_01
 62
     7
 10
0.0
 20
0.0
 30
0.0
 70
   128
 71
   286
 72
   287
 73
   288
  0
VERTEX
  5
2C6
  8
0
  6
HCS_01
 62
     7
 10
0.0
 20
0.0
 30
0.0
 70
   128
 71
   289
 72
   290
 73
   291
  0
VERTEX
  5
2C7
  8
0
  6
HCS_01
 62
     7
 10
0.0
 20
0.0
 30
0.0
 70
   128
 71
   292
 72
   293
 73
   294
  0
VERTEX
  5
2C8
  8
0
  6
HCS_01
 62
     7
 10
0.0
 20
0.0
 30
0.0
 70
   128
 71
   295
 72
   296
 73
   297
  0
VERTEX
  5
2C9
  8
0
  6
HCS_01
 62
     7
 10
0.0
 20
0.0
 30
0.0
 70
   128
 71
   298
 72
   299
 73
   300
  0
VERTEX
  5
2CA
  8
0
  6
HCS_01
 62
     7
 10
0.0
 20
0.0
 30
0.0
 70
   128
 71
   301
 72
   302
 73
   303
  0
VERTEX
  5
2CB
  8
0
  6
HCS_01
 62
     7
 10
0.0
 20
0.0
 30
0.0
 70
   128
 71
   304
 72
   305
 73
   306
  0
VERTEX
  5
2CC
  8
0
  6
HCS_01
 62
     7
 10
0.0
 20
0.0
 30
0.0
 70
   128
 71
   307
 72
   308
 73
   309
  0
VERTEX
  5
2CD
  8
0
  6
HCS_01
 62
     7
 10
0.0
 20
0.0
 30
0.0
 70
   128
 71
   310
 72
   311
 73
   312
  0
VERTEX
  5
2CE
  8
0
  6
HCS_01
 62
     7
 10
0.0
 20
0.0
 30
0.0
 70
   128
 71
   313
 72
   314
 73
   315
  0
VERTEX
  5
2CF
  8
0
  6
HCS_01
 62
     7
 10
0.0
 20
0.0
 30
0.0
 70
   128
 71
   316
 72
   317
 73
   318
  0
VERTEX
  5
2D0
  8
0
  6
HCS_01
 62
     7
 10
0.0
 20
0.0
 30
0.0
 70
   128
 71
   319
 72
   320
 73
   321
  0
VERTEX
  5
2D1
  8
0
  6
HCS_01
 62
     7
 10
0.0
 20
0.0
 30
0.0
 70
   128
 71
   322
 72
   323
 73
   324
  0
VERTEX
  5
2D2
  8
0
  6
HCS_01
 62
     7
 10
0.0
 20
0.0
 30
0.0
 70
   128
 71
   325
 72
   326
 73
   327
  0
VERTEX
  5
2D3
  8
0
  6
HCS_01
 62
     7
 10
0.0
 20
0.0
 30
0.0
 70
   128
 71
   328
 72
   329
 73
   330
  0
VERTEX
  5
2D4
  8
0
  6
HCS_01
 62
     7
 10
0.0
 20
0.0
 30
0.0
 70
   128
 71
   331
 72
   332
 73
   333
  0
VERTEX
  5
2D5
  8
0
  6
HCS_01
 62
     7
 10
0.0
 20
0.0
 30
0.0
 70
   128
 71
   334
 72
   335
 73
   336
  0
VERTEX
  5
2D6
  8
0
  6
HCS_01
 62
     7
 10
0.0
 20
0.0
 30
0.0
 70
   128
 71
   337
 72
   338
 73
   339
  0
VERTEX
  5
2D7
  8
0
  6
HCS_01
 62
     7
 10
0.0
 20
0.0
 30
0.0
 70
   128
 71
   340
 72
   341
 73
   342
  0
VERTEX
  5
2D8
  8
0
  6
HCS_01
 62
     7
 10
0.0
 20
0.0
 30
0.0
 70
   128
 71
   343
 72
   344
 73
   345
  0
VERTEX
  5
2D9
  8
0
  6
HCS_01
 62
     7
 10
0.0
 20
0.0
 30
0.0
 70
   128
 71
   346
 72
   347
 73
   348
  0
VERTEX
  5
2DA
  8
0
  6
HCS_01
 62
     7
 10
0.0
 20
0.0
 30
0.0
 70
   128
 71
   349
 72
   350
 73
   351
  0
VERTEX
  5
2DB
  8
0
  6
HCS_01
 62
     7
 10
0.0
 20
0.0
 30
0.0
 70
   128
 71
   352
 72
   353
 73
   354
  0
VERTEX
  5
2DC
  8
0
  6
HCS_01
 62
     7
 10
0.0
 20
0.0
 30
0.0
 70
   128
 71
   355
 72
   356
 73
   357
  0
VERTEX
  5
2DD
  8
0
  6
HCS_01
 62
     7
 10
0.0
 20
0.0
 30
0.0
 70
   128
 71
   358
 72
   359
 73
   360
  0
VERTEX
  5
2DE
  8
0
  6
HCS_01
 62
     7
 10
0.0
 20
0.0
 30
0.0
 70
   128
 71
   361
 72
   362
 73
   363
  0
VERTEX
  5
2DF
  8
0
  6
HCS_01
 62
     7
 10
0.0
 20
0.0
 30
0.0
 70
   128
 71
   364
 72
   365
 73
   366
  0
VERTEX
  5
2E0
  8
0
  6
HCS_01
 62
     7
 10
0.0
 20
0.0
 30
0.0
 70
   128
 71
   367
 72
   368
 73
   369
  0
VERTEX
  5
2E1
  8
0
  6
HCS_01
 62
     7
 10
0.0
 20
0.0
 30
0.0
 70
   128
 71
   370
 72
   371
 73
   372
  0
VERTEX
  5
2E2
  8
0
  6
HCS_01
 62
     7
 10
0.0
 20
0.0
 30
0.0
 70
   128
 71
   373
 72
   374
 73
   375
  0
VERTEX
  5
2E3
  8
0
  6
HCS_01
 62
     7
 10
0.0
 20
0.0
 30
0.0
 70
   128
 71
   376
 72
   377
 73
   378
  0
VERTEX
  5
2E4
  8
0
  6
HCS_01
 62
     7
 10
0.0
 20
0.0
 30
0.0
 70
   128
 71
   379
 72
   380
 73
   381
  0
VERTEX
  5
2E5
  8
0
  6
HCS_01
 62
     7
 10
0.0
 20
0.0
 30
0.0
 70
   128
 71
   382
 72
   383
 73
   384
  0
VERTEX
  5
2E6
  8
0
  6
HCS_01
 62
     7
 10
0.0
 20
0.0
 30
0.0
 70
   128
 71
   385
 72
   386
 73
   387
  0
VERTEX
  5
2E7
  8
0
  6
HCS_01
 62
     7
 10
0.0
 20
0.0
 30
0.0
 70
   128
 71
   388
 72
   389
 73
   390
  0
VERTEX
  5
2E8
  8
0
  6
HCS_01
 62
     7
 10
0.0
 20
0.0
 30
0.0
 70
   128
 71
   391
 72
   392
 73
   393
  0
VERTEX
  5
2E9
  8
0
  6
HCS_01
 62
     7
 10
0.0
 20
0.0
 30
0.0
 70
   128
 71
   394
 72
   395
 73
   396
  0
VERTEX
  5
2EA
  8
0
  6
HCS_01
 62
     7
 10
0.0
 20
0.0
 30
0.0
 70
   128
 71
   397
 72
   398
 73
   399
  0
VERTEX
  5
2EB
  8
0
  6
HCS_01
 62
     7
 10
0.0
 20
0.0
 30
0.0
 70
   128
 71
   400
 72
   401
 73
   402
  0
VERTEX
  5
2EC
  8
0
  6
HCS_01
 62
     7
 10
0.0
 20
0.0
 30
0.0
 70
   128
 71
   403
 72
   404
 73
   405
  0
VERTEX
  5
2ED
  8
0
  6
HCS_01
 62
     7
 10
0.0
 20
0.0
 30
0.0
 70
   128
 71
   406
 72
   407
 73
   408
  0
VERTEX
  5
2EE
  8
0
  6
HCS_01
 62
     7
 10
0.0
 20
0.0
 30
0.0
 70
   128
 71
   409
 72
   410
 73
   411
  0
VERTEX
  5
2EF
  8
0
  6
HCS_01
 62
     7
 10
0.0
 20
0.0
 30
0.0
 70
   128
 71
   412
 72
   413
 73
   414
  0
VERTEX
  5
2F0
  8
0
  6
HCS_01
 62
     7
 10
0.0
 20
0.0
 30
0.0
 70
   128
 71
   415
 72
   416
 73
   417
  0
VERTEX
  5
2F1
  8
0
  6
HCS_01
 62
     7
 10
0.0
 20
0.0
 30
0.0
 70
   128
 71
   418
 72
   419
 73
   420
  0
VERTEX
  5
2F2
  8
0
  6
HCS_01
 62
     7
 10
0.0
 20
0.0
 30
0.0
 70
   128
 71
   421
 72
   422
 73
   423
  0
VERTEX
  5
2F3
  8
0
  6
HCS_01
 62
     7
 10
0.0
 20
0.0
 30
0.0
 70
   128
 71
   424
 72
   425
 73
   426
  0
VERTEX
  5
2F4
  8
0
  6
HCS_01
 62
     7
 10
0.0
 20
0.0
 30
0.0
 70
   128
 71
   427
 72
   428
 73
   429
  0
VERTEX
  5
2F5
  8
0
  6
HCS_01
 62
     7
 10
0.0
 20
0.0
 30
0.0
 70
   128
 71
   430
 72
   431
 73
   432
  0
VERTEX
  5
2F6
  8
0
  6
HCS_01
 62
     7
 10
0.0
 20
0.0
 30
0.0
 70
   128
 71
   433
 72
   434
 73
   435
  0
VERTEX
  5
2F7
  8
0
  6
HCS_01
 62
     7
 10
0.0
 20
0.0
 30
0.0
 70
   128
 71
   436
 72
   437
 73
   438
  0
VERTEX
  5
2F8
  8
0
  6
HCS_01
 62
     7
 10
0.0
 20
0.0
 30
0.0
 70
   128
 71
   439
 72
   440
 73
   441
  0
VERTEX
  5
2F9
  8
0
  6
HCS_01
 62
     7
 10
0.0
 20
0.0
 30
0.0
 70
   128
 71
   442
 72
   443
 73
   444
  0
SEQEND
  5
2FA
  8
0
  6
HCS_01
 62
     7
  0
ENDBLK
  5
2FD
  8
0
  0
BLOCK
  8
0
  2
GNODE_14
 70
     0
 10
0.0
 20
0.0
 30
0.0
  3
GNODE_14
  1

  0
LINE
  5
2FF
  8
0
  6
HCS_01
 62
     7
 10
6.733251094818115
 20
0.0
 30
0.0
 11
2.75
 21
0.0
 31
0.0
  0
LINE
  5
300
  8
0
  6
HCS_01
 62
     7
 10
6.733251094818115
 20
4.5
 30
0.0
 11
2.75
 21
4.5
 31
0.0
  0
LINE
  5
301
  8
0
  6
HCS_01
 62
     7
 10
5.733251094818115
 20
-4.5
 30
0.0
 11
5.733251094818115
 21
11.28125953674316
 31
0.0
  0
POLYLINE
  5
302
  8
0
  6
HCS_01
 62
     7
 66
     1
 10
0.0
 20
0.0
 30
0.0
 70
    64
 71
   411
 72
   137
  0
VERTEX
  5
303
  8
0
  6
HCS_01
 62
     7
 10
4.507503509521484
 20
12.9643726348877
 30
0.0099999997764826
 70
   192
  0
VERTEX
  5
304
  8
0
  6
HCS_01
 62
     7
 10
4.467769622802734
 20
12.85369777679443
 30
0.0099999997764826
 70
   192
  0
VERTEX
  5
305
  8
0
  6
HCS_01
 62
     7
 10
4.490109443664551
 20
12.68231296539307
 30
0.0099999997764826
 70
   192
  0
VERTEX
  5
306
  8
0
  6
HCS_01
 62
     7
 10
4.507503509521484
 20
12.9643726348877
 30
0.0099999997764826
 70
   192
  0
VERTEX
  5
307
  8
0
  6
HCS_01
 62
     7
 10
4.490109443664551
 20
12.68231296539307
 30
0.0099999997764826
 70
   192
  0
VERTEX
  5
308
  8
0
  6
HCS_01
 62
     7
 10
4.581599712371826
 20
12.78727531433105
 30
0.0099999997764826
 70
   192
  0
VERTEX
  5
309
  8
0
  6
HCS_01
 62
     7
 10
4.507503509521484
 20
12.9643726348877
 30
0.0099999997764826
 70
   192
  0
VERTEX
  5
30A
  8
0
  6
HCS_01
 62
     7
 10
4.581599712371826
 20
12.78727531433105
 30
0.0099999997764826
 70
   192
  0
VERTEX
  5
30B
  8
0
  6
HCS_01
 62
     7
 10
4.639836311340332
 20
12.93094825744629
 30
0.0099999997764826
 70
   192
  0
VERTEX
  5
30C
  8
0
  6
HCS_01
 62
     7
 10
4.214870452880859
 20
12.70993900299072
 30
0.0099999997764826
 70
   192
  0
VERTEX
  5
30D
  8
0
  6
HCS_01
 62
     7
 10
4.225784301757812
 20
12.59670543670654
 30
0.0099999997764826
 70
   192
  0
VERTEX
  5
30E
  8
0
  6
HCS_01
 62
     7
 10
4.317530632019043
 20
12.7259693145752
 30
0.0099999997764826
 70
   192
  0
VERTEX
  5
30F
  8
0
  6
HCS_01
 62
     7
 10
4.369969367980957
 20
12.61810779571533
 30
0.0099999997764826
 70
   192
  0
VERTEX
  5
310
  8
0
  6
HCS_01
 62
     7
 10
4.317530632019043
 20
12.7259693145752
 30
0.0099999997764826
 70
   192
  0
VERTEX
  5
311
  8
0
  6
HCS_01
 62
     7
 10
4.225784301757812
 20
12.59670543670654
 30
0.0099999997764826
 70
   192
  0
VERTEX
  5
312
  8
0
  6
HCS_01
 62
     7
 10
4.317530632019043
 20
12.7259693145752
 30
0.0099999997764826
 70
   192
  0
VERTEX
  5
313
  8
0
  6
HCS_01
 62
     7
 10
4.369969367980957
 20
12.61810779571533
 30
0.0099999997764826
 70
   192
  0
VERTEX
  5
314
  8
0
  6
HCS_01
 62
     7
 10
4.403138160705566
 20
12.7740592956543
 30
0.0099999997764826
 70
   192
  0
VERTEX
  5
315
  8
0
  6
HCS_01
 62
     7
 10
4.490109443664551
 20
12.68231296539307
 30
0.0099999997764826
 70
   192
  0
VERTEX
  5
316
  8
0
  6
HCS_01
 62
     7
 10
4.403138160705566
 20
12.7740592956543
 30
0.0099999997764826
 70
   192
  0
VERTEX
  5
317
  8
0
  6
HCS_01
 62
     7
 10
4.369969367980957
 20
12.61810779571533
 30
0.0099999997764826
 70
   192
  0
VERTEX
  5
318
  8
0
  6
HCS_01
 62
     7
 10
4.403138160705566
 20
12.7740592956543
 30
0.0099999997764826
 70
   192
  0
VERTEX
  5
319
  8
0
  6
HCS_01
 62
     7
 10
4.490109443664551
 20
12.68231296539307
 30
0.0099999997764826
 70
   192
  0
VERTEX
  5
31A
  8
0
  6
HCS_01
 62
     7
 10
4.467769622802734
 20
12.85369777679443
 30
0.0099999997764826
 70
   192
  0
VERTEX
  5
31B
  8
0
  6
HCS_01
 62
     7
 10
4.126705646514893
 20
12.72170543670654
 30
0.0099999997764826
 70
   192
  0
VERTEX
  5
31C
  8
0
  6
HCS_01
 62
     7
 10
4.045020580291748
 20
12.75700569152832
 30
0.0099999997764826
 70
   192
  0
VERTEX
  5
31D
  8
0
  6
HCS_01
 62
     7
 10
4.079212188720703
 20
12.61316204071045
 30
0.0099999997764826
 70
   192
  0
VERTEX
  5
31E
  8
0
  6
HCS_01
 62
     7
 10
4.126705646514893
 20
12.72170543670654
 30
0.0099999997764826
 70
   192
  0
VERTEX
  5
31F
  8
0
  6
HCS_01
 62
     7
 10
4.079212188720703
 20
12.61316204071045
 30
0.0099999997764826
 70
   192
  0
VERTEX
  5
320
  8
0
  6
HCS_01
 62
     7
 10
4.225784301757812
 20
12.59670543670654
 30
0.0099999997764826
 70
   192
  0
VERTEX
  5
321
  8
0
  6
HCS_01
 62
     7
 10
4.126705646514893
 20
12.72170543670654
 30
0.0099999997764826
 70
   192
  0
VERTEX
  5
322
  8
0
  6
HCS_01
 62
     7
 10
4.225784301757812
 20
12.59670543670654
 30
0.0099999997764826
 70
   192
  0
VERTEX
  5
323
  8
0
  6
HCS_01
 62
     7
 10
4.214870452880859
 20
12.70993900299072
 30
0.0099999997764826
 70
   192
  0
VERTEX
  5
324
  8
0
  6
HCS_01
 62
     7
 10
3.976892948150635
 20
12.81609535217285
 30
0.0099999997764826
 70
   192
  0
VERTEX
  5
325
  8
0
  6
HCS_01
 62
     7
 10
3.929399967193604
 20
12.89923000335693
 30
0.0099999997764826
 70
   192
  0
VERTEX
  5
326
  8
0
  6
HCS_01
 62
     7
 10
3.962824106216431
 20
12.66253089904785
 30
0.0099999997764826
 70
   192
  0
VERTEX
  5
327
  8
0
  6
HCS_01
 62
     7
 10
3.976892948150635
 20
12.81609535217285
 30
0.0099999997764826
 70
   192
  0
VERTEX
  5
328
  8
0
  6
HCS_01
 62
     7
 10
3.962824106216431
 20
12.66253089904785
 30
0.0099999997764826
 70
   192
  0
VERTEX
  5
329
  8
0
  6
HCS_01
 62
     7
 10
4.079212188720703
 20
12.61316204071045
 30
0.0099999997764826
 70
   192
  0
VERTEX
  5
32A
  8
0
  6
HCS_01
 62
     7
 10
3.976892948150635
 20
12.81609535217285
 30
0.0099999997764826
 70
   192
  0
VERTEX
  5
32B
  8
0
  6
HCS_01
 62
     7
 10
4.079212188720703
 20
12.61316204071045
 30
0.0099999997764826
 70
   192
  0
VERTEX
  5
32C
  8
0
  6
HCS_01
 62
     7
 10
4.045020580291748
 20
12.75700569152832
 30
0.0099999997764826
 70
   192
  0
VERTEX
  5
32D
  8
0
  6
HCS_01
 62
     7
 10
3.923601627349854
 20
13.31396389007568
 30
0.0099999997764826
 70
   192
  0
VERTEX
  5
32E
  8
0
  6
HCS_01
 62
     7
 10
3.985334396362305
 20
13.57044410705566
 30
0.0099999997764826
 70
   192
  0
VERTEX
  5
32F
  8
0
  6
HCS_01
 62
     7
 10
3.900068283081055
 20
13.21940326690674
 30
0.0099999997764826
 70
   192
  0
VERTEX
  5
330
  8
0
  6
HCS_01
 62
     7
 10
3.887789964675903
 20
13.49609184265137
 30
0.0099999997764826
 70
   192
  0
VERTEX
  5
331
  8
0
  6
HCS_01
 62
     7
 10
3.900068283081055
 20
13.21940326690674
 30
0.0099999997764826
 70
   192
  0
VERTEX
  5
332
  8
0
  6
HCS_01
 62
     7
 10
3.985334396362305
 20
13.57044410705566
 30
0.0099999997764826
 70
   192
  0
VERTEX
  5
333
  8
0
  6
HCS_01
 62
     7
 10
3.900068283081055
 20
13.21940326690674
 30
0.0099999997764826
 70
   192
  0
VERTEX
  5
334
  8
0
  6
HCS_01
 62
     7
 10
3.887789964675903
 20
13.49609184265137
 30
0.0099999997764826
 70
   192
  0
VERTEX
  5
335
  8
0
  6
HCS_01
 62
     7
 10
3.892223834991455
 20
13.12194442749023
 30
0.0099999997764826
 70
   192
  0
VERTEX
  5
336
  8
0
  6
HCS_01
 62
     7
 10
3.873635768890381
 20
12.74310779571533
 30
0.0099999997764826
 70
   192
  0
VERTEX
  5
337
  8
0
  6
HCS_01
 62
     7
 10
3.892223834991455
 20
13.12194442749023
 30
0.0099999997764826
 70
   192
  0
VERTEX
  5
338
  8
0
  6
HCS_01
 62
     7
 10
3.887789964675903
 20
13.49609184265137
 30
0.0099999997764826
 70
   192
  0
VERTEX
  5
339
  8
0
  6
HCS_01
 62
     7
 10
3.892223834991455
 20
13.12194442749023
 30
0.0099999997764826
 70
   192
  0
VERTEX
  5
33A
  8
0
  6
HCS_01
 62
     7
 10
3.873635768890381
 20
12.74310779571533
 30
0.0099999997764826
 70
   192
  0
VERTEX
  5
33B
  8
0
  6
HCS_01
 62
     7
 10
3.901517868041992
 20
13.00248718261719
 30
0.0099999997764826
 70
   192
  0
VERTEX
  5
33C
  8
0
  6
HCS_01
 62
     7
 10
3.962824106216431
 20
12.66253089904785
 30
0.0099999997764826
 70
   192
  0
VERTEX
  5
33D
  8
0
  6
HCS_01
 62
     7
 10
3.901517868041992
 20
13.00248718261719
 30
0.0099999997764826
 70
   192
  0
VERTEX
  5
33E
  8
0
  6
HCS_01
 62
     7
 10
3.873635768890381
 20
12.74310779571533
 30
0.0099999997764826
 70
   192
  0
VERTEX
  5
33F
  8
0
  6
HCS_01
 62
     7
 10
3.901517868041992
 20
13.00248718261719
 30
0.0099999997764826
 70
   192
  0
VERTEX
  5
340
  8
0
  6
HCS_01
 62
     7
 10
3.962824106216431
 20
12.66253089904785
 30
0.0099999997764826
 70
   192
  0
VERTEX
  5
341
  8
0
  6
HCS_01
 62
     7
 10
3.929399967193604
 20
12.89923000335693
 30
0.0099999997764826
 70
   192
  0
VERTEX
  5
342
  8
0
  6
HCS_01
 62
     7
 10
3.755798101425171
 20
13.121262550354
 30
0.0099999997764826
 70
   192
  0
VERTEX
  5
343
  8
0
  6
HCS_01
 62
     7
 10
3.769014358520508
 20
12.98262023925781
 30
0.0099999997764826
 70
   192
  0
VERTEX
  5
344
  8
0
  6
HCS_01
 62
     7
 10
3.770719766616821
 20
13.26749420166016
 30
0.0099999997764826
 70
   192
  0
VERTEX
  5
345
  8
0
  6
HCS_01
 62
     7
 10
3.808663129806519
 20
12.85318565368652
 30
0.0099999997764826
 70
   192
  0
VERTEX
  5
346
  8
0
  6
HCS_01
 62
     7
 10
3.770719766616821
 20
13.26749420166016
 30
0.0099999997764826
 70
   192
  0
VERTEX
  5
347
  8
0
  6
HCS_01
 62
     7
 10
3.769014358520508
 20
12.98262023925781
 30
0.0099999997764826
 70
   192
  0
VERTEX
  5
348
  8
0
  6
HCS_01
 62
     7
 10
3.770719766616821
 20
13.26749420166016
 30
0.0099999997764826
 70
   192
  0
VERTEX
  5
349
  8
0
  6
HCS_01
 62
     7
 10
3.808663129806519
 20
12.85318565368652
 30
0.0099999997764826
 70
   192
  0
VERTEX
  5
34A
  8
0
  6
HCS_01
 62
     7
 10
3.815484523773193
 20
13.39377307891846
 30
0.0099999997764826
 70
   192
  0
VERTEX
  5
34B
  8
0
  6
HCS_01
 62
     7
 10
3.873635768890381
 20
12.74310779571533
 30
0.0099999997764826
 70
   192
  0
VERTEX
  5
34C
  8
0
  6
HCS_01
 62
     7
 10
3.815484523773193
 20
13.39377307891846
 30
0.0099999997764826
 70
   192
  0
VERTEX
  5
34D
  8
0
  6
HCS_01
 62
     7
 10
3.808663129806519
 20
12.85318565368652
 30
0.0099999997764826
 70
   192
  0
VERTEX
  5
34E
  8
0
  6
HCS_01
 62
     7
 10
3.815484523773193
 20
13.39377307891846
 30
0.0099999997764826
 70
   192
  0
VERTEX
  5
34F
  8
0
  6
HCS_01
 62
     7
 10
3.873635768890381
 20
12.74310779571533
 30
0.0099999997764826
 70
   192
  0
VERTEX
  5
350
  8
0
  6
HCS_01
 62
     7
 10
3.887789964675903
 20
13.49609184265137
 30
0.0099999997764826
 70
   192
  0
VERTEX
  5
351
  8
0
  6
HCS_01
 62
     7
 10
4.391541481018066
 20
13.46778392791748
 30
0.0099999997764826
 70
   192
  0
VERTEX
  5
352
  8
0
  6
HCS_01
 62
     7
 10
4.449863433837891
 20
13.403151512146
 30
0.0099999997764826
 70
   192
  0
VERTEX
  5
353
  8
0
  6
HCS_01
 62
     7
 10
4.480218410491943
 20
13.55441379547119
 30
0.0099999997764826
 70
   192
  0
VERTEX
  5
354
  8
0
  6
HCS_01
 62
     7
 10
4.492496490478516
 20
13.30884742736816
 30
0.0099999997764826
 70
   192
  0
VERTEX
  5
355
  8
0
  6
HCS_01
 62
     7
 10
4.480218410491943
 20
13.55441379547119
 30
0.0099999997764826
 70
   192
  0
VERTEX
  5
356
  8
0
  6
HCS_01
 62
     7
 10
4.449863433837891
 20
13.403151512146
 30
0.0099999997764826
 70
   192
  0
VERTEX
  5
357
  8
0
  6
HCS_01
 62
     7
 10
4.480218410491943
 20
13.55441379547119
 30
0.0099999997764826
 70
   192
  0
VERTEX
  5
358
  8
0
  6
HCS_01
 62
     7
 10
4.492496490478516
 20
13.30884742736816
 30
0.0099999997764826
 70
   192
  0
VERTEX
  5
359
  8
0
  6
HCS_01
 62
     7
 10
4.567019462585449
 20
13.46249675750732
 30
0.0099999997764826
 70
   192
  0
VERTEX
  5
35A
  8
0
  6
HCS_01
 62
     7
 10
4.622783184051514
 20
13.33954334259033
 30
0.0099999997764826
 70
   192
  0
VERTEX
  5
35B
  8
0
  6
HCS_01
 62
     7
 10
4.567019462585449
 20
13.46249675750732
 30
0.0099999997764826
 70
   192
  0
VERTEX
  5
35C
  8
0
  6
HCS_01
 62
     7
 10
4.492496490478516
 20
13.30884742736816
 30
0.0099999997764826
 70
   192
  0
VERTEX
  5
35D
  8
0
  6
HCS_01
 62
     7
 10
4.119287490844727
 20
13.50376605987549
 30
0.0099999997764826
 70
   192
  0
VERTEX
  5
35E
  8
0
  6
HCS_01
 62
     7
 10
4.225102424621582
 20
13.51757907867432
 30
0.0099999997764826
 70
   192
  0
VERTEX
  5
35F
  8
0
  6
HCS_01
 62
     7
 10
4.22783088684082
 20
13.6308126449585
 30
0.0099999997764826
 70
   192
  0
VERTEX
  5
360
  8
0
  6
HCS_01
 62
     7
 10
4.316848754882812
 20
13.50512981414795
 30
0.0099999997764826
 70
   192
  0
VERTEX
  5
361
  8
0
  6
HCS_01
 62
     7
 10
4.22783088684082
 20
13.6308126449585
 30
0.0099999997764826
 70
   192
  0
VERTEX
  5
362
  8
0
  6
HCS_01
 62
     7
 10
4.225102424621582
 20
13.51757907867432
 30
0.0099999997764826
 70
   192
  0
VERTEX
  5
363
  8
0
  6
HCS_01
 62
     7
 10
4.22783088684082
 20
13.6308126449585
 30
0.0099999997764826
 70
   192
  0
VERTEX
  5
364
  8
0
  6
HCS_01
 62
     7
 10
4.316848754882812
 20
13.50512981414795
 30
0.0099999997764826
 70
   192
  0
VERTEX
  5
365
  8
0
  6
HCS_01
 62
     7
 10
4.365962028503418
 20
13.61171245574951
 30
0.0099999997764826
 70
   192
  0
VERTEX
  5
366
  8
0
  6
HCS_01
 62
     7
 10
4.391541481018066
 20
13.46778392791748
 30
0.0099999997764826
 70
   192
  0
VERTEX
  5
367
  8
0
  6
HCS_01
 62
     7
 10
4.365962028503418
 20
13.61171245574951
 30
0.0099999997764826
 70
   192
  0
VERTEX
  5
368
  8
0
  6
HCS_01
 62
     7
 10
4.316848754882812
 20
13.50512981414795
 30
0.0099999997764826
 70
   192
  0
VERTEX
  5
369
  8
0
  6
HCS_01
 62
     7
 10
4.365962028503418
 20
13.61171245574951
 30
0.0099999997764826
 70
   192
  0
VERTEX
  5
36A
  8
0
  6
HCS_01
 62
     7
 10
4.391541481018066
 20
13.46778392791748
 30
0.0099999997764826
 70
   192
  0
VERTEX
  5
36B
  8
0
  6
HCS_01
 62
     7
 10
4.480218410491943
 20
13.55441379547119
 30
0.0099999997764826
 70
   192
  0
VERTEX
  5
36C
  8
0
  6
HCS_01
 62
     7
 10
3.923601627349854
 20
13.31396389007568
 30
0.0099999997764826
 70
   192
  0
VERTEX
  5
36D
  8
0
  6
HCS_01
 62
     7
 10
3.966490507125854
 20
13.39760971069336
 30
0.0099999997764826
 70
   192
  0
VERTEX
  5
36E
  8
0
  6
HCS_01
 62
     7
 10
3.985334396362305
 20
13.57044410705566
 30
0.0099999997764826
 70
   192
  0
VERTEX
  5
36F
  8
0
  6
HCS_01
 62
     7
 10
4.032401084899902
 20
13.462327003479
 30
0.0099999997764826
 70
   192
  0
VERTEX
  5
370
  8
0
  6
HCS_01
 62
     7
 10
3.985334396362305
 20
13.57044410705566
 30
0.0099999997764826
 70
   192
  0
VERTEX
  5
371
  8
0
  6
HCS_01
 62
     7
 10
3.966490507125854
 20
13.39760971069336
 30
0.0099999997764826
 70
   192
  0
VERTEX
  5
372
  8
0
  6
HCS_01
 62
     7
 10
3.985334396362305
 20
13.57044410705566
 30
0.0099999997764826
 70
   192
  0
VERTEX
  5
373
  8
0
  6
HCS_01
 62
     7
 10
4.032401084899902
 20
13.462327003479
 30
0.0099999997764826
 70
   192
  0
VERTEX
  5
374
  8
0
  6
HCS_01
 62
     7
 10
4.101040363311768
 20
13.61571979522705
 30
0.0099999997764826
 70
   192
  0
VERTEX
  5
375
  8
0
  6
HCS_01
 62
     7
 10
4.119287490844727
 20
13.50376605987549
 30
0.0099999997764826
 70
   192
  0
VERTEX
  5
376
  8
0
  6
HCS_01
 62
     7
 10
4.101040363311768
 20
13.61571979522705
 30
0.0099999997764826
 70
   192
  0
VERTEX
  5
377
  8
0
  6
HCS_01
 62
     7
 10
4.032401084899902
 20
13.462327003479
 30
0.0099999997764826
 70
   192
  0
VERTEX
  5
378
  8
0
  6
HCS_01
 62
     7
 10
4.101040363311768
 20
13.61571979522705
 30
0.0099999997764826
 70
   192
  0
VERTEX
  5
379
  8
0
  6
HCS_01
 62
     7
 10
4.119287490844727
 20
13.50376605987549
 30
0.0099999997764826
 70
   192
  0
VERTEX
  5
37A
  8
0
  6
HCS_01
 62
     7
 10
4.22783088684082
 20
13.6308126449585
 30
0.0099999997764826
 70
   192
  0
VERTEX
  5
37B
  8
0
  6
HCS_01
 62
     7
 10
4.797408103942871
 20
12.61375904083252
 30
0.0099999997764826
 70
   192
  0
VERTEX
  5
37C
  8
0
  6
HCS_01
 62
     7
 10
5.422237396240234
 20
12.61375904083252
 30
0.0099999997764826
 70
   192
  0
VERTEX
  5
37D
  8
0
  6
HCS_01
 62
     7
 10
5.422237396240234
 20
12.73176765441895
 30
0.0099999997764826
 70
   192
  0
VERTEX
  5
37E
  8
0
  6
HCS_01
 62
     7
 10
4.797408103942871
 20
12.61375904083252
 30
0.0099999997764826
 70
   192
  0
VERTEX
  5
37F
  8
0
  6
HCS_01
 62
     7
 10
5.422237396240234
 20
12.73176765441895
 30
0.0099999997764826
 70
   192
  0
VERTEX
  5
380
  8
0
  6
HCS_01
 62
     7
 10
4.929740905761719
 20
12.73176765441895
 30
0.0099999997764826
 70
   192
  0
VERTEX
  5
381
  8
0
  6
HCS_01
 62
     7
 10
4.797408103942871
 20
12.61375904083252
 30
0.0099999997764826
 70
   192
  0
VERTEX
  5
382
  8
0
  6
HCS_01
 62
     7
 10
4.929740905761719
 20
12.73176765441895
 30
0.0099999997764826
 70
   192
  0
VERTEX
  5
383
  8
0
  6
HCS_01
 62
     7
 10
4.929740905761719
 20
13.61375904083252
 30
0.0099999997764826
 70
   192
  0
VERTEX
  5
384
  8
0
  6
HCS_01
 62
     7
 10
4.797408103942871
 20
12.61375904083252
 30
0.0099999997764826
 70
   192
  0
VERTEX
  5
385
  8
0
  6
HCS_01
 62
     7
 10
4.929740905761719
 20
13.61375904083252
 30
0.0099999997764826
 70
   192
  0
VERTEX
  5
386
  8
0
  6
HCS_01
 62
     7
 10
4.797408103942871
 20
13.61375904083252
 30
0.0099999997764826
 70
   192
  0
VERTEX
  5
387
  8
0
  6
HCS_01
 62
     7
 10
5.877899169921875
 20
12.85318565368652
 30
0.0099999997764826
 70
   192
  0
VERTEX
  5
388
  8
0
  6
HCS_01
 62
     7
 10
6.311732769012451
 20
12.85318565368652
 30
0.0099999997764826
 70
   192
  0
VERTEX
  5
389
  8
0
  6
HCS_01
 62
     7
 10
5.877899169921875
 20
12.96573734283447
 30
0.0099999997764826
 70
   192
  0
VERTEX
  5
38A
  8
0
  6
HCS_01
 62
     7
 10
5.998636245727539
 20
12.96573734283447
 30
0.0099999997764826
 70
   192
  0
VERTEX
  5
38B
  8
0
  6
HCS_01
 62
     7
 10
5.877899169921875
 20
12.96573734283447
 30
0.0099999997764826
 70
   192
  0
VERTEX
  5
38C
  8
0
  6
HCS_01
 62
     7
 10
6.311732769012451
 20
12.85318565368652
 30
0.0099999997764826
 70
   192
  0
VERTEX
  5
38D
  8
0
  6
HCS_01
 62
     7
 10
5.877899169921875
 20
12.96573734283447
 30
0.0099999997764826
 70
   192
  0
VERTEX
  5
38E
  8
0
  6
HCS_01
 62
     7
 10
5.998636245727539
 20
12.96573734283447
 30
0.0099999997764826
 70
   192
  0
VERTEX
  5
38F
  8
0
  6
HCS_01
 62
     7
 10
6.334242820739746
 20
13.61375904083252
 30
0.0099999997764826
 70
   192
  0
VERTEX
  5
390
  8
0
  6
HCS_01
 62
     7
 10
6.311732769012451
 20
13.41662406921387
 30
0.0099999997764826
 70
   192
  0
VERTEX
  5
391
  8
0
  6
HCS_01
 62
     7
 10
6.334242820739746
 20
13.61375904083252
 30
0.0099999997764826
 70
   192
  0
VERTEX
  5
392
  8
0
  6
HCS_01
 62
     7
 10
5.998636245727539
 20
12.96573734283447
 30
0.0099999997764826
 70
   192
  0
VERTEX
  5
393
  8
0
  6
HCS_01
 62
     7
 10
6.334242820739746
 20
13.61375904083252
 30
0.0099999997764826
 70
   192
  0
VERTEX
  5
394
  8
0
  6
HCS_01
 62
     7
 10
6.311732769012451
 20
13.41662406921387
 30
0.0099999997764826
 70
   192
  0
VERTEX
  5
395
  8
0
  6
HCS_01
 62
     7
 10
6.434515953063965
 20
12.61375904083252
 30
0.0099999997764826
 70
   192
  0
VERTEX
  5
396
  8
0
  6
HCS_01
 62
     7
 10
6.311732769012451
 20
12.96573734283447
 30
0.0099999997764826
 70
   192
  0
VERTEX
  5
397
  8
0
  6
HCS_01
 62
     7
 10
6.434515953063965
 20
12.61375904083252
 30
0.0099999997764826
 70
   192
  0
VERTEX
  5
398
  8
0
  6
HCS_01
 62
     7
 10
6.311732769012451
 20
13.41662406921387
 30
0.0099999997764826
 70
   192
  0
VERTEX
  5
399
  8
0
  6
HCS_01
 62
     7
 10
6.434515953063965
 20
12.61375904083252
 30
0.0099999997764826
 70
   192
  0
VERTEX
  5
39A
  8
0
  6
HCS_01
 62
     7
 10
6.311732769012451
 20
12.96573734283447
 30
0.0099999997764826
 70
   192
  0
VERTEX
  5
39B
  8
0
  6
HCS_01
 62
     7
 10
6.311732769012451
 20
12.85318565368652
 30
0.0099999997764826
 70
   192
  0
VERTEX
  5
39C
  8
0
  6
HCS_01
 62
     7
 10
5.998636245727539
 20
12.96573734283447
 30
0.0099999997764826
 70
   192
  0
VERTEX
  5
39D
  8
0
  6
HCS_01
 62
     7
 10
6.311732769012451
 20
12.85318565368652
 30
0.0099999997764826
 70
   192
  0
VERTEX
  5
39E
  8
0
  6
HCS_01
 62
     7
 10
6.311732769012451
 20
12.96573734283447
 30
0.0099999997764826
 70
   192
  0
VERTEX
  5
39F
  8
0
  6
HCS_01
 62
     7
 10
6.334242820739746
 20
13.61375904083252
 30
0.0099999997764826
 70
   192
  0
VERTEX
  5
3A0
  8
0
  6
HCS_01
 62
     7
 10
6.434515953063965
 20
12.61375904083252
 30
0.0099999997764826
 70
   192
  0
VERTEX
  5
3A1
  8
0
  6
HCS_01
 62
     7
 10
6.434515953063965
 20
13.61375904083252
 30
0.0099999997764826
 70
   192
  0
VERTEX
  5
3A2
  8
0
  6
HCS_01
 62
     7
 10
6.434515953063965
 20
12.85318565368652
 30
0.0099999997764826
 70
   192
  0
VERTEX
  5
3A3
  8
0
  6
HCS_01
 62
     7
 10
6.434515953063965
 20
13.61375904083252
 30
0.0099999997764826
 70
   192
  0
VERTEX
  5
3A4
  8
0
  6
HCS_01
 62
     7
 10
6.434515953063965
 20
12.61375904083252
 30
0.0099999997764826
 70
   192
  0
VERTEX
  5
3A5
  8
0
  6
HCS_01
 62
     7
 10
6.434515953063965
 20
12.96573734283447
 30
0.0099999997764826
 70
   192
  0
VERTEX
  5
3A6
  8
0
  6
HCS_01
 62
     7
 10
6.434515953063965
 20
12.85318565368652
 30
0.0099999997764826
 70
   192
  0
VERTEX
  5
3A7
  8
0
  6
HCS_01
 62
     7
 10
6.434515953063965
 20
13.61375904083252
 30
0.0099999997764826
 70
   192
  0
VERTEX
  5
3A8
  8
0
  6
HCS_01
 62
     7
 10
6.569577217102051
 20
12.85318565368652
 30
0.0099999997764826
 70
   192
  0
VERTEX
  5
3A9
  8
0
  6
HCS_01
 62
     7
 10
6.434515953063965
 20
12.96573734283447
 30
0.0099999997764826
 70
   192
  0
VERTEX
  5
3AA
  8
0
  6
HCS_01
 62
     7
 10
6.434515953063965
 20
12.85318565368652
 30
0.0099999997764826
 70
   192
  0
VERTEX
  5
3AB
  8
0
  6
HCS_01
 62
     7
 10
6.434515953063965
 20
12.96573734283447
 30
0.0099999997764826
 70
   192
  0
VERTEX
  5
3AC
  8
0
  6
HCS_01
 62
     7
 10
6.569577217102051
 20
12.85318565368652
 30
0.0099999997764826
 70
   192
  0
VERTEX
  5
3AD
  8
0
  6
HCS_01
 62
     7
 10
6.569577217102051
 20
12.96573734283447
 30
0.0099999997764826
 70
   192
  0
VERTEX
  5
3AE
  8
0
  6
HCS_01
 62
     7
 10
6.434515953063965
 20
12.61375904083252
 30
0.0099999997764826
 70
   192
  0
VERTEX
  5
3AF
  8
0
  6
HCS_01
 62
     7
 10
6.311732769012451
 20
12.85318565368652
 30
0.0099999997764826
 70
   192
  0
VERTEX
  5
3B0
  8
0
  6
HCS_01
 62
     7
 10
6.311732769012451
 20
12.61375904083252
 30
0.0099999997764826
 70
   192
  0
VERTEX
  5
3B1
  8
0
  6
HCS_01
 62
     7
 10
6.763983726501465
 20
12.61375904083252
 30
0.0099999997764826
 70
   192
  0
VERTEX
  5
3B2
  8
0
  6
HCS_01
 62
     7
 10
6.903820037841797
 20
12.61375904083252
 30
0.0099999997764826
 70
   192
  0
VERTEX
  5
3B3
  8
0
  6
HCS_01
 62
     7
 10
6.903820037841797
 20
12.75359535217285
 30
0.0099999997764826
 70
   192
  0
VERTEX
  5
3B4
  8
0
  6
HCS_01
 62
     7
 10
6.763983726501465
 20
12.61375904083252
 30
0.0099999997764826
 70
   192
  0
VERTEX
  5
3B5
  8
0
  6
HCS_01
 62
     7
 10
6.903820037841797
 20
12.75359535217285
 30
0.0099999997764826
 70
   192
  0
VERTEX
  5
3B6
  8
0
  6
HCS_01
 62
     7
 10
6.763983726501465
 20
12.75359535217285
 30
0.0099999997764826
 70
   192
  0
VERTEX
  5
3B7
  8
0
  6
HCS_01
 62
     7
 10
7.69918155670166
 20
13.48278999328613
 30
0.0099999997764826
 70
   192
  0
VERTEX
  5
3B8
  8
0
  6
HCS_01
 62
     7
 10
7.69918155670166
 20
13.60011672973633
 30
0.0099999997764826
 70
   192
  0
VERTEX
  5
3B9
  8
0
  6
HCS_01
 62
     7
 10
7.300136566162109
 20
13.48278999328613
 30
0.0099999997764826
 70
   192
  0
VERTEX
  5
3BA
  8
0
  6
HCS_01
 62
     7
 10
7.201910018920898
 20
13.60011672973633
 30
0.0099999997764826
 70
   192
  0
VERTEX
  5
3BB
  8
0
  6
HCS_01
 62
     7
 10
7.300136566162109
 20
13.48278999328613
 30
0.0099999997764826
 70
   192
  0
VERTEX
  5
3BC
  8
0
  6
HCS_01
 62
     7
 10
7.69918155670166
 20
13.60011672973633
 30
0.0099999997764826
 70
   192
  0
VERTEX
  5
3BD
  8
0
  6
HCS_01
 62
     7
 10
7.300136566162109
 20
13.48278999328613
 30
0.0099999997764826
 70
   192
  0
VERTEX
  5
3BE
  8
0
  6
HCS_01
 62
     7
 10
7.201910018920898
 20
13.60011672973633
 30
0.0099999997764826
 70
   192
  0
VERTEX
  5
3BF
  8
0
  6
HCS_01
 62
     7
 10
7.246248245239258
 20
13.21403217315674
 30
0.0099999997764826
 70
   192
  0
VERTEX
  5
3C0
  8
0
  6
HCS_01
 62
     7
 10
7.220327377319336
 20
13.07146739959717
 30
0.0099999997764826
 70
   192
  0
VERTEX
  5
3C1
  8
0
  6
HCS_01
 62
     7
 10
7.246248245239258
 20
13.21403217315674
 30
0.0099999997764826
 70
   192
  0
VERTEX
  5
3C2
  8
0
  6
HCS_01
 62
     7
 10
7.201910018920898
 20
13.60011672973633
 30
0.0099999997764826
 70
   192
  0
VERTEX
  5
3C3
  8
0
  6
HCS_01
 62
     7
 10
7.246248245239258
 20
13.21403217315674
 30
0.0099999997764826
 70
   192
  0
VERTEX
  5
3C4
  8
0
  6
HCS_01
 62
     7
 10
7.220327377319336
 20
13.07146739959717
 30
0.0099999997764826
 70
   192
  0
VERTEX
  5
3C5
  8
0
  6
HCS_01
 62
     7
 10
7.252728462219238
 20
13.11043357849121
 30
0.0099999997764826
 70
   192
  0
VERTEX
  5
3C6
  8
0
  6
HCS_01
 62
     7
 10
7.346009731292725
 20
13.16159343719482
 30
0.0099999997764826
 70
   192
  0
VERTEX
  5
3C7
  8
0
  6
HCS_01
 62
     7
 10
7.402455806732178
 20
13.1683292388916
 30
0.0099999997764826
 70
   192
  0
VERTEX
  5
3C8
  8
0
  6
HCS_01
 62
     7
 10
7.435197830200195
 20
13.27678775787354
 30
0.0099999997764826
 70
   192
  0
VERTEX
  5
3C9
  8
0
  6
HCS_01
 62
     7
 10
7.48883056640625
 20
13.153151512146
 30
0.0099999997764826
 70
   192
  0
VERTEX
  5
3CA
  8
0
  6
HCS_01
 62
     7
 10
7.435197830200195
 20
13.27678775787354
 30
0.0099999997764826
 70
   192
  0
VERTEX
  5
3CB
  8
0
  6
HCS_01
 62
     7
 10
7.402455806732178
 20
13.1683292388916
 30
0.0099999997764826
 70
   192
  0
VERTEX
  5
3CC
  8
0
  6
HCS_01
 62
     7
 10
7.435197830200195
 20
13.27678775787354
 30
0.0099999997764826
 70
   192
  0
VERTEX
  5
3CD
  8
0
  6
HCS_01
 62
     7
 10
7.48883056640625
 20
13.153151512146
 30
0.0099999997764826
 70
   192
  0
VERTEX
  5
3CE
  8
0
  6
HCS_01
 62
     7
 10
7.555934906005859
 20
13.25410652160645
 30
0.0099999997764826
 70
   192
  0
VERTEX
  5
3CF
  8
0
  6
HCS_01
 62
     7
 10
7.556958198547363
 20
13.10762023925781
 30
0.0099999997764826
 70
   192
  0
VERTEX
  5
3D0
  8
0
  6
HCS_01
 62
     7
 10
7.555934906005859
 20
13.25410652160645
 30
0.0099999997764826
 70
   192
  0
VERTEX
  5
3D1
  8
0
  6
HCS_01
 62
     7
 10
7.48883056640625
 20
13.153151512146
 30
0.0099999997764826
 70
   192
  0
VERTEX
  5
3D2
  8
0
  6
HCS_01
 62
     7
 10
7.555934906005859
 20
13.25410652160645
 30
0.0099999997764826
 70
   192
  0
VERTEX
  5
3D3
  8
0
  6
HCS_01
 62
     7
 10
7.556958198547363
 20
13.10762023925781
 30
0.0099999997764826
 70
   192
  0
VERTEX
  5
3D4
  8
0
  6
HCS_01
 62
     7
 10
7.65620756149292
 20
13.18606472015381
 30
0.0099999997764826
 70
   192
  0
VERTEX
  5
3D5
  8
0
  6
HCS_01
 62
     7
 10
7.601211071014404
 20
13.03582572937012
 30
0.0099999997764826
 70
   192
  0
VERTEX
  5
3D6
  8
0
  6
HCS_01
 62
     7
 10
7.65620756149292
 20
13.18606472015381
 30
0.0099999997764826
 70
   192
  0
VERTEX
  5
3D7
  8
0
  6
HCS_01
 62
     7
 10
7.556958198547363
 20
13.10762023925781
 30
0.0099999997764826
 70
   192
  0
VERTEX
  5
3D8
  8
0
  6
HCS_01
 62
     7
 10
7.65620756149292
 20
13.18606472015381
 30
0.0099999997764826
 70
   192
  0
VERTEX
  5
3D9
  8
0
  6
HCS_01
 62
     7
 10
7.601211071014404
 20
13.03582572937012
 30
0.0099999997764826
 70
   192
  0
VERTEX
  5
3DA
  8
0
  6
HCS_01
 62
     7
 10
7.615962028503418
 20
12.94186305999756
 30
0.0099999997764826
 70
   192
  0
VERTEX
  5
3DB
  8
0
  6
HCS_01
 62
     7
 10
7.338506698608398
 20
13.26109886169434
 30
0.0099999997764826
 70
   192
  0
VERTEX
  5
3DC
  8
0
  6
HCS_01
 62
     7
 10
7.246248245239258
 20
13.21403217315674
 30
0.0099999997764826
 70
   192
  0
VERTEX
  5
3DD
  8
0
  6
HCS_01
 62
     7
 10
7.252728462219238
 20
13.11043357849121
 30
0.0099999997764826
 70
   192
  0
VERTEX
  5
3DE
  8
0
  6
HCS_01
 62
     7
 10
7.338506698608398
 20
13.26109886169434
 30
0.0099999997764826
 70
   192
  0
VERTEX
  5
3DF
  8
0
  6
HCS_01
 62
     7
 10
7.252728462219238
 20
13.11043357849121
 30
0.0099999997764826
 70
   192
  0
VERTEX
  5
3E0
  8
0
  6
HCS_01
 62
     7
 10
7.295361518859863
 20
13.14138507843018
 30
0.0099999997764826
 70
   192
  0
VERTEX
  5
3E1
  8
0
  6
HCS_01
 62
     7
 10
7.338506698608398
 20
13.26109886169434
 30
0.0099999997764826
 70
   192
  0
VERTEX
  5
3E2
  8
0
  6
HCS_01
 62
     7
 10
7.295361518859863
 20
13.14138507843018
 30
0.0099999997764826
 70
   192
  0
VERTEX
  5
3E3
  8
0
  6
HCS_01
 62
     7
 10
7.346009731292725
 20
13.16159343719482
 30
0.0099999997764826
 70
   192
  0
VERTEX
  5
3E4
  8
0
  6
HCS_01
 62
     7
 10
7.338506698608398
 20
13.26109886169434
 30
0.0099999997764826
 70
   192
  0
VERTEX
  5
3E5
  8
0
  6
HCS_01
 62
     7
 10
7.346009731292725
 20
13.16159343719482
 30
0.0099999997764826
 70
   192
  0
VERTEX
  5
3E6
  8
0
  6
HCS_01
 62
     7
 10
7.435197830200195
 20
13.27678775787354
 30
0.0099999997764826
 70
   192
  0
VERTEX
  5
3E7
  8
0
  6
HCS_01
 62
     7
 10
7.723738193511963
 20
13.08238124847412
 30
0.0099999997764826
 70
   192
  0
VERTEX
  5
3E8
  8
0
  6
HCS_01
 62
     7
 10
7.65620756149292
 20
13.18606472015381
 30
0.0099999997764826
 70
   192
  0
VERTEX
  5
3E9
  8
0
  6
HCS_01
 62
     7
 10
7.667121887207031
 20
12.71812438964844
 30
0.0099999997764826
 70
   192
  0
VERTEX
  5
3EA
  8
0
  6
HCS_01
 62
     7
 10
7.723738193511963
 20
13.08238124847412
 30
0.0099999997764826
 70
   192
  0
VERTEX
  5
3EB
  8
0
  6
HCS_01
 62
     7
 10
7.667121887207031
 20
12.71812438964844
 30
0.0099999997764826
 70
   192
  0
VERTEX
  5
3EC
  8
0
  6
HCS_01
 62
     7
 10
7.726466655731201
 20
12.82624244689941
 30
0.0099999997764826
 70
   192
  0
VERTEX
  5
3ED
  8
0
  6
HCS_01
 62
     7
 10
7.723738193511963
 20
13.08238124847412
 30
0.0099999997764826
 70
   192
  0
VERTEX
  5
3EE
  8
0
  6
HCS_01
 62
     7
 10
7.726466655731201
 20
12.82624244689941
 30
0.0099999997764826
 70
   192
  0
VERTEX
  5
3EF
  8
0
  6
HCS_01
 62
     7
 10
7.746248722076416
 20
12.95277690887451
 30
0.0099999997764826
 70
   192
  0
VERTEX
  5
3F0
  8
0
  6
HCS_01
 62
     7
 10
7.667121887207031
 20
12.71812438964844
 30
0.0099999997764826
 70
   192
  0
VERTEX
  5
3F1
  8
0
  6
HCS_01
 62
     7
 10
7.65620756149292
 20
13.18606472015381
 30
0.0099999997764826
 70
   192
  0
VERTEX
  5
3F2
  8
0
  6
HCS_01
 62
     7
 10
7.615962028503418
 20
12.94186305999756
 30
0.0099999997764826
 70
   192
  0
VERTEX
  5
3F3
  8
0
  6
HCS_01
 62
     7
 10
7.667121887207031
 20
12.71812438964844
 30
0.0099999997764826
 70
   192
  0
VERTEX
  5
3F4
  8
0
  6
HCS_01
 62
     7
 10
7.615962028503418
 20
12.94186305999756
 30
0.0099999997764826
 70
   192
  0
VERTEX
  5
3F5
  8
0
  6
HCS_01
 62
     7
 10
7.600614070892334
 20
12.84227180480957
 30
0.0099999997764826
 70
   192
  0
VERTEX
  5
3F6
  8
0
  6
HCS_01
 62
     7
 10
7.667121887207031
 20
12.71812438964844
 30
0.0099999997764826
 70
   192
  0
VERTEX
  5
3F7
  8
0
  6
HCS_01
 62
     7
 10
7.600614070892334
 20
12.84227180480957
 30
0.0099999997764826
 70
   192
  0
VERTEX
  5
3F8
  8
0
  6
HCS_01
 62
     7
 10
7.554570198059082
 20
12.7645092010498
 30
0.0099999997764826
 70
   192
  0
VERTEX
  5
3F9
  8
0
  6
HCS_01
 62
     7
 10
7.667121887207031
 20
12.71812438964844
 30
0.0099999997764826
 70
   192
  0
VERTEX
  5
3FA
  8
0
  6
HCS_01
 62
     7
 10
7.554570198059082
 20
12.7645092010498
 30
0.0099999997764826
 70
   192
  0
VERTEX
  5
3FB
  8
0
  6
HCS_01
 62
     7
 10
7.5533766746521
 20
12.62706089019775
 30
0.0099999997764826
 70
   192
  0
VERTEX
  5
3FC
  8
0
  6
HCS_01
 62
     7
 10
7.554570198059082
 20
12.7645092010498
 30
0.0099999997764826
 70
   192
  0
VERTEX
  5
3FD
  8
0
  6
HCS_01
 62
     7
 10
7.486357688903809
 20
12.7143726348877
 30
0.0099999997764826
 70
   192
  0
VERTEX
  5
3FE
  8
0
  6
HCS_01
 62
     7
 10
7.5533766746521
 20
12.62706089019775
 30
0.0099999997764826
 70
   192
  0
VERTEX
  5
3FF
  8
0
  6
HCS_01
 62
     7
 10
7.404502391815186
 20
12.69766044616699
 30
0.0099999997764826
 70
   192
  0
VERTEX
  5
400
  8
0
  6
HCS_01
 62
     7
 10
7.5533766746521
 20
12.62706089019775
 30
0.0099999997764826
 70
   192
  0
VERTEX
  5
401
  8
0
  6
HCS_01
 62
     7
 10
7.486357688903809
 20
12.7143726348877
 30
0.0099999997764826
 70
   192
  0
VERTEX
  5
402
  8
0
  6
HCS_01
 62
     7
 10
7.5533766746521
 20
12.62706089019775
 30
0.0099999997764826
 70
   192
  0
VERTEX
  5
403
  8
0
  6
HCS_01
 62
     7
 10
7.404502391815186
 20
12.69766044616699
 30
0.0099999997764826
 70
   192
  0
VERTEX
  5
404
  8
0
  6
HCS_01
 62
     7
 10
7.404502391815186
 20
12.59670543670654
 30
0.0099999997764826
 70
   192
  0
VERTEX
  5
405
  8
0
  6
HCS_01
 62
     7
 10
7.336204528808594
 20
12.70951271057129
 30
0.0099999997764826
 70
   192
  0
VERTEX
  5
406
  8
0
  6
HCS_01
 62
     7
 10
7.404502391815186
 20
12.59670543670654
 30
0.0099999997764826
 70
   192
  0
VERTEX
  5
407
  8
0
  6
HCS_01
 62
     7
 10
7.404502391815186
 20
12.69766044616699
 30
0.0099999997764826
 70
   192
  0
VERTEX
  5
408
  8
0
  6
HCS_01
 62
     7
 10
7.404502391815186
 20
12.59670543670654
 30
0.0099999997764826
 70
   192
  0
VERTEX
  5
409
  8
0
  6
HCS_01
 62
     7
 10
7.336204528808594
 20
12.70951271057129
 30
0.0099999997764826
 70
   192
  0
VERTEX
  5
40A
  8
0
  6
HCS_01
 62
     7
 10
7.280611038208008
 20
12.61580562591553
 30
0.0099999997764826
 70
   192
  0
VERTEX
  5
40B
  8
0
  6
HCS_01
 62
     7
 10
7.27864933013916
 20
12.74506855010986
 30
0.0099999997764826
 70
   192
  0
VERTEX
  5
40C
  8
0
  6
HCS_01
 62
     7
 10
7.280611038208008
 20
12.61580562591553
 30
0.0099999997764826
 70
   192
  0
VERTEX
  5
40D
  8
0
  6
HCS_01
 62
     7
 10
7.336204528808594
 20
12.70951271057129
 30
0.0099999997764826
 70
   192
  0
VERTEX
  5
40E
  8
0
  6
HCS_01
 62
     7
 10
7.280611038208008
 20
12.61580562591553
 30
0.0099999997764826
 70
   192
  0
VERTEX
  5
40F
  8
0
  6
HCS_01
 62
     7
 10
7.27864933013916
 20
12.74506855010986
 30
0.0099999997764826
 70
   192
  0
VERTEX
  5
410
  8
0
  6
HCS_01
 62
     7
 10
7.235931396484375
 20
12.80415821075439
 30
0.0099999997764826
 70
   192
  0
VERTEX
  5
411
  8
0
  6
HCS_01
 62
     7
 10
7.212141990661621
 20
12.88661003112793
 30
0.0099999997764826
 70
   192
  0
VERTEX
  5
412
  8
0
  6
HCS_01
 62
     7
 10
7.0832200050354
 20
12.87569618225098
 30
0.0099999997764826
 70
   192
  0
VERTEX
  5
413
  8
0
  6
HCS_01
 62
     7
 10
7.114001274108887
 20
12.7619514465332
 30
0.0099999997764826
 70
   192
  0
VERTEX
  5
414
  8
0
  6
HCS_01
 62
     7
 10
7.212141990661621
 20
12.88661003112793
 30
0.0099999997764826
 70
   192
  0
VERTEX
  5
415
  8
0
  6
HCS_01
 62
     7
 10
7.114001274108887
 20
12.7619514465332
 30
0.0099999997764826
 70
   192
  0
VERTEX
  5
416
  8
0
  6
HCS_01
 62
     7
 10
7.181787490844727
 20
12.67310428619385
 30
0.0099999997764826
 70
   192
  0
VERTEX
  5
417
  8
0
  6
HCS_01
 62
     7
 10
7.212141990661621
 20
12.88661003112793
 30
0.0099999997764826
 70
   192
  0
VERTEX
  5
418
  8
0
  6
HCS_01
 62
     7
 10
7.181787490844727
 20
12.67310428619385
 30
0.0099999997764826
 70
   192
  0
VERTEX
  5
419
  8
0
  6
HCS_01
 62
     7
 10
7.280611038208008
 20
12.61580562591553
 30
0.0099999997764826
 70
   192
  0
VERTEX
  5
41A
  8
0
  6
HCS_01
 62
     7
 10
7.212141990661621
 20
12.88661003112793
 30
0.0099999997764826
 70
   192
  0
VERTEX
  5
41B
  8
0
  6
HCS_01
 62
     7
 10
7.280611038208008
 20
12.61580562591553
 30
0.0099999997764826
 70
   192
  0
VERTEX
  5
41C
  8
0
  6
HCS_01
 62
     7
 10
7.235931396484375
 20
12.80415821075439
 30
0.0099999997764826
 70
   192
  0
VERTEX
  5
41D
  8
0
  6
HCS_01
 62
     7
 10
7.220327377319336
 20
13.07146739959717
 30
0.0099999997764826
 70
   192
  0
VERTEX
  5
41E
  8
0
  6
HCS_01
 62
     7
 10
7.201910018920898
 20
13.60011672973633
 30
0.0099999997764826
 70
   192
  0
VERTEX
  5
41F
  8
0
  6
HCS_01
 62
     7
 10
7.105048179626465
 20
13.08647346496582
 30
0.0099999997764826
 70
   192
  0
VERTEX
  5
420
  8
0
  6
HCS_01
 62
     7
 10
8.51227855682373
 20
13.10693740844727
 30
0.0099999997764826
 70
   192
  0
VERTEX
  5
421
  8
0
  6
HCS_01
 62
     7
 10
8.506650924682617
 20
13.24037933349609
 30
0.0099999997764826
 70
   192
  0
VERTEX
  5
422
  8
0
  6
HCS_01
 62
     7
 10
8.503240585327148
 20
12.94791698455811
 30
0.0099999997764826
 70
   192
  0
VERTEX
  5
423
  8
0
  6
HCS_01
 62
     7
 10
8.489768981933594
 20
13.34329509735107
 30
0.0099999997764826
 70
   192
  0
VERTEX
  5
424
  8
0
  6
HCS_01
 62
     7
 10
8.503240585327148
 20
12.94791698455811
 30
0.0099999997764826
 70
   192
  0
VERTEX
  5
425
  8
0
  6
HCS_01
 62
     7
 10
8.506650924682617
 20
13.24037933349609
 30
0.0099999997764826
 70
   192
  0
VERTEX
  5
426
  8
0
  6
HCS_01
 62
     7
 10
8.503240585327148
 20
12.94791698455811
 30
0.0099999997764826
 70
   192
  0
VERTEX
  5
427
  8
0
  6
HCS_01
 62
     7
 10
8.489768981933594
 20
13.34329509735107
 30
0.0099999997764826
 70
   192
  0
VERTEX
  5
428
  8
0
  6
HCS_01
 62
     7
 10
8.476125717163086
 20
12.82283115386963
 30
0.0099999997764826
 70
   192
  0
VERTEX
  5
429
  8
0
  6
HCS_01
 62
     7
 10
8.462995529174805
 20
13.42429828643799
 30
0.0099999997764826
 70
   192
  0
VERTEX
  5
42A
  8
0
  6
HCS_01
 62
     7
 10
8.476125717163086
 20
12.82283115386963
 30
0.0099999997764826
 70
   192
  0
VERTEX
  5
42B
  8
0
  6
HCS_01
 62
     7
 10
8.489768981933594
 20
13.34329509735107
 30
0.0099999997764826
 70
   192
  0
VERTEX
  5
42C
  8
0
  6
HCS_01
 62
     7
 10
8.476125717163086
 20
12.82283115386963
 30
0.0099999997764826
 70
   192
  0
VERTEX
  5
42D
  8
0
  6
HCS_01
 62
     7
 10
8.462995529174805
 20
13.42429828643799
 30
0.0099999997764826
 70
   192
  0
VERTEX
  5
42E
  8
0
  6
HCS_01
 62
     7
 10
8.431020736694336
 20
12.7269926071167
 30
0.0099999997764826
 70
   192
  0
VERTEX
  5
42F
  8
0
  6
HCS_01
 62
     7
 10
8.427694320678711
 20
13.49199867248535
 30
0.0099999997764826
 70
   192
  0
VERTEX
  5
430
  8
0
  6
HCS_01
 62
     7
 10
8.431020736694336
 20
12.7269926071167
 30
0.0099999997764826
 70
   192
  0
VERTEX
  5
431
  8
0
  6
HCS_01
 62
     7
 10
8.462995529174805
 20
13.42429828643799
 30
0.0099999997764826
 70
   192
  0
VERTEX
  5
432
  8
0
  6
HCS_01
 62
     7
 10
8.431020736694336
 20
12.7269926071167
 30
0.0099999997764826
 70
   192
  0
VERTEX
  5
433
  8
0
  6
HCS_01
 62
     7
 10
8.427694320678711
 20
13.49199867248535
 30
0.0099999997764826
 70
   192
  0
VERTEX
  5
434
  8
0
  6
HCS_01
 62
     7
 10
8.386085510253906
 20
13.10693740844727
 30
0.0099999997764826
 70
   192
  0
VERTEX
  5
435
  8
0
  6
HCS_01
 62
     7
 10
8.382844924926758
 20
13.5458869934082
 30
0.0099999997764826
 70
   192
  0
VERTEX
  5
436
  8
0
  6
HCS_01
 62
     7
 10
8.386085510253906
 20
13.10693740844727
 30
0.0099999997764826
 70
   192
  0
VERTEX
  5
437
  8
0
  6
HCS_01
 62
     7
 10
8.427694320678711
 20
13.49199867248535
 30
0.0099999997764826
 70
   192
  0
VERTEX
  5
438
  8
0
  6
HCS_01
 62
     7
 10
8.386085510253906
 20
13.10693740844727
 30
0.0099999997764826
 70
   192
  0
VERTEX
  5
439
  8
0
  6
HCS_01
 62
     7
 10
8.382844924926758
 20
13.5458869934082
 30
0.0099999997764826
 70
   192
  0
VERTEX
  5
43A
  8
0
  6
HCS_01
 62
     7
 10
8.371675491333008
 20
13.31242847442627
 30
0.0099999997764826
 70
   192
  0
VERTEX
  5
43B
  8
0
  6
HCS_01
 62
     7
 10
8.328445434570312
 20
13.4350414276123
 30
0.0099999997764826
 70
   192
  0
VERTEX
  5
43C
  8
0
  6
HCS_01
 62
     7
 10
8.371675491333008
 20
13.31242847442627
 30
0.0099999997764826
 70
   192
  0
VERTEX
  5
43D
  8
0
  6
HCS_01
 62
     7
 10
8.382844924926758
 20
13.5458869934082
 30
0.0099999997764826
 70
   192
  0
VERTEX
  5
43E
  8
0
  6
HCS_01
 62
     7
 10
8.327421188354492
 20
13.58545112609863
 30
0.0099999997764826
 70
   192
  0
VERTEX
  5
43F
  8
0
  6
HCS_01
 62
     7
 10
8.26176643371582
 20
13.60975170135498
 30
0.0099999997764826
 70
   192
  0
VERTEX
  5
440
  8
0
  6
HCS_01
 62
     7
 10
8.263728141784668
 20
13.49592113494873
 30
0.0099999997764826
 70
   192
  0
VERTEX
  5
441
  8
0
  6
HCS_01
 62
     7
 10
8.327421188354492
 20
13.58545112609863
 30
0.0099999997764826
 70
   192
  0
VERTEX
  5
442
  8
0
  6
HCS_01
 62
     7
 10
8.263728141784668
 20
13.49592113494873
 30
0.0099999997764826
 70
   192
  0
VERTEX
  5
443
  8
0
  6
HCS_01
 62
     7
 10
8.328445434570312
 20
13.4350414276123
 30
0.0099999997764826
 70
   192
  0
VERTEX
  5
444
  8
0
  6
HCS_01
 62
     7
 10
8.327421188354492
 20
13.58545112609863
 30
0.0099999997764826
 70
   192
  0
VERTEX
  5
445
  8
0
  6
HCS_01
 62
     7
 10
8.328445434570312
 20
13.4350414276123
 30
0.0099999997764826
 70
   192
  0
VERTEX
  5
446
  8
0
  6
HCS_01
 62
     7
 10
8.382844924926758
 20
13.5458869934082
 30
0.0099999997764826
 70
   192
  0
VERTEX
  5
447
  8
0
  6
HCS_01
 62
     7
 10
8.1862211227417
 20
13.61785221099854
 30
0.0099999997764826
 70
   192
  0
VERTEX
  5
448
  8
0
  6
HCS_01
 62
     7
 10
8.086374282836914
 20
13.60318565368652
 30
0.0099999997764826
 70
   192
  0
VERTEX
  5
449
  8
0
  6
HCS_01
 62
     7
 10
8.108799934387207
 20
13.49830913543701
 30
0.0099999997764826
 70
   192
  0
VERTEX
  5
44A
  8
0
  6
HCS_01
 62
     7
 10
8.1862211227417
 20
13.61785221099854
 30
0.0099999997764826
 70
   192
  0
VERTEX
  5
44B
  8
0
  6
HCS_01
 62
     7
 10
8.108799934387207
 20
13.49830913543701
 30
0.0099999997764826
 70
   192
  0
VERTEX
  5
44C
  8
0
  6
HCS_01
 62
     7
 10
8.184856414794922
 20
13.51621437072754
 30
0.0099999997764826
 70
   192
  0
VERTEX
  5
44D
  8
0
  6
HCS_01
 62
     7
 10
8.1862211227417
 20
13.61785221099854
 30
0.0099999997764826
 70
   192
  0
VERTEX
  5
44E
  8
0
  6
HCS_01
 62
     7
 10
8.184856414794922
 20
13.51621437072754
 30
0.0099999997764826
 70
   192
  0
VERTEX
  5
44F
  8
0
  6
HCS_01
 62
     7
 10
8.263728141784668
 20
13.49592113494873
 30
0.0099999997764826
 70
   192
  0
VERTEX
  5
450
  8
0
  6
HCS_01
 62
     7
 10
8.1862211227417
 20
13.61785221099854
 30
0.0099999997764826
 70
   192
  0
VERTEX
  5
451
  8
0
  6
HCS_01
 62
     7
 10
8.263728141784668
 20
13.49592113494873
 30
0.0099999997764826
 70
   192
  0
VERTEX
  5
452
  8
0
  6
HCS_01
 62
     7
 10
8.26176643371582
 20
13.60975170135498
 30
0.0099999997764826
 70
   192
  0
VERTEX
  5
453
  8
0
  6
HCS_01
 62
     7
 10
7.986357688903809
 20
13.10693740844727
 30
0.0099999997764826
 70
   192
  0
VERTEX
  5
454
  8
0
  6
HCS_01
 62
     7
 10
8.002217292785645
 20
13.31447505950928
 30
0.0099999997764826
 70
   192
  0
VERTEX
  5
455
  8
0
  6
HCS_01
 62
     7
 10
8.00511646270752
 20
13.55918884277344
 30
0.0099999997764826
 70
   192
  0
VERTEX
  5
456
  8
0
  6
HCS_01
 62
     7
 10
8.049795150756836
 20
13.4445915222168
 30
0.0099999997764826
 70
   192
  0
VERTEX
  5
457
  8
0
  6
HCS_01
 62
     7
 10
8.00511646270752
 20
13.55918884277344
 30
0.0099999997764826
 70
   192
  0
VERTEX
  5
458
  8
0
  6
HCS_01
 62
     7
 10
8.002217292785645
 20
13.31447505950928
 30
0.0099999997764826
 70
   192
  0
VERTEX
  5
459
  8
0
  6
HCS_01
 62
     7
 10
8.00511646270752
 20
13.55918884277344
 30
0.0099999997764826
 70
   192
  0
VERTEX
  5
45A
  8
0
  6
HCS_01
 62
     7
 10
8.049795150756836
 20
13.4445915222168
 30
0.0099999997764826
 70
   192
  0
VERTEX
  5
45B
  8
0
  6
HCS_01
 62
     7
 10
8.086374282836914
 20
13.60318565368652
 30
0.0099999997764826
 70
   192
  0
VERTEX
  5
45C
  8
0
  6
HCS_01
 62
     7
 10
8.108799934387207
 20
13.49830913543701
 30
0.0099999997764826
 70
   192
  0
VERTEX
  5
45D
  8
0
  6
HCS_01
 62
     7
 10
8.086374282836914
 20
13.60318565368652
 30
0.0099999997764826
 70
   192
  0
VERTEX
  5
45E
  8
0
  6
HCS_01
 62
     7
 10
8.049795150756836
 20
13.4445915222168
 30
0.0099999997764826
 70
   192
  0
VERTEX
  5
45F
  8
0
  6
HCS_01
 62
     7
 10
7.959072589874268
 20
12.70038890838623
 30
0.0099999997764826
 70
   192
  0
VERTEX
  5
460
  8
0
  6
HCS_01
 62
     7
 10
8.05712890625
 20
12.62262630462646
 30
0.0099999997764826
 70
   192
  0
VERTEX
  5
461
  8
0
  6
HCS_01
 62
     7
 10
8.000767707824707
 20
12.9018726348877
 30
0.0099999997764826
 70
   192
  0
VERTEX
  5
462
  8
0
  6
HCS_01
 62
     7
 10
7.959072589874268
 20
12.70038890838623
 30
0.0099999997764826
 70
   192
  0
VERTEX
  5
463
  8
0
  6
HCS_01
 62
     7
 10
8.000767707824707
 20
12.9018726348877
 30
0.0099999997764826
 70
   192
  0
VERTEX
  5
464
  8
0
  6
HCS_01
 62
     7
 10
7.986357688903809
 20
13.10693740844727
 30
0.0099999997764826
 70
   192
  0
VERTEX
  5
465
  8
0
  6
HCS_01
 62
     7
 10
7.959072589874268
 20
12.70038890838623
 30
0.0099999997764826
 70
   192
  0
VERTEX
  5
466
  8
0
  6
HCS_01
 62
     7
 10
7.986357688903809
 20
13.10693740844727
 30
0.0099999997764826
 70
   192
  0
VERTEX
  5
467
  8
0
  6
HCS_01
 62
     7
 10
8.00511646270752
 20
13.55918884277344
 30
0.0099999997764826
 70
   192
  0
VERTEX
  5
468
  8
0
  6
HCS_01
 62
     7
 10
7.959072589874268
 20
12.70038890838623
 30
0.0099999997764826
 70
   192
  0
VERTEX
  5
469
  8
0
  6
HCS_01
 62
     7
 10
8.00511646270752
 20
13.55918884277344
 30
0.0099999997764826
 70
   192
  0
VERTEX
  5
46A
  8
0
  6
HCS_01
 62
     7
 10
7.942019462585449
 20
13.48816204071045
 30
0.0099999997764826
 70
   192
  0
VERTEX
  5
46B
  8
0
  6
HCS_01
 62
     7
 10
7.959072589874268
 20
12.70038890838623
 30
0.0099999997764826
 70
   192
  0
VERTEX
  5
46C
  8
0
  6
HCS_01
 62
     7
 10
7.942019462585449
 20
13.48816204071045
 30
0.0099999997764826
 70
   192
  0
VERTEX
  5
46D
  8
0
  6
HCS_01
 62
     7
 10
7.896657943725586
 20
13.39240837097168
 30
0.0099999997764826
 70
   192
  0
VERTEX
  5
46E
  8
0
  6
HCS_01
 62
     7
 10
7.959072589874268
 20
12.70038890838623
 30
0.0099999997764826
 70
   192
  0
VERTEX
  5
46F
  8
0
  6
HCS_01
 62
     7
 10
7.896657943725586
 20
13.39240837097168
 30
0.0099999997764826
 70
   192
  0
VERTEX
  5
470
  8
0
  6
HCS_01
 62
     7
 10
7.884891033172607
 20
12.86444091796875
 30
0.0099999997764826
 70
   192
  0
VERTEX
  5
471
  8
0
  6
HCS_01
 62
     7
 10
7.869287490844727
 20
13.26698207855225
 30
0.0099999997764826
 70
   192
  0
VERTEX
  5
472
  8
0
  6
HCS_01
 62
     7
 10
7.860164165496826
 20
13.10693740844727
 30
0.0099999997764826
 70
   192
  0
VERTEX
  5
473
  8
0
  6
HCS_01
 62
     7
 10
7.884891033172607
 20
12.86444091796875
 30
0.0099999997764826
 70
   192
  0
VERTEX
  5
474
  8
0
  6
HCS_01
 62
     7
 10
7.869287490844727
 20
13.26698207855225
 30
0.0099999997764826
 70
   192
  0
VERTEX
  5
475
  8
0
  6
HCS_01
 62
     7
 10
7.884891033172607
 20
12.86444091796875
 30
0.0099999997764826
 70
   192
  0
VERTEX
  5
476
  8
0
  6
HCS_01
 62
     7
 10
7.896657943725586
 20
13.39240837097168
 30
0.0099999997764826
 70
   192
  0
VERTEX
  5
477
  8
0
  6
HCS_01
 62
     7
 10
8.264068603515625
 20
12.71812438964844
 30
0.0099999997764826
 70
   192
  0
VERTEX
  5
478
  8
0
  6
HCS_01
 62
     7
 10
8.286579132080078
 20
12.61145687103271
 30
0.0099999997764826
 70
   192
  0
VERTEX
  5
479
  8
0
  6
HCS_01
 62
     7
 10
8.328445434570312
 20
12.77951622009277
 30
0.0099999997764826
 70
   192
  0
VERTEX
  5
47A
  8
0
  6
HCS_01
 62
     7
 10
8.368008613586426
 20
12.65571022033691
 30
0.0099999997764826
 70
   192
  0
VERTEX
  5
47B
  8
0
  6
HCS_01
 62
     7
 10
8.328445434570312
 20
12.77951622009277
 30
0.0099999997764826
 70
   192
  0
VERTEX
  5
47C
  8
0
  6
HCS_01
 62
     7
 10
8.286579132080078
 20
12.61145687103271
 30
0.0099999997764826
 70
   192
  0
VERTEX
  5
47D
  8
0
  6
HCS_01
 62
     7
 10
8.328445434570312
 20
12.77951622009277
 30
0.0099999997764826
 70
   192
  0
VERTEX
  5
47E
  8
0
  6
HCS_01
 62
     7
 10
8.368008613586426
 20
12.65571022033691
 30
0.0099999997764826
 70
   192
  0
VERTEX
  5
47F
  8
0
  6
HCS_01
 62
     7
 10
8.371675491333008
 20
12.90229892730713
 30
0.0099999997764826
 70
   192
  0
VERTEX
  5
480
  8
0
  6
HCS_01
 62
     7
 10
8.431020736694336
 20
12.7269926071167
 30
0.0099999997764826
 70
   192
  0
VERTEX
  5
481
  8
0
  6
HCS_01
 62
     7
 10
8.371675491333008
 20
12.90229892730713
 30
0.0099999997764826
 70
   192
  0
VERTEX
  5
482
  8
0
  6
HCS_01
 62
     7
 10
8.368008613586426
 20
12.65571022033691
 30
0.0099999997764826
 70
   192
  0
VERTEX
  5
483
  8
0
  6
HCS_01
 62
     7
 10
8.371675491333008
 20
12.90229892730713
 30
0.0099999997764826
 70
   192
  0
VERTEX
  5
484
  8
0
  6
HCS_01
 62
     7
 10
8.431020736694336
 20
12.7269926071167
 30
0.0099999997764826
 70
   192
  0
VERTEX
  5
485
  8
0
  6
HCS_01
 62
     7
 10
8.386085510253906
 20
13.10693740844727
 30
0.0099999997764826
 70
   192
  0
VERTEX
  5
486
  8
0
  6
HCS_01
 62
     7
 10
8.043997764587402
 20
12.7791748046875
 30
0.0099999997764826
 70
   192
  0
VERTEX
  5
487
  8
0
  6
HCS_01
 62
     7
 10
8.05712890625
 20
12.62262630462646
 30
0.0099999997764826
 70
   192
  0
VERTEX
  5
488
  8
0
  6
HCS_01
 62
     7
 10
8.108373641967773
 20
12.71803951263428
 30
0.0099999997764826
 70
   192
  0
VERTEX
  5
489
  8
0
  6
HCS_01
 62
     7
 10
8.1862211227417
 20
12.59670543670654
 30
0.0099999997764826
 70
   192
  0
VERTEX
  5
48A
  8
0
  6
HCS_01
 62
     7
 10
8.108373641967773
 20
12.71803951263428
 30
0.0099999997764826
 70
   192
  0
VERTEX
  5
48B
  8
0
  6
HCS_01
 62
     7
 10
8.05712890625
 20
12.62262630462646
 30
0.0099999997764826
 70
   192
  0
VERTEX
  5
48C
  8
0
  6
HCS_01
 62
     7
 10
8.108373641967773
 20
12.71803951263428
 30
0.0099999997764826
 70
   192
  0
VERTEX
  5
48D
  8
0
  6
HCS_01
 62
     7
 10
8.1862211227417
 20
12.59670543670654
 30
0.0099999997764826
 70
   192
  0
VERTEX
  5
48E
  8
0
  6
HCS_01
 62
     7
 10
8.1862211227417
 20
12.69766044616699
 30
0.0099999997764826
 70
   192
  0
VERTEX
  5
48F
  8
0
  6
HCS_01
 62
     7
 10
8.286579132080078
 20
12.61145687103271
 30
0.0099999997764826
 70
   192
  0
VERTEX
  5
490
  8
0
  6
HCS_01
 62
     7
 10
8.1862211227417
 20
12.69766044616699
 30
0.0099999997764826
 70
   192
  0
VERTEX
  5
491
  8
0
  6
HCS_01
 62
     7
 10
8.1862211227417
 20
12.59670543670654
 30
0.0099999997764826
 70
   192
  0
VERTEX
  5
492
  8
0
  6
HCS_01
 62
     7
 10
8.1862211227417
 20
12.69766044616699
 30
0.0099999997764826
 70
   192
  0
VERTEX
  5
493
  8
0
  6
HCS_01
 62
     7
 10
8.286579132080078
 20
12.61145687103271
 30
0.0099999997764826
 70
   192
  0
VERTEX
  5
494
  8
0
  6
HCS_01
 62
     7
 10
8.264068603515625
 20
12.71812438964844
 30
0.0099999997764826
 70
   192
  0
VERTEX
  5
495
  8
0
  6
HCS_01
 62
     7
 10
8.000767707824707
 20
12.9018726348877
 30
0.0099999997764826
 70
   192
  0
VERTEX
  5
496
  8
0
  6
HCS_01
 62
     7
 10
8.05712890625
 20
12.62262630462646
 30
0.0099999997764826
 70
   192
  0
VERTEX
  5
497
  8
0
  6
HCS_01
 62
     7
 10
8.043997764587402
 20
12.7791748046875
 30
0.0099999997764826
 70
   192
  0
VERTEX
  5
498
  8
0
  6
HCS_01
 62
     7
 10
6.333250045776367
 20
-3.0
 30
0.0099999997764826
 70
   192
  0
VERTEX
  5
499
  8
0
  6
HCS_01
 62
     7
 10
5.13325023651123
 20
-3.0
 30
0.0099999997764826
 70
   192
  0
VERTEX
  5
49A
  8
0
  6
HCS_01
 62
     7
 10
5.733250141143799
 20
-0.0000000000000004
 30
0.0099999997764826
 70
   192
  0
VERTEX
  5
49B
  8
0
  6
HCS_01
 62
     7
 10
5.13325023651123
 20
7.5
 30
0.0099999997764826
 70
   192
  0
VERTEX
  5
49C
  8
0
  6
HCS_01
 62
     7
 10
6.333250045776367
 20
7.5
 30
0.0099999997764826
 70
   192
  0
VERTEX
  5
49D
  8
0
  6
HCS_01
 62
     7
 10
5.733250141143799
 20
4.5
 30
0.0099999997764826
 70
   192
  0
VERTEX
  5
49E
  8
0
  6
HCS_01
 62
     7
 10
0.0
 20
0.0
 30
0.0
 70
   128
 71
     1
 72
     2
 73
     3
  0
VERTEX
  5
49F
  8
0
  6
HCS_01
 62
     7
 10
0.0
 20
0.0
 30
0.0
 70
   128
 71
     4
 72
     5
 73
     6
  0
VERTEX
  5
4A0
  8
0
  6
HCS_01
 62
     7
 10
0.0
 20
0.0
 30
0.0
 70
   128
 71
     7
 72
     8
 73
     9
  0
VERTEX
  5
4A1
  8
0
  6
HCS_01
 62
     7
 10
0.0
 20
0.0
 30
0.0
 70
   128
 71
    10
 72
    11
 73
    12
  0
VERTEX
  5
4A2
  8
0
  6
HCS_01
 62
     7
 10
0.0
 20
0.0
 30
0.0
 70
   128
 71
    13
 72
    14
 73
    15
  0
VERTEX
  5
4A3
  8
0
  6
HCS_01
 62
     7
 10
0.0
 20
0.0
 30
0.0
 70
   128
 71
    16
 72
    17
 73
    18
  0
VERTEX
  5
4A4
  8
0
  6
HCS_01
 62
     7
 10
0.0
 20
0.0
 30
0.0
 70
   128
 71
    19
 72
    20
 73
    21
  0
VERTEX
  5
4A5
  8
0
  6
HCS_01
 62
     7
 10
0.0
 20
0.0
 30
0.0
 70
   128
 71
    22
 72
    23
 73
    24
  0
VERTEX
  5
4A6
  8
0
  6
HCS_01
 62
     7
 10
0.0
 20
0.0
 30
0.0
 70
   128
 71
    25
 72
    26
 73
    27
  0
VERTEX
  5
4A7
  8
0
  6
HCS_01
 62
     7
 10
0.0
 20
0.0
 30
0.0
 70
   128
 71
    28
 72
    29
 73
    30
  0
VERTEX
  5
4A8
  8
0
  6
HCS_01
 62
     7
 10
0.0
 20
0.0
 30
0.0
 70
   128
 71
    31
 72
    32
 73
    33
  0
VERTEX
  5
4A9
  8
0
  6
HCS_01
 62
     7
 10
0.0
 20
0.0
 30
0.0
 70
   128
 71
    34
 72
    35
 73
    36
  0
VERTEX
  5
4AA
  8
0
  6
HCS_01
 62
     7
 10
0.0
 20
0.0
 30
0.0
 70
   128
 71
    37
 72
    38
 73
    39
  0
VERTEX
  5
4AB
  8
0
  6
HCS_01
 62
     7
 10
0.0
 20
0.0
 30
0.0
 70
   128
 71
    40
 72
    41
 73
    42
  0
VERTEX
  5
4AC
  8
0
  6
HCS_01
 62
     7
 10
0.0
 20
0.0
 30
0.0
 70
   128
 71
    43
 72
    44
 73
    45
  0
VERTEX
  5
4AD
  8
0
  6
HCS_01
 62
     7
 10
0.0
 20
0.0
 30
0.0
 70
   128
 71
    46
 72
    47
 73
    48
  0
VERTEX
  5
4AE
  8
0
  6
HCS_01
 62
     7
 10
0.0
 20
0.0
 30
0.0
 70
   128
 71
    49
 72
    50
 73
    51
  0
VERTEX
  5
4AF
  8
0
  6
HCS_01
 62
     7
 10
0.0
 20
0.0
 30
0.0
 70
   128
 71
    52
 72
    53
 73
    54
  0
VERTEX
  5
4B0
  8
0
  6
HCS_01
 62
     7
 10
0.0
 20
0.0
 30
0.0
 70
   128
 71
    55
 72
    56
 73
    57
  0
VERTEX
  5
4B1
  8
0
  6
HCS_01
 62
     7
 10
0.0
 20
0.0
 30
0.0
 70
   128
 71
    58
 72
    59
 73
    60
  0
VERTEX
  5
4B2
  8
0
  6
HCS_01
 62
     7
 10
0.0
 20
0.0
 30
0.0
 70
   128
 71
    61
 72
    62
 73
    63
  0
VERTEX
  5
4B3
  8
0
  6
HCS_01
 62
     7
 10
0.0
 20
0.0
 30
0.0
 70
   128
 71
    64
 72
    65
 73
    66
  0
VERTEX
  5
4B4
  8
0
  6
HCS_01
 62
     7
 10
0.0
 20
0.0
 30
0.0
 70
   128
 71
    67
 72
    68
 73
    69
  0
VERTEX
  5
4B5
  8
0
  6
HCS_01
 62
     7
 10
0.0
 20
0.0
 30
0.0
 70
   128
 71
    70
 72
    71
 73
    72
  0
VERTEX
  5
4B6
  8
0
  6
HCS_01
 62
     7
 10
0.0
 20
0.0
 30
0.0
 70
   128
 71
    73
 72
    74
 73
    75
  0
VERTEX
  5
4B7
  8
0
  6
HCS_01
 62
     7
 10
0.0
 20
0.0
 30
0.0
 70
   128
 71
    76
 72
    77
 73
    78
  0
VERTEX
  5
4B8
  8
0
  6
HCS_01
 62
     7
 10
0.0
 20
0.0
 30
0.0
 70
   128
 71
    79
 72
    80
 73
    81
  0
VERTEX
  5
4B9
  8
0
  6
HCS_01
 62
     7
 10
0.0
 20
0.0
 30
0.0
 70
   128
 71
    82
 72
    83
 73
    84
  0
VERTEX
  5
4BA
  8
0
  6
HCS_01
 62
     7
 10
0.0
 20
0.0
 30
0.0
 70
   128
 71
    85
 72
    86
 73
    87
  0
VERTEX
  5
4BB
  8
0
  6
HCS_01
 62
     7
 10
0.0
 20
0.0
 30
0.0
 70
   128
 71
    88
 72
    89
 73
    90
  0
VERTEX
  5
4BC
  8
0
  6
HCS_01
 62
     7
 10
0.0
 20
0.0
 30
0.0
 70
   128
 71
    91
 72
    92
 73
    93
  0
VERTEX
  5
4BD
  8
0
  6
HCS_01
 62
     7
 10
0.0
 20
0.0
 30
0.0
 70
   128
 71
    94
 72
    95
 73
    96
  0
VERTEX
  5
4BE
  8
0
  6
HCS_01
 62
     7
 10
0.0
 20
0.0
 30
0.0
 70
   128
 71
    97
 72
    98
 73
    99
  0
VERTEX
  5
4BF
  8
0
  6
HCS_01
 62
     7
 10
0.0
 20
0.0
 30
0.0
 70
   128
 71
   100
 72
   101
 73
   102
  0
VERTEX
  5
4C0
  8
0
  6
HCS_01
 62
     7
 10
0.0
 20
0.0
 30
0.0
 70
   128
 71
   103
 72
   104
 73
   105
  0
VERTEX
  5
4C1
  8
0
  6
HCS_01
 62
     7
 10
0.0
 20
0.0
 30
0.0
 70
   128
 71
   106
 72
   107
 73
   108
  0
VERTEX
  5
4C2
  8
0
  6
HCS_01
 62
     7
 10
0.0
 20
0.0
 30
0.0
 70
   128
 71
   109
 72
   110
 73
   111
  0
VERTEX
  5
4C3
  8
0
  6
HCS_01
 62
     7
 10
0.0
 20
0.0
 30
0.0
 70
   128
 71
   112
 72
   113
 73
   114
  0
VERTEX
  5
4C4
  8
0
  6
HCS_01
 62
     7
 10
0.0
 20
0.0
 30
0.0
 70
   128
 71
   115
 72
   116
 73
   117
  0
VERTEX
  5
4C5
  8
0
  6
HCS_01
 62
     7
 10
0.0
 20
0.0
 30
0.0
 70
   128
 71
   118
 72
   119
 73
   120
  0
VERTEX
  5
4C6
  8
0
  6
HCS_01
 62
     7
 10
0.0
 20
0.0
 30
0.0
 70
   128
 71
   121
 72
   122
 73
   123
  0
VERTEX
  5
4C7
  8
0
  6
HCS_01
 62
     7
 10
0.0
 20
0.0
 30
0.0
 70
   128
 71
   124
 72
   125
 73
   126
  0
VERTEX
  5
4C8
  8
0
  6
HCS_01
 62
     7
 10
0.0
 20
0.0
 30
0.0
 70
   128
 71
   127
 72
   128
 73
   129
  0
VERTEX
  5
4C9
  8
0
  6
HCS_01
 62
     7
 10
0.0
 20
0.0
 30
0.0
 70
   128
 71
   130
 72
   131
 73
   132
  0
VERTEX
  5
4CA
  8
0
  6
HCS_01
 62
     7
 10
0.0
 20
0.0
 30
0.0
 70
   128
 71
   133
 72
   134
 73
   135
  0
VERTEX
  5
4CB
  8
0
  6
HCS_01
 62
     7
 10
0.0
 20
0.0
 30
0.0
 70
   128
 71
   136
 72
   137
 73
   138
  0
VERTEX
  5
4CC
  8
0
  6
HCS_01
 62
     7
 10
0.0
 20
0.0
 30
0.0
 70
   128
 71
   139
 72
   140
 73
   141
  0
VERTEX
  5
4CD
  8
0
  6
HCS_01
 62
     7
 10
0.0
 20
0.0
 30
0.0
 70
   128
 71
   142
 72
   143
 73
   144
  0
VERTEX
  5
4CE
  8
0
  6
HCS_01
 62
     7
 10
0.0
 20
0.0
 30
0.0
 70
   128
 71
   145
 72
   146
 73
   147
  0
VERTEX
  5
4CF
  8
0
  6
HCS_01
 62
     7
 10
0.0
 20
0.0
 30
0.0
 70
   128
 71
   148
 72
   149
 73
   150
  0
VERTEX
  5
4D0
  8
0
  6
HCS_01
 62
     7
 10
0.0
 20
0.0
 30
0.0
 70
   128
 71
   151
 72
   152
 73
   153
  0
VERTEX
  5
4D1
  8
0
  6
HCS_01
 62
     7
 10
0.0
 20
0.0
 30
0.0
 70
   128
 71
   154
 72
   155
 73
   156
  0
VERTEX
  5
4D2
  8
0
  6
HCS_01
 62
     7
 10
0.0
 20
0.0
 30
0.0
 70
   128
 71
   157
 72
   158
 73
   159
  0
VERTEX
  5
4D3
  8
0
  6
HCS_01
 62
     7
 10
0.0
 20
0.0
 30
0.0
 70
   128
 71
   160
 72
   161
 73
   162
  0
VERTEX
  5
4D4
  8
0
  6
HCS_01
 62
     7
 10
0.0
 20
0.0
 30
0.0
 70
   128
 71
   163
 72
   164
 73
   165
  0
VERTEX
  5
4D5
  8
0
  6
HCS_01
 62
     7
 10
0.0
 20
0.0
 30
0.0
 70
   128
 71
   166
 72
   167
 73
   168
  0
VERTEX
  5
4D6
  8
0
  6
HCS_01
 62
     7
 10
0.0
 20
0.0
 30
0.0
 70
   128
 71
   169
 72
   170
 73
   171
  0
VERTEX
  5
4D7
  8
0
  6
HCS_01
 62
     7
 10
0.0
 20
0.0
 30
0.0
 70
   128
 71
   172
 72
   173
 73
   174
  0
VERTEX
  5
4D8
  8
0
  6
HCS_01
 62
     7
 10
0.0
 20
0.0
 30
0.0
 70
   128
 71
   175
 72
   176
 73
   177
  0
VERTEX
  5
4D9
  8
0
  6
HCS_01
 62
     7
 10
0.0
 20
0.0
 30
0.0
 70
   128
 71
   178
 72
   179
 73
   180
  0
VERTEX
  5
4DA
  8
0
  6
HCS_01
 62
     7
 10
0.0
 20
0.0
 30
0.0
 70
   128
 71
   181
 72
   182
 73
   183
  0
VERTEX
  5
4DB
  8
0
  6
HCS_01
 62
     7
 10
0.0
 20
0.0
 30
0.0
 70
   128
 71
   184
 72
   185
 73
   186
  0
VERTEX
  5
4DC
  8
0
  6
HCS_01
 62
     7
 10
0.0
 20
0.0
 30
0.0
 70
   128
 71
   187
 72
   188
 73
   189
  0
VERTEX
  5
4DD
  8
0
  6
HCS_01
 62
     7
 10
0.0
 20
0.0
 30
0.0
 70
   128
 71
   190
 72
   191
 73
   192
  0
VERTEX
  5
4DE
  8
0
  6
HCS_01
 62
     7
 10
0.0
 20
0.0
 30
0.0
 70
   128
 71
   193
 72
   194
 73
   195
  0
VERTEX
  5
4DF
  8
0
  6
HCS_01
 62
     7
 10
0.0
 20
0.0
 30
0.0
 70
   128
 71
   196
 72
   197
 73
   198
  0
VERTEX
  5
4E0
  8
0
  6
HCS_01
 62
     7
 10
0.0
 20
0.0
 30
0.0
 70
   128
 71
   199
 72
   200
 73
   201
  0
VERTEX
  5
4E1
  8
0
  6
HCS_01
 62
     7
 10
0.0
 20
0.0
 30
0.0
 70
   128
 71
   202
 72
   203
 73
   204
  0
VERTEX
  5
4E2
  8
0
  6
HCS_01
 62
     7
 10
0.0
 20
0.0
 30
0.0
 70
   128
 71
   205
 72
   206
 73
   207
  0
VERTEX
  5
4E3
  8
0
  6
HCS_01
 62
     7
 10
0.0
 20
0.0
 30
0.0
 70
   128
 71
   208
 72
   209
 73
   210
  0
VERTEX
  5
4E4
  8
0
  6
HCS_01
 62
     7
 10
0.0
 20
0.0
 30
0.0
 70
   128
 71
   211
 72
   212
 73
   213
  0
VERTEX
  5
4E5
  8
0
  6
HCS_01
 62
     7
 10
0.0
 20
0.0
 30
0.0
 70
   128
 71
   214
 72
   215
 73
   216
  0
VERTEX
  5
4E6
  8
0
  6
HCS_01
 62
     7
 10
0.0
 20
0.0
 30
0.0
 70
   128
 71
   217
 72
   218
 73
   219
  0
VERTEX
  5
4E7
  8
0
  6
HCS_01
 62
     7
 10
0.0
 20
0.0
 30
0.0
 70
   128
 71
   220
 72
   221
 73
   222
  0
VERTEX
  5
4E8
  8
0
  6
HCS_01
 62
     7
 10
0.0
 20
0.0
 30
0.0
 70
   128
 71
   223
 72
   224
 73
   225
  0
VERTEX
  5
4E9
  8
0
  6
HCS_01
 62
     7
 10
0.0
 20
0.0
 30
0.0
 70
   128
 71
   226
 72
   227
 73
   228
  0
VERTEX
  5
4EA
  8
0
  6
HCS_01
 62
     7
 10
0.0
 20
0.0
 30
0.0
 70
   128
 71
   229
 72
   230
 73
   231
  0
VERTEX
  5
4EB
  8
0
  6
HCS_01
 62
     7
 10
0.0
 20
0.0
 30
0.0
 70
   128
 71
   232
 72
   233
 73
   234
  0
VERTEX
  5
4EC
  8
0
  6
HCS_01
 62
     7
 10
0.0
 20
0.0
 30
0.0
 70
   128
 71
   235
 72
   236
 73
   237
  0
VERTEX
  5
4ED
  8
0
  6
HCS_01
 62
     7
 10
0.0
 20
0.0
 30
0.0
 70
   128
 71
   238
 72
   239
 73
   240
  0
VERTEX
  5
4EE
  8
0
  6
HCS_01
 62
     7
 10
0.0
 20
0.0
 30
0.0
 70
   128
 71
   241
 72
   242
 73
   243
  0
VERTEX
  5
4EF
  8
0
  6
HCS_01
 62
     7
 10
0.0
 20
0.0
 30
0.0
 70
   128
 71
   244
 72
   245
 73
   246
  0
VERTEX
  5
4F0
  8
0
  6
HCS_01
 62
     7
 10
0.0
 20
0.0
 30
0.0
 70
   128
 71
   247
 72
   248
 73
   249
  0
VERTEX
  5
4F1
  8
0
  6
HCS_01
 62
     7
 10
0.0
 20
0.0
 30
0.0
 70
   128
 71
   250
 72
   251
 73
   252
  0
VERTEX
  5
4F2
  8
0
  6
HCS_01
 62
     7
 10
0.0
 20
0.0
 30
0.0
 70
   128
 71
   253
 72
   254
 73
   255
  0
VERTEX
  5
4F3
  8
0
  6
HCS_01
 62
     7
 10
0.0
 20
0.0
 30
0.0
 70
   128
 71
   256
 72
   257
 73
   258
  0
VERTEX
  5
4F4
  8
0
  6
HCS_01
 62
     7
 10
0.0
 20
0.0
 30
0.0
 70
   128
 71
   259
 72
   260
 73
   261
  0
VERTEX
  5
4F5
  8
0
  6
HCS_01
 62
     7
 10
0.0
 20
0.0
 30
0.0
 70
   128
 71
   262
 72
   263
 73
   264
  0
VERTEX
  5
4F6
  8
0
  6
HCS_01
 62
     7
 10
0.0
 20
0.0
 30
0.0
 70
   128
 71
   265
 72
   266
 73
   267
  0
VERTEX
  5
4F7
  8
0
  6
HCS_01
 62
     7
 10
0.0
 20
0.0
 30
0.0
 70
   128
 71
   268
 72
   269
 73
   270
  0
VERTEX
  5
4F8
  8
0
  6
HCS_01
 62
     7
 10
0.0
 20
0.0
 30
0.0
 70
   128
 71
   271
 72
   272
 73
   273
  0
VERTEX
  5
4F9
  8
0
  6
HCS_01
 62
     7
 10
0.0
 20
0.0
 30
0.0
 70
   128
 71
   274
 72
   275
 73
   276
  0
VERTEX
  5
4FA
  8
0
  6
HCS_01
 62
     7
 10
0.0
 20
0.0
 30
0.0
 70
   128
 71
   277
 72
   278
 73
   279
  0
VERTEX
  5
4FB
  8
0
  6
HCS_01
 62
     7
 10
0.0
 20
0.0
 30
0.0
 70
   128
 71
   280
 72
   281
 73
   282
  0
VERTEX
  5
4FC
  8
0
  6
HCS_01
 62
     7
 10
0.0
 20
0.0
 30
0.0
 70
   128
 71
   283
 72
   284
 73
   285
  0
VERTEX
  5
4FD
  8
0
  6
HCS_01
 62
     7
 10
0.0
 20
0.0
 30
0.0
 70
   128
 71
   286
 72
   287
 73
   288
  0
VERTEX
  5
4FE
  8
0
  6
HCS_01
 62
     7
 10
0.0
 20
0.0
 30
0.0
 70
   128
 71
   289
 72
   290
 73
   291
  0
VERTEX
  5
4FF
  8
0
  6
HCS_01
 62
     7
 10
0.0
 20
0.0
 30
0.0
 70
   128
 71
   292
 72
   293
 73
   294
  0
VERTEX
  5
500
  8
0
  6
HCS_01
 62
     7
 10
0.0
 20
0.0
 30
0.0
 70
   128
 71
   295
 72
   296
 73
   297
  0
VERTEX
  5
501
  8
0
  6
HCS_01
 62
     7
 10
0.0
 20
0.0
 30
0.0
 70
   128
 71
   298
 72
   299
 73
   300
  0
VERTEX
  5
502
  8
0
  6
HCS_01
 62
     7
 10
0.0
 20
0.0
 30
0.0
 70
   128
 71
   301
 72
   302
 73
   303
  0
VERTEX
  5
503
  8
0
  6
HCS_01
 62
     7
 10
0.0
 20
0.0
 30
0.0
 70
   128
 71
   304
 72
   305
 73
   306
  0
VERTEX
  5
504
  8
0
  6
HCS_01
 62
     7
 10
0.0
 20
0.0
 30
0.0
 70
   128
 71
   307
 72
   308
 73
   309
  0
VERTEX
  5
505
  8
0
  6
HCS_01
 62
     7
 10
0.0
 20
0.0
 30
0.0
 70
   128
 71
   310
 72
   311
 73
   312
  0
VERTEX
  5
506
  8
0
  6
HCS_01
 62
     7
 10
0.0
 20
0.0
 30
0.0
 70
   128
 71
   313
 72
   314
 73
   315
  0
VERTEX
  5
507
  8
0
  6
HCS_01
 62
     7
 10
0.0
 20
0.0
 30
0.0
 70
   128
 71
   316
 72
   317
 73
   318
  0
VERTEX
  5
508
  8
0
  6
HCS_01
 62
     7
 10
0.0
 20
0.0
 30
0.0
 70
   128
 71
   319
 72
   320
 73
   321
  0
VERTEX
  5
509
  8
0
  6
HCS_01
 62
     7
 10
0.0
 20
0.0
 30
0.0
 70
   128
 71
   322
 72
   323
 73
   324
  0
VERTEX
  5
50A
  8
0
  6
HCS_01
 62
     7
 10
0.0
 20
0.0
 30
0.0
 70
   128
 71
   325
 72
   326
 73
   327
  0
VERTEX
  5
50B
  8
0
  6
HCS_01
 62
     7
 10
0.0
 20
0.0
 30
0.0
 70
   128
 71
   328
 72
   329
 73
   330
  0
VERTEX
  5
50C
  8
0
  6
HCS_01
 62
     7
 10
0.0
 20
0.0
 30
0.0
 70
   128
 71
   331
 72
   332
 73
   333
  0
VERTEX
  5
50D
  8
0
  6
HCS_01
 62
     7
 10
0.0
 20
0.0
 30
0.0
 70
   128
 71
   334
 72
   335
 73
   336
  0
VERTEX
  5
50E
  8
0
  6
HCS_01
 62
     7
 10
0.0
 20
0.0
 30
0.0
 70
   128
 71
   337
 72
   338
 73
   339
  0
VERTEX
  5
50F
  8
0
  6
HCS_01
 62
     7
 10
0.0
 20
0.0
 30
0.0
 70
   128
 71
   340
 72
   341
 73
   342
  0
VERTEX
  5
510
  8
0
  6
HCS_01
 62
     7
 10
0.0
 20
0.0
 30
0.0
 70
   128
 71
   343
 72
   344
 73
   345
  0
VERTEX
  5
511
  8
0
  6
HCS_01
 62
     7
 10
0.0
 20
0.0
 30
0.0
 70
   128
 71
   346
 72
   347
 73
   348
  0
VERTEX
  5
512
  8
0
  6
HCS_01
 62
     7
 10
0.0
 20
0.0
 30
0.0
 70
   128
 71
   349
 72
   350
 73
   351
  0
VERTEX
  5
513
  8
0
  6
HCS_01
 62
     7
 10
0.0
 20
0.0
 30
0.0
 70
   128
 71
   352
 72
   353
 73
   354
  0
VERTEX
  5
514
  8
0
  6
HCS_01
 62
     7
 10
0.0
 20
0.0
 30
0.0
 70
   128
 71
   355
 72
   356
 73
   357
  0
VERTEX
  5
515
  8
0
  6
HCS_01
 62
     7
 10
0.0
 20
0.0
 30
0.0
 70
   128
 71
   358
 72
   359
 73
   360
  0
VERTEX
  5
516
  8
0
  6
HCS_01
 62
     7
 10
0.0
 20
0.0
 30
0.0
 70
   128
 71
   361
 72
   362
 73
   363
  0
VERTEX
  5
517
  8
0
  6
HCS_01
 62
     7
 10
0.0
 20
0.0
 30
0.0
 70
   128
 71
   364
 72
   365
 73
   366
  0
VERTEX
  5
518
  8
0
  6
HCS_01
 62
     7
 10
0.0
 20
0.0
 30
0.0
 70
   128
 71
   367
 72
   368
 73
   369
  0
VERTEX
  5
519
  8
0
  6
HCS_01
 62
     7
 10
0.0
 20
0.0
 30
0.0
 70
   128
 71
   370
 72
   371
 73
   372
  0
VERTEX
  5
51A
  8
0
  6
HCS_01
 62
     7
 10
0.0
 20
0.0
 30
0.0
 70
   128
 71
   373
 72
   374
 73
   375
  0
VERTEX
  5
51B
  8
0
  6
HCS_01
 62
     7
 10
0.0
 20
0.0
 30
0.0
 70
   128
 71
   376
 72
   377
 73
   378
  0
VERTEX
  5
51C
  8
0
  6
HCS_01
 62
     7
 10
0.0
 20
0.0
 30
0.0
 70
   128
 71
   379
 72
   380
 73
   381
  0
VERTEX
  5
51D
  8
0
  6
HCS_01
 62
     7
 10
0.0
 20
0.0
 30
0.0
 70
   128
 71
   382
 72
   383
 73
   384
  0
VERTEX
  5
51E
  8
0
  6
HCS_01
 62
     7
 10
0.0
 20
0.0
 30
0.0
 70
   128
 71
   385
 72
   386
 73
   387
  0
VERTEX
  5
51F
  8
0
  6
HCS_01
 62
     7
 10
0.0
 20
0.0
 30
0.0
 70
   128
 71
   388
 72
   389
 73
   390
  0
VERTEX
  5
520
  8
0
  6
HCS_01
 62
     7
 10
0.0
 20
0.0
 30
0.0
 70
   128
 71
   391
 72
   392
 73
   393
  0
VERTEX
  5
521
  8
0
  6
HCS_01
 62
     7
 10
0.0
 20
0.0
 30
0.0
 70
   128
 71
   394
 72
   395
 73
   396
  0
VERTEX
  5
522
  8
0
  6
HCS_01
 62
     7
 10
0.0
 20
0.0
 30
0.0
 70
   128
 71
   397
 72
   398
 73
   399
  0
VERTEX
  5
523
  8
0
  6
HCS_01
 62
     7
 10
0.0
 20
0.0
 30
0.0
 70
   128
 71
   400
 72
   401
 73
   402
  0
VERTEX
  5
524
  8
0
  6
HCS_01
 62
     7
 10
0.0
 20
0.0
 30
0.0
 70
   128
 71
   403
 72
   404
 73
   405
  0
VERTEX
  5
525
  8
0
  6
HCS_01
 62
     7
 10
0.0
 20
0.0
 30
0.0
 70
   128
 71
   406
 72
   407
 73
   408
  0
VERTEX
  5
526
  8
0
  6
HCS_01
 62
     7
 10
0.0
 20
0.0
 30
0.0
 70
   128
 71
   409
 72
   410
 73
   411
  0
SEQEND
  5
527
  8
0
  6
HCS_01
 62
     7
  0
ENDBLK
  5
52A
  8
0
  0
BLOCK
  8
0
  2
GNODE_15
 70
     0
 10
0.0
 20
0.0
 30
0.0
  3
GNODE_15
  1

  0
LINE
  5
52C
  8
0
  6
HCS_01
 62
     7
 10
-0.75
 20
-6.378142356872559
 30
0.0
 11
-0.75
 21
-2.0
 31
0.0
  0
LINE
  5
52D
  8
0
  6
HCS_01
 62
     7
 10
0.75
 20
-6.378142356872559
 30
0.0
 11
0.75
 21
-2.0
 31
0.0
  0
LINE
  5
52E
  8
0
  6
HCS_01
 62
     7
 10
-5.25
 20
-5.378142356872559
 30
0.0
 11
5.450934886932373
 21
-5.378142356872559
 31
0.0
  0
POLYLINE
  5
52F
  8
0
  6
HCS_01
 62
     7
 66
     1
 10
0.0
 20
0.0
 30
0.0
 70
    64
 71
   450
 72
   150
  0
VERTEX
  5
530
  8
0
  6
HCS_01
 62
     7
 10
6.62760591506958
 20
-5.59270715713501
 30
0.0099999997764826
 70
   192
  0
VERTEX
  5
531
  8
0
  6
HCS_01
 62
     7
 10
6.507551670074463
 20
-5.727086544036865
 30
0.0099999997764826
 70
   192
  0
VERTEX
  5
532
  8
0
  6
HCS_01
 62
     7
 10
6.575082302093506
 20
-5.784385204315186
 30
0.0099999997764826
 70
   192
  0
VERTEX
  5
533
  8
0
  6
HCS_01
 62
     7
 10
6.62760591506958
 20
-5.59270715713501
 30
0.0099999997764826
 70
   192
  0
VERTEX
  5
534
  8
0
  6
HCS_01
 62
     7
 10
6.575082302093506
 20
-5.784385204315186
 30
0.0099999997764826
 70
   192
  0
VERTEX
  5
535
  8
0
  6
HCS_01
 62
     7
 10
6.689679622650146
 20
-5.656145095825195
 30
0.0099999997764826
 70
   192
  0
VERTEX
  5
536
  8
0
  6
HCS_01
 62
     7
 10
6.62760591506958
 20
-5.59270715713501
 30
0.0099999997764826
 70
   192
  0
VERTEX
  5
537
  8
0
  6
HCS_01
 62
     7
 10
6.689679622650146
 20
-5.656145095825195
 30
0.0099999997764826
 70
   192
  0
VERTEX
  5
538
  8
0
  6
HCS_01
 62
     7
 10
6.655914306640625
 20
-5.318832874298096
 30
0.0099999997764826
 70
   192
  0
VERTEX
  5
539
  8
0
  6
HCS_01
 62
     7
 10
6.62760591506958
 20
-5.59270715713501
 30
0.0099999997764826
 70
   192
  0
VERTEX
  5
53A
  8
0
  6
HCS_01
 62
     7
 10
6.655914306640625
 20
-5.318832874298096
 30
0.0099999997764826
 70
   192
  0
VERTEX
  5
53B
  8
0
  6
HCS_01
 62
     7
 10
6.652162551879883
 20
-5.244139671325684
 30
0.0099999997764826
 70
   192
  0
VERTEX
  5
53C
  8
0
  6
HCS_01
 62
     7
 10
6.62760591506958
 20
-5.59270715713501
 30
0.0099999997764826
 70
   192
  0
VERTEX
  5
53D
  8
0
  6
HCS_01
 62
     7
 10
6.652162551879883
 20
-5.244139671325684
 30
0.0099999997764826
 70
   192
  0
VERTEX
  5
53E
  8
0
  6
HCS_01
 62
     7
 10
6.650883674621582
 20
-4.865814208984375
 30
0.0099999997764826
 70
   192
  0
VERTEX
  5
53F
  8
0
  6
HCS_01
 62
     7
 10
6.62760591506958
 20
-5.59270715713501
 30
0.0099999997764826
 70
   192
  0
VERTEX
  5
540
  8
0
  6
HCS_01
 62
     7
 10
6.650883674621582
 20
-4.865814208984375
 30
0.0099999997764826
 70
   192
  0
VERTEX
  5
541
  8
0
  6
HCS_01
 62
     7
 10
6.577128410339355
 20
-4.971629619598389
 30
0.0099999997764826
 70
   192
  0
VERTEX
  5
542
  8
0
  6
HCS_01
 62
     7
 10
6.62760591506958
 20
-5.59270715713501
 30
0.0099999997764826
 70
   192
  0
VERTEX
  5
543
  8
0
  6
HCS_01
 62
     7
 10
6.577128410339355
 20
-4.971629619598389
 30
0.0099999997764826
 70
   192
  0
VERTEX
  5
544
  8
0
  6
HCS_01
 62
     7
 10
6.571842193603516
 20
-5.498488426208496
 30
0.0099999997764826
 70
   192
  0
VERTEX
  5
545
  8
0
  6
HCS_01
 62
     7
 10
6.515737056732178
 20
-5.246186256408691
 30
0.0099999997764826
 70
   192
  0
VERTEX
  5
546
  8
0
  6
HCS_01
 62
     7
 10
6.521364688873291
 20
-5.339893341064453
 30
0.0099999997764826
 70
   192
  0
VERTEX
  5
547
  8
0
  6
HCS_01
 62
     7
 10
6.531085014343262
 20
-5.100466251373291
 30
0.0099999997764826
 70
   192
  0
VERTEX
  5
548
  8
0
  6
HCS_01
 62
     7
 10
6.538247108459473
 20
-5.419105529785156
 30
0.0099999997764826
 70
   192
  0
VERTEX
  5
549
  8
0
  6
HCS_01
 62
     7
 10
6.531085014343262
 20
-5.100466251373291
 30
0.0099999997764826
 70
   192
  0
VERTEX
  5
54A
  8
0
  6
HCS_01
 62
     7
 10
6.521364688873291
 20
-5.339893341064453
 30
0.0099999997764826
 70
   192
  0
VERTEX
  5
54B
  8
0
  6
HCS_01
 62
     7
 10
6.531085014343262
 20
-5.100466251373291
 30
0.0099999997764826
 70
   192
  0
VERTEX
  5
54C
  8
0
  6
HCS_01
 62
     7
 10
6.538247108459473
 20
-5.419105529785156
 30
0.0099999997764826
 70
   192
  0
VERTEX
  5
54D
  8
0
  6
HCS_01
 62
     7
 10
6.577128410339355
 20
-4.971629619598389
 30
0.0099999997764826
 70
   192
  0
VERTEX
  5
54E
  8
0
  6
HCS_01
 62
     7
 10
6.571842193603516
 20
-5.498488426208496
 30
0.0099999997764826
 70
   192
  0
VERTEX
  5
54F
  8
0
  6
HCS_01
 62
     7
 10
6.577128410339355
 20
-4.971629619598389
 30
0.0099999997764826
 70
   192
  0
VERTEX
  5
550
  8
0
  6
HCS_01
 62
     7
 10
6.538247108459473
 20
-5.419105529785156
 30
0.0099999997764826
 70
   192
  0
VERTEX
  5
551
  8
0
  6
HCS_01
 62
     7
 10
7.335399627685547
 20
-5.623744010925293
 30
0.0099999997764826
 70
   192
  0
VERTEX
  5
552
  8
0
  6
HCS_01
 62
     7
 10
7.410006999969482
 20
-5.518355369567871
 30
0.0099999997764826
 70
   192
  0
VERTEX
  5
553
  8
0
  6
HCS_01
 62
     7
 10
7.335655212402344
 20
-5.248232364654541
 30
0.0099999997764826
 70
   192
  0
VERTEX
  5
554
  8
0
  6
HCS_01
 62
     7
 10
7.365668773651123
 20
-4.899664878845215
 30
0.0099999997764826
 70
   192
  0
VERTEX
  5
555
  8
0
  6
HCS_01
 62
     7
 10
7.335655212402344
 20
-5.248232364654541
 30
0.0099999997764826
 70
   192
  0
VERTEX
  5
556
  8
0
  6
HCS_01
 62
     7
 10
7.410006999969482
 20
-5.518355369567871
 30
0.0099999997764826
 70
   192
  0
VERTEX
  5
557
  8
0
  6
HCS_01
 62
     7
 10
7.335655212402344
 20
-5.248232364654541
 30
0.0099999997764826
 70
   192
  0
VERTEX
  5
558
  8
0
  6
HCS_01
 62
     7
 10
7.365668773651123
 20
-4.899664878845215
 30
0.0099999997764826
 70
   192
  0
VERTEX
  5
559
  8
0
  6
HCS_01
 62
     7
 10
7.321159839630127
 20
-5.114706039428711
 30
0.0099999997764826
 70
   192
  0
VERTEX
  5
55A
  8
0
  6
HCS_01
 62
     7
 10
7.303595066070557
 20
-4.835544586181641
 30
0.0099999997764826
 70
   192
  0
VERTEX
  5
55B
  8
0
  6
HCS_01
 62
     7
 10
7.321159839630127
 20
-5.114706039428711
 30
0.0099999997764826
 70
   192
  0
VERTEX
  5
55C
  8
0
  6
HCS_01
 62
     7
 10
7.365668773651123
 20
-4.899664878845215
 30
0.0099999997764826
 70
   192
  0
VERTEX
  5
55D
  8
0
  6
HCS_01
 62
     7
 10
7.321159839630127
 20
-5.114706039428711
 30
0.0099999997764826
 70
   192
  0
VERTEX
  5
55E
  8
0
  6
HCS_01
 62
     7
 10
7.303595066070557
 20
-4.835544586181641
 30
0.0099999997764826
 70
   192
  0
VERTEX
  5
55F
  8
0
  6
HCS_01
 62
     7
 10
7.277674198150635
 20
-4.997891426086426
 30
0.0099999997764826
 70
   192
  0
VERTEX
  5
560
  8
0
  6
HCS_01
 62
     7
 10
7.22711181640625
 20
-4.784470558166504
 30
0.0099999997764826
 70
   192
  0
VERTEX
  5
561
  8
0
  6
HCS_01
 62
     7
 10
7.277674198150635
 20
-4.997891426086426
 30
0.0099999997764826
 70
   192
  0
VERTEX
  5
562
  8
0
  6
HCS_01
 62
     7
 10
7.303595066070557
 20
-4.835544586181641
 30
0.0099999997764826
 70
   192
  0
VERTEX
  5
563
  8
0
  6
HCS_01
 62
     7
 10
7.277674198150635
 20
-4.997891426086426
 30
0.0099999997764826
 70
   192
  0
VERTEX
  5
564
  8
0
  6
HCS_01
 62
     7
 10
7.22711181640625
 20
-4.784470558166504
 30
0.0099999997764826
 70
   192
  0
VERTEX
  5
565
  8
0
  6
HCS_01
 62
     7
 10
7.221739768981934
 20
-4.927632331848145
 30
0.0099999997764826
 70
   192
  0
VERTEX
  5
566
  8
0
  6
HCS_01
 62
     7
 10
7.161627292633057
 20
-4.885169506072998
 30
0.0099999997764826
 70
   192
  0
VERTEX
  5
567
  8
0
  6
HCS_01
 62
     7
 10
7.221739768981934
 20
-4.927632331848145
 30
0.0099999997764826
 70
   192
  0
VERTEX
  5
568
  8
0
  6
HCS_01
 62
     7
 10
7.22711181640625
 20
-4.784470558166504
 30
0.0099999997764826
 70
   192
  0
VERTEX
  5
569
  8
0
  6
HCS_01
 62
     7
 10
6.996637344360352
 20
-4.840319633483887
 30
0.0099999997764826
 70
   192
  0
VERTEX
  5
56A
  8
0
  6
HCS_01
 62
     7
 10
7.05726146697998
 20
-4.844923973083496
 30
0.0099999997764826
 70
   192
  0
VERTEX
  5
56B
  8
0
  6
HCS_01
 62
     7
 10
7.081647872924805
 20
-4.733140468597412
 30
0.0099999997764826
 70
   192
  0
VERTEX
  5
56C
  8
0
  6
HCS_01
 62
     7
 10
7.109529495239258
 20
-4.858736991882324
 30
0.0099999997764826
 70
   192
  0
VERTEX
  5
56D
  8
0
  6
HCS_01
 62
     7
 10
7.081647872924805
 20
-4.733140468597412
 30
0.0099999997764826
 70
   192
  0
VERTEX
  5
56E
  8
0
  6
HCS_01
 62
     7
 10
7.05726146697998
 20
-4.844923973083496
 30
0.0099999997764826
 70
   192
  0
VERTEX
  5
56F
  8
0
  6
HCS_01
 62
     7
 10
7.081647872924805
 20
-4.733140468597412
 30
0.0099999997764826
 70
   192
  0
VERTEX
  5
570
  8
0
  6
HCS_01
 62
     7
 10
7.109529495239258
 20
-4.858736991882324
 30
0.0099999997764826
 70
   192
  0
VERTEX
  5
571
  8
0
  6
HCS_01
 62
     7
 10
7.155914306640625
 20
-4.751301765441895
 30
0.0099999997764826
 70
   192
  0
VERTEX
  5
572
  8
0
  6
HCS_01
 62
     7
 10
7.161627292633057
 20
-4.885169506072998
 30
0.0099999997764826
 70
   192
  0
VERTEX
  5
573
  8
0
  6
HCS_01
 62
     7
 10
7.155914306640625
 20
-4.751301765441895
 30
0.0099999997764826
 70
   192
  0
VERTEX
  5
574
  8
0
  6
HCS_01
 62
     7
 10
7.109529495239258
 20
-4.858736991882324
 30
0.0099999997764826
 70
   192
  0
VERTEX
  5
575
  8
0
  6
HCS_01
 62
     7
 10
7.155914306640625
 20
-4.751301765441895
 30
0.0099999997764826
 70
   192
  0
VERTEX
  5
576
  8
0
  6
HCS_01
 62
     7
 10
7.161627292633057
 20
-4.885169506072998
 30
0.0099999997764826
 70
   192
  0
VERTEX
  5
577
  8
0
  6
HCS_01
 62
     7
 10
7.22711181640625
 20
-4.784470558166504
 30
0.0099999997764826
 70
   192
  0
VERTEX
  5
578
  8
0
  6
HCS_01
 62
     7
 10
6.749707221984863
 20
-4.941616058349609
 30
0.0099999997764826
 70
   192
  0
VERTEX
  5
579
  8
0
  6
HCS_01
 62
     7
 10
6.860211849212646
 20
-4.865643501281738
 30
0.0099999997764826
 70
   192
  0
VERTEX
  5
57A
  8
0
  6
HCS_01
 62
     7
 10
6.866436004638672
 20
-4.742604732513428
 30
0.0099999997764826
 70
   192
  0
VERTEX
  5
57B
  8
0
  6
HCS_01
 62
     7
 10
6.996637344360352
 20
-4.840319633483887
 30
0.0099999997764826
 70
   192
  0
VERTEX
  5
57C
  8
0
  6
HCS_01
 62
     7
 10
6.866436004638672
 20
-4.742604732513428
 30
0.0099999997764826
 70
   192
  0
VERTEX
  5
57D
  8
0
  6
HCS_01
 62
     7
 10
6.860211849212646
 20
-4.865643501281738
 30
0.0099999997764826
 70
   192
  0
VERTEX
  5
57E
  8
0
  6
HCS_01
 62
     7
 10
6.866436004638672
 20
-4.742604732513428
 30
0.0099999997764826
 70
   192
  0
VERTEX
  5
57F
  8
0
  6
HCS_01
 62
     7
 10
6.996637344360352
 20
-4.840319633483887
 30
0.0099999997764826
 70
   192
  0
VERTEX
  5
580
  8
0
  6
HCS_01
 62
     7
 10
6.995955467224121
 20
-4.727086544036865
 30
0.0099999997764826
 70
   192
  0
VERTEX
  5
581
  8
0
  6
HCS_01
 62
     7
 10
7.081647872924805
 20
-4.733140468597412
 30
0.0099999997764826
 70
   192
  0
VERTEX
  5
582
  8
0
  6
HCS_01
 62
     7
 10
6.995955467224121
 20
-4.727086544036865
 30
0.0099999997764826
 70
   192
  0
VERTEX
  5
583
  8
0
  6
HCS_01
 62
     7
 10
6.996637344360352
 20
-4.840319633483887
 30
0.0099999997764826
 70
   192
  0
VERTEX
  5
584
  8
0
  6
HCS_01
 62
     7
 10
6.74936580657959
 20
-4.789160251617432
 30
0.0099999997764826
 70
   192
  0
VERTEX
  5
585
  8
0
  6
HCS_01
 62
     7
 10
6.650883674621582
 20
-4.865814208984375
 30
0.0099999997764826
 70
   192
  0
VERTEX
  5
586
  8
0
  6
HCS_01
 62
     7
 10
6.676548957824707
 20
-5.06789493560791
 30
0.0099999997764826
 70
   192
  0
VERTEX
  5
587
  8
0
  6
HCS_01
 62
     7
 10
6.74936580657959
 20
-4.789160251617432
 30
0.0099999997764826
 70
   192
  0
VERTEX
  5
588
  8
0
  6
HCS_01
 62
     7
 10
6.676548957824707
 20
-5.06789493560791
 30
0.0099999997764826
 70
   192
  0
VERTEX
  5
589
  8
0
  6
HCS_01
 62
     7
 10
6.749707221984863
 20
-4.941616058349609
 30
0.0099999997764826
 70
   192
  0
VERTEX
  5
58A
  8
0
  6
HCS_01
 62
     7
 10
6.74936580657959
 20
-4.789160251617432
 30
0.0099999997764826
 70
   192
  0
VERTEX
  5
58B
  8
0
  6
HCS_01
 62
     7
 10
6.749707221984863
 20
-4.941616058349609
 30
0.0099999997764826
 70
   192
  0
VERTEX
  5
58C
  8
0
  6
HCS_01
 62
     7
 10
6.866436004638672
 20
-4.742604732513428
 30
0.0099999997764826
 70
   192
  0
VERTEX
  5
58D
  8
0
  6
HCS_01
 62
     7
 10
7.418192863464355
 20
-4.707304954528809
 30
0.0099999997764826
 70
   192
  0
VERTEX
  5
58E
  8
0
  6
HCS_01
 62
     7
 10
7.303595066070557
 20
-4.835544586181641
 30
0.0099999997764826
 70
   192
  0
VERTEX
  5
58F
  8
0
  6
HCS_01
 62
     7
 10
7.365668773651123
 20
-4.899664878845215
 30
0.0099999997764826
 70
   192
  0
VERTEX
  5
590
  8
0
  6
HCS_01
 62
     7
 10
7.418192863464355
 20
-4.707304954528809
 30
0.0099999997764826
 70
   192
  0
VERTEX
  5
591
  8
0
  6
HCS_01
 62
     7
 10
7.365668773651123
 20
-4.899664878845215
 30
0.0099999997764826
 70
   192
  0
VERTEX
  5
592
  8
0
  6
HCS_01
 62
     7
 10
7.485723495483398
 20
-4.764603614807129
 30
0.0099999997764826
 70
   192
  0
VERTEX
  5
593
  8
0
  6
HCS_01
 62
     7
 10
6.770853042602539
 20
-5.565422058105469
 30
0.0099999997764826
 70
   192
  0
VERTEX
  5
594
  8
0
  6
HCS_01
 62
     7
 10
7.277674198150635
 20
-4.997891426086426
 30
0.0099999997764826
 70
   192
  0
VERTEX
  5
595
  8
0
  6
HCS_01
 62
     7
 10
7.221739768981934
 20
-4.927632331848145
 30
0.0099999997764826
 70
   192
  0
VERTEX
  5
596
  8
0
  6
HCS_01
 62
     7
 10
6.770853042602539
 20
-5.565422058105469
 30
0.0099999997764826
 70
   192
  0
VERTEX
  5
597
  8
0
  6
HCS_01
 62
     7
 10
7.221739768981934
 20
-4.927632331848145
 30
0.0099999997764826
 70
   192
  0
VERTEX
  5
598
  8
0
  6
HCS_01
 62
     7
 10
6.71287202835083
 20
-5.497209072113037
 30
0.0099999997764826
 70
   192
  0
VERTEX
  5
599
  8
0
  6
HCS_01
 62
     7
 10
6.770853042602539
 20
-5.565422058105469
 30
0.0099999997764826
 70
   192
  0
VERTEX
  5
59A
  8
0
  6
HCS_01
 62
     7
 10
6.71287202835083
 20
-5.497209072113037
 30
0.0099999997764826
 70
   192
  0
VERTEX
  5
59B
  8
0
  6
HCS_01
 62
     7
 10
6.763179302215576
 20
-5.704746723175049
 30
0.0099999997764826
 70
   192
  0
VERTEX
  5
59C
  8
0
  6
HCS_01
 62
     7
 10
6.770853042602539
 20
-5.565422058105469
 30
0.0099999997764826
 70
   192
  0
VERTEX
  5
59D
  8
0
  6
HCS_01
 62
     7
 10
6.763179302215576
 20
-5.704746723175049
 30
0.0099999997764826
 70
   192
  0
VERTEX
  5
59E
  8
0
  6
HCS_01
 62
     7
 10
6.82678747177124
 20
-5.73459005355835
 30
0.0099999997764826
 70
   192
  0
VERTEX
  5
59F
  8
0
  6
HCS_01
 62
     7
 10
6.770853042602539
 20
-5.565422058105469
 30
0.0099999997764826
 70
   192
  0
VERTEX
  5
5A0
  8
0
  6
HCS_01
 62
     7
 10
6.82678747177124
 20
-5.73459005355835
 30
0.0099999997764826
 70
   192
  0
VERTEX
  5
5A1
  8
0
  6
HCS_01
 62
     7
 10
6.821330547332764
 20
-5.601915836334229
 30
0.0099999997764826
 70
   192
  0
VERTEX
  5
5A2
  8
0
  6
HCS_01
 62
     7
 10
6.689679622650146
 20
-5.656145095825195
 30
0.0099999997764826
 70
   192
  0
VERTEX
  5
5A3
  8
0
  6
HCS_01
 62
     7
 10
6.763179302215576
 20
-5.704746723175049
 30
0.0099999997764826
 70
   192
  0
VERTEX
  5
5A4
  8
0
  6
HCS_01
 62
     7
 10
6.71287202835083
 20
-5.497209072113037
 30
0.0099999997764826
 70
   192
  0
VERTEX
  5
5A5
  8
0
  6
HCS_01
 62
     7
 10
6.689679622650146
 20
-5.656145095825195
 30
0.0099999997764826
 70
   192
  0
VERTEX
  5
5A6
  8
0
  6
HCS_01
 62
     7
 10
6.71287202835083
 20
-5.497209072113037
 30
0.0099999997764826
 70
   192
  0
VERTEX
  5
5A7
  8
0
  6
HCS_01
 62
     7
 10
6.684051990509033
 20
-5.435647010803223
 30
0.0099999997764826
 70
   192
  0
VERTEX
  5
5A8
  8
0
  6
HCS_01
 62
     7
 10
6.689679622650146
 20
-5.656145095825195
 30
0.0099999997764826
 70
   192
  0
VERTEX
  5
5A9
  8
0
  6
HCS_01
 62
     7
 10
6.684051990509033
 20
-5.435647010803223
 30
0.0099999997764826
 70
   192
  0
VERTEX
  5
5AA
  8
0
  6
HCS_01
 62
     7
 10
6.667169570922852
 20
-5.384657859802246
 30
0.0099999997764826
 70
   192
  0
VERTEX
  5
5AB
  8
0
  6
HCS_01
 62
     7
 10
6.689679622650146
 20
-5.656145095825195
 30
0.0099999997764826
 70
   192
  0
VERTEX
  5
5AC
  8
0
  6
HCS_01
 62
     7
 10
6.667169570922852
 20
-5.384657859802246
 30
0.0099999997764826
 70
   192
  0
VERTEX
  5
5AD
  8
0
  6
HCS_01
 62
     7
 10
6.655914306640625
 20
-5.318832874298096
 30
0.0099999997764826
 70
   192
  0
VERTEX
  5
5AE
  8
0
  6
HCS_01
 62
     7
 10
7.456562519073486
 20
-5.389944553375244
 30
0.0099999997764826
 70
   192
  0
VERTEX
  5
5AF
  8
0
  6
HCS_01
 62
     7
 10
7.472080707550049
 20
-5.244821548461914
 30
0.0099999997764826
 70
   192
  0
VERTEX
  5
5B0
  8
0
  6
HCS_01
 62
     7
 10
7.465259552001953
 20
-5.14352560043335
 30
0.0099999997764826
 70
   192
  0
VERTEX
  5
5B1
  8
0
  6
HCS_01
 62
     7
 10
7.456562519073486
 20
-5.389944553375244
 30
0.0099999997764826
 70
   192
  0
VERTEX
  5
5B2
  8
0
  6
HCS_01
 62
     7
 10
7.465259552001953
 20
-5.14352560043335
 30
0.0099999997764826
 70
   192
  0
VERTEX
  5
5B3
  8
0
  6
HCS_01
 62
     7
 10
7.444795608520508
 20
-5.052461624145508
 30
0.0099999997764826
 70
   192
  0
VERTEX
  5
5B4
  8
0
  6
HCS_01
 62
     7
 10
7.456562519073486
 20
-5.389944553375244
 30
0.0099999997764826
 70
   192
  0
VERTEX
  5
5B5
  8
0
  6
HCS_01
 62
     7
 10
7.444795608520508
 20
-5.052461624145508
 30
0.0099999997764826
 70
   192
  0
VERTEX
  5
5B6
  8
0
  6
HCS_01
 62
     7
 10
7.414782047271729
 20
-4.981520175933838
 30
0.0099999997764826
 70
   192
  0
VERTEX
  5
5B7
  8
0
  6
HCS_01
 62
     7
 10
7.456562519073486
 20
-5.389944553375244
 30
0.0099999997764826
 70
   192
  0
VERTEX
  5
5B8
  8
0
  6
HCS_01
 62
     7
 10
7.414782047271729
 20
-4.981520175933838
 30
0.0099999997764826
 70
   192
  0
VERTEX
  5
5B9
  8
0
  6
HCS_01
 62
     7
 10
7.410006999969482
 20
-5.518355369567871
 30
0.0099999997764826
 70
   192
  0
VERTEX
  5
5BA
  8
0
  6
HCS_01
 62
     7
 10
6.99731969833374
 20
-5.761192798614502
 30
0.0099999997764826
 70
   192
  0
VERTEX
  5
5BB
  8
0
  6
HCS_01
 62
     7
 10
7.120017528533936
 20
-5.745844841003418
 30
0.0099999997764826
 70
   192
  0
VERTEX
  5
5BC
  8
0
  6
HCS_01
 62
     7
 10
7.128970146179199
 20
-5.621697425842285
 30
0.0099999997764826
 70
   192
  0
VERTEX
  5
5BD
  8
0
  6
HCS_01
 62
     7
 10
7.235723495483398
 20
-5.699801445007324
 30
0.0099999997764826
 70
   192
  0
VERTEX
  5
5BE
  8
0
  6
HCS_01
 62
     7
 10
7.128970146179199
 20
-5.621697425842285
 30
0.0099999997764826
 70
   192
  0
VERTEX
  5
5BF
  8
0
  6
HCS_01
 62
     7
 10
7.120017528533936
 20
-5.745844841003418
 30
0.0099999997764826
 70
   192
  0
VERTEX
  5
5C0
  8
0
  6
HCS_01
 62
     7
 10
7.128970146179199
 20
-5.621697425842285
 30
0.0099999997764826
 70
   192
  0
VERTEX
  5
5C1
  8
0
  6
HCS_01
 62
     7
 10
7.235723495483398
 20
-5.699801445007324
 30
0.0099999997764826
 70
   192
  0
VERTEX
  5
5C2
  8
0
  6
HCS_01
 62
     7
 10
7.238792896270752
 20
-5.542912006378174
 30
0.0099999997764826
 70
   192
  0
VERTEX
  5
5C3
  8
0
  6
HCS_01
 62
     7
 10
7.335399627685547
 20
-5.623744010925293
 30
0.0099999997764826
 70
   192
  0
VERTEX
  5
5C4
  8
0
  6
HCS_01
 62
     7
 10
7.238792896270752
 20
-5.542912006378174
 30
0.0099999997764826
 70
   192
  0
VERTEX
  5
5C5
  8
0
  6
HCS_01
 62
     7
 10
7.235723495483398
 20
-5.699801445007324
 30
0.0099999997764826
 70
   192
  0
VERTEX
  5
5C6
  8
0
  6
HCS_01
 62
     7
 10
7.238792896270752
 20
-5.542912006378174
 30
0.0099999997764826
 70
   192
  0
VERTEX
  5
5C7
  8
0
  6
HCS_01
 62
     7
 10
7.335399627685547
 20
-5.623744010925293
 30
0.0099999997764826
 70
   192
  0
VERTEX
  5
5C8
  8
0
  6
HCS_01
 62
     7
 10
7.311439514160156
 20
-5.416718006134033
 30
0.0099999997764826
 70
   192
  0
VERTEX
  5
5C9
  8
0
  6
HCS_01
 62
     7
 10
7.335655212402344
 20
-5.248232364654541
 30
0.0099999997764826
 70
   192
  0
VERTEX
  5
5CA
  8
0
  6
HCS_01
 62
     7
 10
7.311439514160156
 20
-5.416718006134033
 30
0.0099999997764826
 70
   192
  0
VERTEX
  5
5CB
  8
0
  6
HCS_01
 62
     7
 10
7.335399627685547
 20
-5.623744010925293
 30
0.0099999997764826
 70
   192
  0
VERTEX
  5
5CC
  8
0
  6
HCS_01
 62
     7
 10
6.821330547332764
 20
-5.601915836334229
 30
0.0099999997764826
 70
   192
  0
VERTEX
  5
5CD
  8
0
  6
HCS_01
 62
     7
 10
6.82678747177124
 20
-5.73459005355835
 30
0.0099999997764826
 70
   192
  0
VERTEX
  5
5CE
  8
0
  6
HCS_01
 62
     7
 10
6.867715358734131
 20
-5.625449180603027
 30
0.0099999997764826
 70
   192
  0
VERTEX
  5
5CF
  8
0
  6
HCS_01
 62
     7
 10
6.907619953155518
 20
-5.754542350769043
 30
0.0099999997764826
 70
   192
  0
VERTEX
  5
5D0
  8
0
  6
HCS_01
 62
     7
 10
6.867715358734131
 20
-5.625449180603027
 30
0.0099999997764826
 70
   192
  0
VERTEX
  5
5D1
  8
0
  6
HCS_01
 62
     7
 10
6.82678747177124
 20
-5.73459005355835
 30
0.0099999997764826
 70
   192
  0
VERTEX
  5
5D2
  8
0
  6
HCS_01
 62
     7
 10
6.867715358734131
 20
-5.625449180603027
 30
0.0099999997764826
 70
   192
  0
VERTEX
  5
5D3
  8
0
  6
HCS_01
 62
     7
 10
6.907619953155518
 20
-5.754542350769043
 30
0.0099999997764826
 70
   192
  0
VERTEX
  5
5D4
  8
0
  6
HCS_01
 62
     7
 10
6.928083419799805
 20
-5.642332077026367
 30
0.0099999997764826
 70
   192
  0
VERTEX
  5
5D5
  8
0
  6
HCS_01
 62
     7
 10
6.99731969833374
 20
-5.761192798614502
 30
0.0099999997764826
 70
   192
  0
VERTEX
  5
5D6
  8
0
  6
HCS_01
 62
     7
 10
6.928083419799805
 20
-5.642332077026367
 30
0.0099999997764826
 70
   192
  0
VERTEX
  5
5D7
  8
0
  6
HCS_01
 62
     7
 10
6.907619953155518
 20
-5.754542350769043
 30
0.0099999997764826
 70
   192
  0
VERTEX
  5
5D8
  8
0
  6
HCS_01
 62
     7
 10
6.928083419799805
 20
-5.642332077026367
 30
0.0099999997764826
 70
   192
  0
VERTEX
  5
5D9
  8
0
  6
HCS_01
 62
     7
 10
6.99731969833374
 20
-5.761192798614502
 30
0.0099999997764826
 70
   192
  0
VERTEX
  5
5DA
  8
0
  6
HCS_01
 62
     7
 10
6.993227005004883
 20
-5.64795970916748
 30
0.0099999997764826
 70
   192
  0
VERTEX
  5
5DB
  8
0
  6
HCS_01
 62
     7
 10
7.128970146179199
 20
-5.621697425842285
 30
0.0099999997764826
 70
   192
  0
VERTEX
  5
5DC
  8
0
  6
HCS_01
 62
     7
 10
6.993227005004883
 20
-5.64795970916748
 30
0.0099999997764826
 70
   192
  0
VERTEX
  5
5DD
  8
0
  6
HCS_01
 62
     7
 10
6.99731969833374
 20
-5.761192798614502
 30
0.0099999997764826
 70
   192
  0
VERTEX
  5
5DE
  8
0
  6
HCS_01
 62
     7
 10
7.365668773651123
 20
-4.899664878845215
 30
0.0099999997764826
 70
   192
  0
VERTEX
  5
5DF
  8
0
  6
HCS_01
 62
     7
 10
7.410006999969482
 20
-5.518355369567871
 30
0.0099999997764826
 70
   192
  0
VERTEX
  5
5E0
  8
0
  6
HCS_01
 62
     7
 10
7.414782047271729
 20
-4.981520175933838
 30
0.0099999997764826
 70
   192
  0
VERTEX
  5
5E1
  8
0
  6
HCS_01
 62
     7
 10
6.676548957824707
 20
-5.06789493560791
 30
0.0099999997764826
 70
   192
  0
VERTEX
  5
5E2
  8
0
  6
HCS_01
 62
     7
 10
6.650883674621582
 20
-4.865814208984375
 30
0.0099999997764826
 70
   192
  0
VERTEX
  5
5E3
  8
0
  6
HCS_01
 62
     7
 10
6.652162551879883
 20
-5.244139671325684
 30
0.0099999997764826
 70
   192
  0
VERTEX
  5
5E4
  8
0
  6
HCS_01
 62
     7
 10
8.323376655578613
 20
-5.744139671325684
 30
0.0099999997764826
 70
   192
  0
VERTEX
  5
5E5
  8
0
  6
HCS_01
 62
     7
 10
8.446160316467285
 20
-5.744139671325684
 30
0.0099999997764826
 70
   192
  0
VERTEX
  5
5E6
  8
0
  6
HCS_01
 62
     7
 10
8.323376655578613
 20
-4.961738586425781
 30
0.0099999997764826
 70
   192
  0
VERTEX
  5
5E7
  8
0
  6
HCS_01
 62
     7
 10
8.323718070983887
 20
-4.805872440338135
 30
0.0099999997764826
 70
   192
  0
VERTEX
  5
5E8
  8
0
  6
HCS_01
 62
     7
 10
8.323376655578613
 20
-4.961738586425781
 30
0.0099999997764826
 70
   192
  0
VERTEX
  5
5E9
  8
0
  6
HCS_01
 62
     7
 10
8.446160316467285
 20
-5.744139671325684
 30
0.0099999997764826
 70
   192
  0
VERTEX
  5
5EA
  8
0
  6
HCS_01
 62
     7
 10
8.323376655578613
 20
-4.961738586425781
 30
0.0099999997764826
 70
   192
  0
VERTEX
  5
5EB
  8
0
  6
HCS_01
 62
     7
 10
8.323718070983887
 20
-4.805872440338135
 30
0.0099999997764826
 70
   192
  0
VERTEX
  5
5EC
  8
0
  6
HCS_01
 62
     7
 10
8.27213191986084
 20
-5.004030704498291
 30
0.0099999997764826
 70
   192
  0
VERTEX
  5
5ED
  8
0
  6
HCS_01
 62
     7
 10
8.257892608642578
 20
-4.873744010925293
 30
0.0099999997764826
 70
   192
  0
VERTEX
  5
5EE
  8
0
  6
HCS_01
 62
     7
 10
8.27213191986084
 20
-5.004030704498291
 30
0.0099999997764826
 70
   192
  0
VERTEX
  5
5EF
  8
0
  6
HCS_01
 62
     7
 10
8.323718070983887
 20
-4.805872440338135
 30
0.0099999997764826
 70
   192
  0
VERTEX
  5
5F0
  8
0
  6
HCS_01
 62
     7
 10
8.27213191986084
 20
-5.004030704498291
 30
0.0099999997764826
 70
   192
  0
VERTEX
  5
5F1
  8
0
  6
HCS_01
 62
     7
 10
8.257892608642578
 20
-4.873744010925293
 30
0.0099999997764826
 70
   192
  0
VERTEX
  5
5F2
  8
0
  6
HCS_01
 62
     7
 10
8.207074165344238
 20
-5.046322345733643
 30
0.0099999997764826
 70
   192
  0
VERTEX
  5
5F3
  8
0
  6
HCS_01
 62
     7
 10
8.174331665039062
 20
-4.937522888183594
 30
0.0099999997764826
 70
   192
  0
VERTEX
  5
5F4
  8
0
  6
HCS_01
 62
     7
 10
8.207074165344238
 20
-5.046322345733643
 30
0.0099999997764826
 70
   192
  0
VERTEX
  5
5F5
  8
0
  6
HCS_01
 62
     7
 10
8.257892608642578
 20
-4.873744010925293
 30
0.0099999997764826
 70
   192
  0
VERTEX
  5
5F6
  8
0
  6
HCS_01
 62
     7
 10
8.207074165344238
 20
-5.046322345733643
 30
0.0099999997764826
 70
   192
  0
VERTEX
  5
5F7
  8
0
  6
HCS_01
 62
     7
 10
8.174331665039062
 20
-4.937522888183594
 30
0.0099999997764826
 70
   192
  0
VERTEX
  5
5F8
  8
0
  6
HCS_01
 62
     7
 10
8.138775825500488
 20
-5.083327770233154
 30
0.0099999997764826
 70
   192
  0
VERTEX
  5
5F9
  8
0
  6
HCS_01
 62
     7
 10
8.077810287475586
 20
-4.99107027053833
 30
0.0099999997764826
 70
   192
  0
VERTEX
  5
5FA
  8
0
  6
HCS_01
 62
     7
 10
8.138775825500488
 20
-5.083327770233154
 30
0.0099999997764826
 70
   192
  0
VERTEX
  5
5FB
  8
0
  6
HCS_01
 62
     7
 10
8.174331665039062
 20
-4.937522888183594
 30
0.0099999997764826
 70
   192
  0
VERTEX
  5
5FC
  8
0
  6
HCS_01
 62
     7
 10
8.138775825500488
 20
-5.083327770233154
 30
0.0099999997764826
 70
   192
  0
VERTEX
  5
5FD
  8
0
  6
HCS_01
 62
     7
 10
8.077810287475586
 20
-4.99107027053833
 30
0.0099999997764826
 70
   192
  0
VERTEX
  5
5FE
  8
0
  6
HCS_01
 62
     7
 10
8.077810287475586
 20
-5.109760284423828
 30
0.0099999997764826
 70
   192
  0
VERTEX
  5
5FF
  8
0
  6
HCS_01
 62
     7
 10
8.367033004760742
 20
-4.740046977996826
 30
0.0099999997764826
 70
   192
  0
VERTEX
  5
600
  8
0
  6
HCS_01
 62
     7
 10
8.323718070983887
 20
-4.805872440338135
 30
0.0099999997764826
 70
   192
  0
VERTEX
  5
601
  8
0
  6
HCS_01
 62
     7
 10
8.446160316467285
 20
-5.744139671325684
 30
0.0099999997764826
 70
   192
  0
VERTEX
  5
602
  8
0
  6
HCS_01
 62
     7
 10
8.367033004760742
 20
-4.740046977996826
 30
0.0099999997764826
 70
   192
  0
VERTEX
  5
603
  8
0
  6
HCS_01
 62
     7
 10
8.446160316467285
 20
-5.744139671325684
 30
0.0099999997764826
 70
   192
  0
VERTEX
  5
604
  8
0
  6
HCS_01
 62
     7
 10
8.446160316467285
 20
-4.740046977996826
 30
0.0099999997764826
 70
   192
  0
VERTEX
  5
605
  8
0
  6
HCS_01
 62
     7
 10
8.829516410827637
 20
-5.744139671325684
 30
0.0099999997764826
 70
   192
  0
VERTEX
  5
606
  8
0
  6
HCS_01
 62
     7
 10
8.969352722167969
 20
-5.744139671325684
 30
0.0099999997764826
 70
   192
  0
VERTEX
  5
607
  8
0
  6
HCS_01
 62
     7
 10
8.969352722167969
 20
-5.604303359985352
 30
0.0099999997764826
 70
   192
  0
VERTEX
  5
608
  8
0
  6
HCS_01
 62
     7
 10
8.829516410827637
 20
-5.744139671325684
 30
0.0099999997764826
 70
   192
  0
VERTEX
  5
609
  8
0
  6
HCS_01
 62
     7
 10
8.969352722167969
 20
-5.604303359985352
 30
0.0099999997764826
 70
   192
  0
VERTEX
  5
60A
  8
0
  6
HCS_01
 62
     7
 10
8.829516410827637
 20
-5.604303359985352
 30
0.0099999997764826
 70
   192
  0
VERTEX
  5
60B
  8
0
  6
HCS_01
 62
     7
 10
9.764714241027832
 20
-4.875108242034912
 30
0.0099999997764826
 70
   192
  0
VERTEX
  5
60C
  8
0
  6
HCS_01
 62
     7
 10
9.764714241027832
 20
-4.757781982421875
 30
0.0099999997764826
 70
   192
  0
VERTEX
  5
60D
  8
0
  6
HCS_01
 62
     7
 10
9.365669250488281
 20
-4.875108242034912
 30
0.0099999997764826
 70
   192
  0
VERTEX
  5
60E
  8
0
  6
HCS_01
 62
     7
 10
9.26744270324707
 20
-4.757781982421875
 30
0.0099999997764826
 70
   192
  0
VERTEX
  5
60F
  8
0
  6
HCS_01
 62
     7
 10
9.365669250488281
 20
-4.875108242034912
 30
0.0099999997764826
 70
   192
  0
VERTEX
  5
610
  8
0
  6
HCS_01
 62
     7
 10
9.764714241027832
 20
-4.757781982421875
 30
0.0099999997764826
 70
   192
  0
VERTEX
  5
611
  8
0
  6
HCS_01
 62
     7
 10
9.365669250488281
 20
-4.875108242034912
 30
0.0099999997764826
 70
   192
  0
VERTEX
  5
612
  8
0
  6
HCS_01
 62
     7
 10
9.26744270324707
 20
-4.757781982421875
 30
0.0099999997764826
 70
   192
  0
VERTEX
  5
613
  8
0
  6
HCS_01
 62
     7
 10
9.31178092956543
 20
-5.143867015838623
 30
0.0099999997764826
 70
   192
  0
VERTEX
  5
614
  8
0
  6
HCS_01
 62
     7
 10
9.285860061645508
 20
-5.286431789398193
 30
0.0099999997764826
 70
   192
  0
VERTEX
  5
615
  8
0
  6
HCS_01
 62
     7
 10
9.31178092956543
 20
-5.143867015838623
 30
0.0099999997764826
 70
   192
  0
VERTEX
  5
616
  8
0
  6
HCS_01
 62
     7
 10
9.26744270324707
 20
-4.757781982421875
 30
0.0099999997764826
 70
   192
  0
VERTEX
  5
617
  8
0
  6
HCS_01
 62
     7
 10
9.31178092956543
 20
-5.143867015838623
 30
0.0099999997764826
 70
   192
  0
VERTEX
  5
618
  8
0
  6
HCS_01
 62
     7
 10
9.285860061645508
 20
-5.286431789398193
 30
0.0099999997764826
 70
   192
  0
VERTEX
  5
619
  8
0
  6
HCS_01
 62
     7
 10
9.31826114654541
 20
-5.247465133666992
 30
0.0099999997764826
 70
   192
  0
VERTEX
  5
61A
  8
0
  6
HCS_01
 62
     7
 10
9.411541938781738
 20
-5.196305274963379
 30
0.0099999997764826
 70
   192
  0
VERTEX
  5
61B
  8
0
  6
HCS_01
 62
     7
 10
9.467988014221191
 20
-5.189569473266602
 30
0.0099999997764826
 70
   192
  0
VERTEX
  5
61C
  8
0
  6
HCS_01
 62
     7
 10
9.500730514526367
 20
-5.081110954284668
 30
0.0099999997764826
 70
   192
  0
VERTEX
  5
61D
  8
0
  6
HCS_01
 62
     7
 10
9.554362297058105
 20
-5.204746723175049
 30
0.0099999997764826
 70
   192
  0
VERTEX
  5
61E
  8
0
  6
HCS_01
 62
     7
 10
9.500730514526367
 20
-5.081110954284668
 30
0.0099999997764826
 70
   192
  0
VERTEX
  5
61F
  8
0
  6
HCS_01
 62
     7
 10
9.467988014221191
 20
-5.189569473266602
 30
0.0099999997764826
 70
   192
  0
VERTEX
  5
620
  8
0
  6
HCS_01
 62
     7
 10
9.500730514526367
 20
-5.081110954284668
 30
0.0099999997764826
 70
   192
  0
VERTEX
  5
621
  8
0
  6
HCS_01
 62
     7
 10
9.554362297058105
 20
-5.204746723175049
 30
0.0099999997764826
 70
   192
  0
VERTEX
  5
622
  8
0
  6
HCS_01
 62
     7
 10
9.621466636657715
 20
-5.1037917137146
 30
0.0099999997764826
 70
   192
  0
VERTEX
  5
623
  8
0
  6
HCS_01
 62
     7
 10
9.622489929199219
 20
-5.250278949737549
 30
0.0099999997764826
 70
   192
  0
VERTEX
  5
624
  8
0
  6
HCS_01
 62
     7
 10
9.621466636657715
 20
-5.1037917137146
 30
0.0099999997764826
 70
   192
  0
VERTEX
  5
625
  8
0
  6
HCS_01
 62
     7
 10
9.554362297058105
 20
-5.204746723175049
 30
0.0099999997764826
 70
   192
  0
VERTEX
  5
626
  8
0
  6
HCS_01
 62
     7
 10
9.621466636657715
 20
-5.1037917137146
 30
0.0099999997764826
 70
   192
  0
VERTEX
  5
627
  8
0
  6
HCS_01
 62
     7
 10
9.622489929199219
 20
-5.250278949737549
 30
0.0099999997764826
 70
   192
  0
VERTEX
  5
628
  8
0
  6
HCS_01
 62
     7
 10
9.721739768981934
 20
-5.171833992004395
 30
0.0099999997764826
 70
   192
  0
VERTEX
  5
629
  8
0
  6
HCS_01
 62
     7
 10
9.666743278503418
 20
-5.322072982788086
 30
0.0099999997764826
 70
   192
  0
VERTEX
  5
62A
  8
0
  6
HCS_01
 62
     7
 10
9.721739768981934
 20
-5.171833992004395
 30
0.0099999997764826
 70
   192
  0
VERTEX
  5
62B
  8
0
  6
HCS_01
 62
     7
 10
9.622489929199219
 20
-5.250278949737549
 30
0.0099999997764826
 70
   192
  0
VERTEX
  5
62C
  8
0
  6
HCS_01
 62
     7
 10
9.721739768981934
 20
-5.171833992004395
 30
0.0099999997764826
 70
   192
  0
VERTEX
  5
62D
  8
0
  6
HCS_01
 62
     7
 10
9.666743278503418
 20
-5.322072982788086
 30
0.0099999997764826
 70
   192
  0
VERTEX
  5
62E
  8
0
  6
HCS_01
 62
     7
 10
9.681493759155273
 20
-5.416036128997803
 30
0.0099999997764826
 70
   192
  0
VERTEX
  5
62F
  8
0
  6
HCS_01
 62
     7
 10
9.404038429260254
 20
-5.096799850463867
 30
0.0099999997764826
 70
   192
  0
VERTEX
  5
630
  8
0
  6
HCS_01
 62
     7
 10
9.31178092956543
 20
-5.143867015838623
 30
0.0099999997764826
 70
   192
  0
VERTEX
  5
631
  8
0
  6
HCS_01
 62
     7
 10
9.31826114654541
 20
-5.247465133666992
 30
0.0099999997764826
 70
   192
  0
VERTEX
  5
632
  8
0
  6
HCS_01
 62
     7
 10
9.404038429260254
 20
-5.096799850463867
 30
0.0099999997764826
 70
   192
  0
VERTEX
  5
633
  8
0
  6
HCS_01
 62
     7
 10
9.31826114654541
 20
-5.247465133666992
 30
0.0099999997764826
 70
   192
  0
VERTEX
  5
634
  8
0
  6
HCS_01
 62
     7
 10
9.360894203186035
 20
-5.216513633728027
 30
0.0099999997764826
 70
   192
  0
VERTEX
  5
635
  8
0
  6
HCS_01
 62
     7
 10
9.404038429260254
 20
-5.096799850463867
 30
0.0099999997764826
 70
   192
  0
VERTEX
  5
636
  8
0
  6
HCS_01
 62
     7
 10
9.360894203186035
 20
-5.216513633728027
 30
0.0099999997764826
 70
   192
  0
VERTEX
  5
637
  8
0
  6
HCS_01
 62
     7
 10
9.411541938781738
 20
-5.196305274963379
 30
0.0099999997764826
 70
   192
  0
VERTEX
  5
638
  8
0
  6
HCS_01
 62
     7
 10
9.404038429260254
 20
-5.096799850463867
 30
0.0099999997764826
 70
   192
  0
VERTEX
  5
639
  8
0
  6
HCS_01
 62
     7
 10
9.411541938781738
 20
-5.196305274963379
 30
0.0099999997764826
 70
   192
  0
VERTEX
  5
63A
  8
0
  6
HCS_01
 62
     7
 10
9.500730514526367
 20
-5.081110954284668
 30
0.0099999997764826
 70
   192
  0
VERTEX
  5
63B
  8
0
  6
HCS_01
 62
     7
 10
9.789270401000977
 20
-5.275517463684082
 30
0.0099999997764826
 70
   192
  0
VERTEX
  5
63C
  8
0
  6
HCS_01
 62
     7
 10
9.721739768981934
 20
-5.171833992004395
 30
0.0099999997764826
 70
   192
  0
VERTEX
  5
63D
  8
0
  6
HCS_01
 62
     7
 10
9.732653617858887
 20
-5.639773845672607
 30
0.0099999997764826
 70
   192
  0
VERTEX
  5
63E
  8
0
  6
HCS_01
 62
     7
 10
9.789270401000977
 20
-5.275517463684082
 30
0.0099999997764826
 70
   192
  0
VERTEX
  5
63F
  8
0
  6
HCS_01
 62
     7
 10
9.732653617858887
 20
-5.639773845672607
 30
0.0099999997764826
 70
   192
  0
VERTEX
  5
640
  8
0
  6
HCS_01
 62
     7
 10
9.791998863220215
 20
-5.531656742095947
 30
0.0099999997764826
 70
   192
  0
VERTEX
  5
641
  8
0
  6
HCS_01
 62
     7
 10
9.789270401000977
 20
-5.275517463684082
 30
0.0099999997764826
 70
   192
  0
VERTEX
  5
642
  8
0
  6
HCS_01
 62
     7
 10
9.791998863220215
 20
-5.531656742095947
 30
0.0099999997764826
 70
   192
  0
VERTEX
  5
643
  8
0
  6
HCS_01
 62
     7
 10
9.81178092956543
 20
-5.405121803283691
 30
0.0099999997764826
 70
   192
  0
VERTEX
  5
644
  8
0
  6
HCS_01
 62
     7
 10
9.732653617858887
 20
-5.639773845672607
 30
0.0099999997764826
 70
   192
  0
VERTEX
  5
645
  8
0
  6
HCS_01
 62
     7
 10
9.721739768981934
 20
-5.171833992004395
 30
0.0099999997764826
 70
   192
  0
VERTEX
  5
646
  8
0
  6
HCS_01
 62
     7
 10
9.681493759155273
 20
-5.416036128997803
 30
0.0099999997764826
 70
   192
  0
VERTEX
  5
647
  8
0
  6
HCS_01
 62
     7
 10
9.732653617858887
 20
-5.639773845672607
 30
0.0099999997764826
 70
   192
  0
VERTEX
  5
648
  8
0
  6
HCS_01
 62
     7
 10
9.681493759155273
 20
-5.416036128997803
 30
0.0099999997764826
 70
   192
  0
VERTEX
  5
649
  8
0
  6
HCS_01
 62
     7
 10
9.666146278381348
 20
-5.515626907348633
 30
0.0099999997764826
 70
   192
  0
VERTEX
  5
64A
  8
0
  6
HCS_01
 62
     7
 10
9.732653617858887
 20
-5.639773845672607
 30
0.0099999997764826
 70
   192
  0
VERTEX
  5
64B
  8
0
  6
HCS_01
 62
     7
 10
9.666146278381348
 20
-5.515626907348633
 30
0.0099999997764826
 70
   192
  0
VERTEX
  5
64C
  8
0
  6
HCS_01
 62
     7
 10
9.620102882385254
 20
-5.593389511108398
 30
0.0099999997764826
 70
   192
  0
VERTEX
  5
64D
  8
0
  6
HCS_01
 62
     7
 10
9.732653617858887
 20
-5.639773845672607
 30
0.0099999997764826
 70
   192
  0
VERTEX
  5
64E
  8
0
  6
HCS_01
 62
     7
 10
9.620102882385254
 20
-5.593389511108398
 30
0.0099999997764826
 70
   192
  0
VERTEX
  5
64F
  8
0
  6
HCS_01
 62
     7
 10
9.618908882141113
 20
-5.730838298797607
 30
0.0099999997764826
 70
   192
  0
VERTEX
  5
650
  8
0
  6
HCS_01
 62
     7
 10
9.620102882385254
 20
-5.593389511108398
 30
0.0099999997764826
 70
   192
  0
VERTEX
  5
651
  8
0
  6
HCS_01
 62
     7
 10
9.551889419555664
 20
-5.64352560043335
 30
0.0099999997764826
 70
   192
  0
VERTEX
  5
652
  8
0
  6
HCS_01
 62
     7
 10
9.618908882141113
 20
-5.730838298797607
 30
0.0099999997764826
 70
   192
  0
VERTEX
  5
653
  8
0
  6
HCS_01
 62
     7
 10
9.4700345993042
 20
-5.660237789154053
 30
0.0099999997764826
 70
   192
  0
VERTEX
  5
654
  8
0
  6
HCS_01
 62
     7
 10
9.618908882141113
 20
-5.730838298797607
 30
0.0099999997764826
 70
   192
  0
VERTEX
  5
655
  8
0
  6
HCS_01
 62
     7
 10
9.551889419555664
 20
-5.64352560043335
 30
0.0099999997764826
 70
   192
  0
VERTEX
  5
656
  8
0
  6
HCS_01
 62
     7
 10
9.618908882141113
 20
-5.730838298797607
 30
0.0099999997764826
 70
   192
  0
VERTEX
  5
657
  8
0
  6
HCS_01
 62
     7
 10
9.4700345993042
 20
-5.660237789154053
 30
0.0099999997764826
 70
   192
  0
VERTEX
  5
658
  8
0
  6
HCS_01
 62
     7
 10
9.4700345993042
 20
-5.761192798614502
 30
0.0099999997764826
 70
   192
  0
VERTEX
  5
659
  8
0
  6
HCS_01
 62
     7
 10
9.40173625946045
 20
-5.648386001586914
 30
0.0099999997764826
 70
   192
  0
VERTEX
  5
65A
  8
0
  6
HCS_01
 62
     7
 10
9.4700345993042
 20
-5.761192798614502
 30
0.0099999997764826
 70
   192
  0
VERTEX
  5
65B
  8
0
  6
HCS_01
 62
     7
 10
9.4700345993042
 20
-5.660237789154053
 30
0.0099999997764826
 70
   192
  0
VERTEX
  5
65C
  8
0
  6
HCS_01
 62
     7
 10
9.4700345993042
 20
-5.761192798614502
 30
0.0099999997764826
 70
   192
  0
VERTEX
  5
65D
  8
0
  6
HCS_01
 62
     7
 10
9.40173625946045
 20
-5.648386001586914
 30
0.0099999997764826
 70
   192
  0
VERTEX
  5
65E
  8
0
  6
HCS_01
 62
     7
 10
9.346142768859863
 20
-5.742093086242676
 30
0.0099999997764826
 70
   192
  0
VERTEX
  5
65F
  8
0
  6
HCS_01
 62
     7
 10
9.344182014465332
 20
-5.61283016204834
 30
0.0099999997764826
 70
   192
  0
VERTEX
  5
660
  8
0
  6
HCS_01
 62
     7
 10
9.346142768859863
 20
-5.742093086242676
 30
0.0099999997764826
 70
   192
  0
VERTEX
  5
661
  8
0
  6
HCS_01
 62
     7
 10
9.40173625946045
 20
-5.648386001586914
 30
0.0099999997764826
 70
   192
  0
VERTEX
  5
662
  8
0
  6
HCS_01
 62
     7
 10
9.346142768859863
 20
-5.742093086242676
 30
0.0099999997764826
 70
   192
  0
VERTEX
  5
663
  8
0
  6
HCS_01
 62
     7
 10
9.344182014465332
 20
-5.61283016204834
 30
0.0099999997764826
 70
   192
  0
VERTEX
  5
664
  8
0
  6
HCS_01
 62
     7
 10
9.301464080810547
 20
-5.553740501403809
 30
0.0099999997764826
 70
   192
  0
VERTEX
  5
665
  8
0
  6
HCS_01
 62
     7
 10
9.277674674987793
 20
-5.471288204193115
 30
0.0099999997764826
 70
   192
  0
VERTEX
  5
666
  8
0
  6
HCS_01
 62
     7
 10
9.148752212524414
 20
-5.482202529907227
 30
0.0099999997764826
 70
   192
  0
VERTEX
  5
667
  8
0
  6
HCS_01
 62
     7
 10
9.179533004760742
 20
-5.595947265625
 30
0.0099999997764826
 70
   192
  0
VERTEX
  5
668
  8
0
  6
HCS_01
 62
     7
 10
9.277674674987793
 20
-5.471288204193115
 30
0.0099999997764826
 70
   192
  0
VERTEX
  5
669
  8
0
  6
HCS_01
 62
     7
 10
9.179533004760742
 20
-5.595947265625
 30
0.0099999997764826
 70
   192
  0
VERTEX
  5
66A
  8
0
  6
HCS_01
 62
     7
 10
9.247320175170898
 20
-5.684794425964355
 30
0.0099999997764826
 70
   192
  0
VERTEX
  5
66B
  8
0
  6
HCS_01
 62
     7
 10
9.277674674987793
 20
-5.471288204193115
 30
0.0099999997764826
 70
   192
  0
VERTEX
  5
66C
  8
0
  6
HCS_01
 62
     7
 10
9.247320175170898
 20
-5.684794425964355
 30
0.0099999997764826
 70
   192
  0
VERTEX
  5
66D
  8
0
  6
HCS_01
 62
     7
 10
9.346142768859863
 20
-5.742093086242676
 30
0.0099999997764826
 70
   192
  0
VERTEX
  5
66E
  8
0
  6
HCS_01
 62
     7
 10
9.277674674987793
 20
-5.471288204193115
 30
0.0099999997764826
 70
   192
  0
VERTEX
  5
66F
  8
0
  6
HCS_01
 62
     7
 10
9.346142768859863
 20
-5.742093086242676
 30
0.0099999997764826
 70
   192
  0
VERTEX
  5
670
  8
0
  6
HCS_01
 62
     7
 10
9.301464080810547
 20
-5.553740501403809
 30
0.0099999997764826
 70
   192
  0
VERTEX
  5
671
  8
0
  6
HCS_01
 62
     7
 10
9.285860061645508
 20
-5.286431789398193
 30
0.0099999997764826
 70
   192
  0
VERTEX
  5
672
  8
0
  6
HCS_01
 62
     7
 10
9.26744270324707
 20
-4.757781982421875
 30
0.0099999997764826
 70
   192
  0
VERTEX
  5
673
  8
0
  6
HCS_01
 62
     7
 10
9.17057991027832
 20
-5.271424770355225
 30
0.0099999997764826
 70
   192
  0
VERTEX
  5
674
  8
0
  6
HCS_01
 62
     7
 10
10.57781028747559
 20
-5.250960826873779
 30
0.0099999997764826
 70
   192
  0
VERTEX
  5
675
  8
0
  6
HCS_01
 62
     7
 10
10.57218360900879
 20
-5.117519378662109
 30
0.0099999997764826
 70
   192
  0
VERTEX
  5
676
  8
0
  6
HCS_01
 62
     7
 10
10.56877326965332
 20
-5.409982204437256
 30
0.0099999997764826
 70
   192
  0
VERTEX
  5
677
  8
0
  6
HCS_01
 62
     7
 10
10.55530071258545
 20
-5.014603614807129
 30
0.0099999997764826
 70
   192
  0
VERTEX
  5
678
  8
0
  6
HCS_01
 62
     7
 10
10.56877326965332
 20
-5.409982204437256
 30
0.0099999997764826
 70
   192
  0
VERTEX
  5
679
  8
0
  6
HCS_01
 62
     7
 10
10.57218360900879
 20
-5.117519378662109
 30
0.0099999997764826
 70
   192
  0
VERTEX
  5
67A
  8
0
  6
HCS_01
 62
     7
 10
10.56877326965332
 20
-5.409982204437256
 30
0.0099999997764826
 70
   192
  0
VERTEX
  5
67B
  8
0
  6
HCS_01
 62
     7
 10
10.55530071258545
 20
-5.014603614807129
 30
0.0099999997764826
 70
   192
  0
VERTEX
  5
67C
  8
0
  6
HCS_01
 62
     7
 10
10.54165840148926
 20
-5.535067558288574
 30
0.0099999997764826
 70
   192
  0
VERTEX
  5
67D
  8
0
  6
HCS_01
 62
     7
 10
10.52852725982666
 20
-4.933600902557373
 30
0.0099999997764826
 70
   192
  0
VERTEX
  5
67E
  8
0
  6
HCS_01
 62
     7
 10
10.54165840148926
 20
-5.535067558288574
 30
0.0099999997764826
 70
   192
  0
VERTEX
  5
67F
  8
0
  6
HCS_01
 62
     7
 10
10.55530071258545
 20
-5.014603614807129
 30
0.0099999997764826
 70
   192
  0
VERTEX
  5
680
  8
0
  6
HCS_01
 62
     7
 10
10.54165840148926
 20
-5.535067558288574
 30
0.0099999997764826
 70
   192
  0
VERTEX
  5
681
  8
0
  6
HCS_01
 62
     7
 10
10.52852725982666
 20
-4.933600902557373
 30
0.0099999997764826
 70
   192
  0
VERTEX
  5
682
  8
0
  6
HCS_01
 62
     7
 10
10.49655246734619
 20
-5.630906581878662
 30
0.0099999997764826
 70
   192
  0
VERTEX
  5
683
  8
0
  6
HCS_01
 62
     7
 10
10.49322700500488
 20
-4.865899562835693
 30
0.0099999997764826
 70
   192
  0
VERTEX
  5
684
  8
0
  6
HCS_01
 62
     7
 10
10.49655246734619
 20
-5.630906581878662
 30
0.0099999997764826
 70
   192
  0
VERTEX
  5
685
  8
0
  6
HCS_01
 62
     7
 10
10.52852725982666
 20
-4.933600902557373
 30
0.0099999997764826
 70
   192
  0
VERTEX
  5
686
  8
0
  6
HCS_01
 62
     7
 10
10.49655246734619
 20
-5.630906581878662
 30
0.0099999997764826
 70
   192
  0
VERTEX
  5
687
  8
0
  6
HCS_01
 62
     7
 10
10.49322700500488
 20
-4.865899562835693
 30
0.0099999997764826
 70
   192
  0
VERTEX
  5
688
  8
0
  6
HCS_01
 62
     7
 10
10.45161724090576
 20
-5.250960826873779
 30
0.0099999997764826
 70
   192
  0
VERTEX
  5
689
  8
0
  6
HCS_01
 62
     7
 10
10.44837760925293
 20
-4.812011241912842
 30
0.0099999997764826
 70
   192
  0
VERTEX
  5
68A
  8
0
  6
HCS_01
 62
     7
 10
10.45161724090576
 20
-5.250960826873779
 30
0.0099999997764826
 70
   192
  0
VERTEX
  5
68B
  8
0
  6
HCS_01
 62
     7
 10
10.49322700500488
 20
-4.865899562835693
 30
0.0099999997764826
 70
   192
  0
VERTEX
  5
68C
  8
0
  6
HCS_01
 62
     7
 10
10.45161724090576
 20
-5.250960826873779
 30
0.0099999997764826
 70
   192
  0
VERTEX
  5
68D
  8
0
  6
HCS_01
 62
     7
 10
10.44837760925293
 20
-4.812011241912842
 30
0.0099999997764826
 70
   192
  0
VERTEX
  5
68E
  8
0
  6
HCS_01
 62
     7
 10
10.43720722198486
 20
-5.045469760894775
 30
0.0099999997764826
 70
   192
  0
VERTEX
  5
68F
  8
0
  6
HCS_01
 62
     7
 10
10.39397716522217
 20
-4.922857284545898
 30
0.0099999997764826
 70
   192
  0
VERTEX
  5
690
  8
0
  6
HCS_01
 62
     7
 10
10.43720722198486
 20
-5.045469760894775
 30
0.0099999997764826
 70
   192
  0
VERTEX
  5
691
  8
0
  6
HCS_01
 62
     7
 10
10.44837760925293
 20
-4.812011241912842
 30
0.0099999997764826
 70
   192
  0
VERTEX
  5
692
  8
0
  6
HCS_01
 62
     7
 10
10.39295387268066
 20
-4.772448062896729
 30
0.0099999997764826
 70
   192
  0
VERTEX
  5
693
  8
0
  6
HCS_01
 62
     7
 10
10.32729911804199
 20
-4.748147010803223
 30
0.0099999997764826
 70
   192
  0
VERTEX
  5
694
  8
0
  6
HCS_01
 62
     7
 10
10.32925987243652
 20
-4.861977577209473
 30
0.0099999997764826
 70
   192
  0
VERTEX
  5
695
  8
0
  6
HCS_01
 62
     7
 10
10.39295387268066
 20
-4.772448062896729
 30
0.0099999997764826
 70
   192
  0
VERTEX
  5
696
  8
0
  6
HCS_01
 62
     7
 10
10.32925987243652
 20
-4.861977577209473
 30
0.0099999997764826
 70
   192
  0
VERTEX
  5
697
  8
0
  6
HCS_01
 62
     7
 10
10.39397716522217
 20
-4.922857284545898
 30
0.0099999997764826
 70
   192
  0
VERTEX
  5
698
  8
0
  6
HCS_01
 62
     7
 10
10.39295387268066
 20
-4.772448062896729
 30
0.0099999997764826
 70
   192
  0
VERTEX
  5
699
  8
0
  6
HCS_01
 62
     7
 10
10.39397716522217
 20
-4.922857284545898
 30
0.0099999997764826
 70
   192
  0
VERTEX
  5
69A
  8
0
  6
HCS_01
 62
     7
 10
10.44837760925293
 20
-4.812011241912842
 30
0.0099999997764826
 70
   192
  0
VERTEX
  5
69B
  8
0
  6
HCS_01
 62
     7
 10
10.25175380706787
 20
-4.740046977996826
 30
0.0099999997764826
 70
   192
  0
VERTEX
  5
69C
  8
0
  6
HCS_01
 62
     7
 10
10.15190696716309
 20
-4.754712581634521
 30
0.0099999997764826
 70
   192
  0
VERTEX
  5
69D
  8
0
  6
HCS_01
 62
     7
 10
10.17433166503906
 20
-4.85959005355835
 30
0.0099999997764826
 70
   192
  0
VERTEX
  5
69E
  8
0
  6
HCS_01
 62
     7
 10
10.25175380706787
 20
-4.740046977996826
 30
0.0099999997764826
 70
   192
  0
VERTEX
  5
69F
  8
0
  6
HCS_01
 62
     7
 10
10.17433166503906
 20
-4.85959005355835
 30
0.0099999997764826
 70
   192
  0
VERTEX
  5
6A0
  8
0
  6
HCS_01
 62
     7
 10
10.25038909912109
 20
-4.841683864593506
 30
0.0099999997764826
 70
   192
  0
VERTEX
  5
6A1
  8
0
  6
HCS_01
 62
     7
 10
10.25175380706787
 20
-4.740046977996826
 30
0.0099999997764826
 70
   192
  0
VERTEX
  5
6A2
  8
0
  6
HCS_01
 62
     7
 10
10.25038909912109
 20
-4.841683864593506
 30
0.0099999997764826
 70
   192
  0
VERTEX
  5
6A3
  8
0
  6
HCS_01
 62
     7
 10
10.32925987243652
 20
-4.861977577209473
 30
0.0099999997764826
 70
   192
  0
VERTEX
  5
6A4
  8
0
  6
HCS_01
 62
     7
 10
10.25175380706787
 20
-4.740046977996826
 30
0.0099999997764826
 70
   192
  0
VERTEX
  5
6A5
  8
0
  6
HCS_01
 62
     7
 10
10.32925987243652
 20
-4.861977577209473
 30
0.0099999997764826
 70
   192
  0
VERTEX
  5
6A6
  8
0
  6
HCS_01
 62
     7
 10
10.32729911804199
 20
-4.748147010803223
 30
0.0099999997764826
 70
   192
  0
VERTEX
  5
6A7
  8
0
  6
HCS_01
 62
     7
 10
10.05188941955566
 20
-5.250960826873779
 30
0.0099999997764826
 70
   192
  0
VERTEX
  5
6A8
  8
0
  6
HCS_01
 62
     7
 10
10.0677490234375
 20
-5.043423652648926
 30
0.0099999997764826
 70
   192
  0
VERTEX
  5
6A9
  8
0
  6
HCS_01
 62
     7
 10
10.07064819335938
 20
-4.798709869384766
 30
0.0099999997764826
 70
   192
  0
VERTEX
  5
6AA
  8
0
  6
HCS_01
 62
     7
 10
10.11532783508301
 20
-4.913307666778564
 30
0.0099999997764826
 70
   192
  0
VERTEX
  5
6AB
  8
0
  6
HCS_01
 62
     7
 10
10.07064819335938
 20
-4.798709869384766
 30
0.0099999997764826
 70
   192
  0
VERTEX
  5
6AC
  8
0
  6
HCS_01
 62
     7
 10
10.0677490234375
 20
-5.043423652648926
 30
0.0099999997764826
 70
   192
  0
VERTEX
  5
6AD
  8
0
  6
HCS_01
 62
     7
 10
10.07064819335938
 20
-4.798709869384766
 30
0.0099999997764826
 70
   192
  0
VERTEX
  5
6AE
  8
0
  6
HCS_01
 62
     7
 10
10.11532783508301
 20
-4.913307666778564
 30
0.0099999997764826
 70
   192
  0
VERTEX
  5
6AF
  8
0
  6
HCS_01
 62
     7
 10
10.15190696716309
 20
-4.754712581634521
 30
0.0099999997764826
 70
   192
  0
VERTEX
  5
6B0
  8
0
  6
HCS_01
 62
     7
 10
10.17433166503906
 20
-4.85959005355835
 30
0.0099999997764826
 70
   192
  0
VERTEX
  5
6B1
  8
0
  6
HCS_01
 62
     7
 10
10.15190696716309
 20
-4.754712581634521
 30
0.0099999997764826
 70
   192
  0
VERTEX
  5
6B2
  8
0
  6
HCS_01
 62
     7
 10
10.11532783508301
 20
-4.913307666778564
 30
0.0099999997764826
 70
   192
  0
VERTEX
  5
6B3
  8
0
  6
HCS_01
 62
     7
 10
10.02460479736328
 20
-5.657509326934814
 30
0.0099999997764826
 70
   192
  0
VERTEX
  5
6B4
  8
0
  6
HCS_01
 62
     7
 10
10.12266063690186
 20
-5.73527193069458
 30
0.0099999997764826
 70
   192
  0
VERTEX
  5
6B5
  8
0
  6
HCS_01
 62
     7
 10
10.06629943847656
 20
-5.45602560043335
 30
0.0099999997764826
 70
   192
  0
VERTEX
  5
6B6
  8
0
  6
HCS_01
 62
     7
 10
10.02460479736328
 20
-5.657509326934814
 30
0.0099999997764826
 70
   192
  0
VERTEX
  5
6B7
  8
0
  6
HCS_01
 62
     7
 10
10.06629943847656
 20
-5.45602560043335
 30
0.0099999997764826
 70
   192
  0
VERTEX
  5
6B8
  8
0
  6
HCS_01
 62
     7
 10
10.05188941955566
 20
-5.250960826873779
 30
0.0099999997764826
 70
   192
  0
VERTEX
  5
6B9
  8
0
  6
HCS_01
 62
     7
 10
10.02460479736328
 20
-5.657509326934814
 30
0.0099999997764826
 70
   192
  0
VERTEX
  5
6BA
  8
0
  6
HCS_01
 62
     7
 10
10.05188941955566
 20
-5.250960826873779
 30
0.0099999997764826
 70
   192
  0
VERTEX
  5
6BB
  8
0
  6
HCS_01
 62
     7
 10
10.07064819335938
 20
-4.798709869384766
 30
0.0099999997764826
 70
   192
  0
VERTEX
  5
6BC
  8
0
  6
HCS_01
 62
     7
 10
10.02460479736328
 20
-5.657509326934814
 30
0.0099999997764826
 70
   192
  0
VERTEX
  5
6BD
  8
0
  6
HCS_01
 62
     7
 10
10.07064819335938
 20
-4.798709869384766
 30
0.0099999997764826
 70
   192
  0
VERTEX
  5
6BE
  8
0
  6
HCS_01
 62
     7
 10
10.0075511932373
 20
-4.869736671447754
 30
0.0099999997764826
 70
   192
  0
VERTEX
  5
6BF
  8
0
  6
HCS_01
 62
     7
 10
10.02460479736328
 20
-5.657509326934814
 30
0.0099999997764826
 70
   192
  0
VERTEX
  5
6C0
  8
0
  6
HCS_01
 62
     7
 10
10.0075511932373
 20
-4.869736671447754
 30
0.0099999997764826
 70
   192
  0
VERTEX
  5
6C1
  8
0
  6
HCS_01
 62
     7
 10
9.962190628051758
 20
-4.965490341186523
 30
0.0099999997764826
 70
   192
  0
VERTEX
  5
6C2
  8
0
  6
HCS_01
 62
     7
 10
10.02460479736328
 20
-5.657509326934814
 30
0.0099999997764826
 70
   192
  0
VERTEX
  5
6C3
  8
0
  6
HCS_01
 62
     7
 10
9.962190628051758
 20
-4.965490341186523
 30
0.0099999997764826
 70
   192
  0
VERTEX
  5
6C4
  8
0
  6
HCS_01
 62
     7
 10
9.950423240661621
 20
-5.493457794189453
 30
0.0099999997764826
 70
   192
  0
VERTEX
  5
6C5
  8
0
  6
HCS_01
 62
     7
 10
9.934820175170898
 20
-5.090916633605957
 30
0.0099999997764826
 70
   192
  0
VERTEX
  5
6C6
  8
0
  6
HCS_01
 62
     7
 10
9.92569637298584
 20
-5.250960826873779
 30
0.0099999997764826
 70
   192
  0
VERTEX
  5
6C7
  8
0
  6
HCS_01
 62
     7
 10
9.950423240661621
 20
-5.493457794189453
 30
0.0099999997764826
 70
   192
  0
VERTEX
  5
6C8
  8
0
  6
HCS_01
 62
     7
 10
9.934820175170898
 20
-5.090916633605957
 30
0.0099999997764826
 70
   192
  0
VERTEX
  5
6C9
  8
0
  6
HCS_01
 62
     7
 10
9.950423240661621
 20
-5.493457794189453
 30
0.0099999997764826
 70
   192
  0
VERTEX
  5
6CA
  8
0
  6
HCS_01
 62
     7
 10
9.962190628051758
 20
-4.965490341186523
 30
0.0099999997764826
 70
   192
  0
VERTEX
  5
6CB
  8
0
  6
HCS_01
 62
     7
 10
10.3296012878418
 20
-5.639773845672607
 30
0.0099999997764826
 70
   192
  0
VERTEX
  5
6CC
  8
0
  6
HCS_01
 62
     7
 10
10.35211181640625
 20
-5.746441841125488
 30
0.0099999997764826
 70
   192
  0
VERTEX
  5
6CD
  8
0
  6
HCS_01
 62
     7
 10
10.39397716522217
 20
-5.57838249206543
 30
0.0099999997764826
 70
   192
  0
VERTEX
  5
6CE
  8
0
  6
HCS_01
 62
     7
 10
10.43354034423828
 20
-5.702188968658447
 30
0.0099999997764826
 70
   192
  0
VERTEX
  5
6CF
  8
0
  6
HCS_01
 62
     7
 10
10.39397716522217
 20
-5.57838249206543
 30
0.0099999997764826
 70
   192
  0
VERTEX
  5
6D0
  8
0
  6
HCS_01
 62
     7
 10
10.35211181640625
 20
-5.746441841125488
 30
0.0099999997764826
 70
   192
  0
VERTEX
  5
6D1
  8
0
  6
HCS_01
 62
     7
 10
10.39397716522217
 20
-5.57838249206543
 30
0.0099999997764826
 70
   192
  0
VERTEX
  5
6D2
  8
0
  6
HCS_01
 62
     7
 10
10.43354034423828
 20
-5.702188968658447
 30
0.0099999997764826
 70
   192
  0
VERTEX
  5
6D3
  8
0
  6
HCS_01
 62
     7
 10
10.43720722198486
 20
-5.455599308013916
 30
0.0099999997764826
 70
   192
  0
VERTEX
  5
6D4
  8
0
  6
HCS_01
 62
     7
 10
10.49655246734619
 20
-5.630906581878662
 30
0.0099999997764826
 70
   192
  0
VERTEX
  5
6D5
  8
0
  6
HCS_01
 62
     7
 10
10.43720722198486
 20
-5.455599308013916
 30
0.0099999997764826
 70
   192
  0
VERTEX
  5
6D6
  8
0
  6
HCS_01
 62
     7
 10
10.43354034423828
 20
-5.702188968658447
 30
0.0099999997764826
 70
   192
  0
VERTEX
  5
6D7
  8
0
  6
HCS_01
 62
     7
 10
10.43720722198486
 20
-5.455599308013916
 30
0.0099999997764826
 70
   192
  0
VERTEX
  5
6D8
  8
0
  6
HCS_01
 62
     7
 10
10.49655246734619
 20
-5.630906581878662
 30
0.0099999997764826
 70
   192
  0
VERTEX
  5
6D9
  8
0
  6
HCS_01
 62
     7
 10
10.45161724090576
 20
-5.250960826873779
 30
0.0099999997764826
 70
   192
  0
VERTEX
  5
6DA
  8
0
  6
HCS_01
 62
     7
 10
10.10952949523926
 20
-5.578723430633545
 30
0.0099999997764826
 70
   192
  0
VERTEX
  5
6DB
  8
0
  6
HCS_01
 62
     7
 10
10.12266063690186
 20
-5.73527193069458
 30
0.0099999997764826
 70
   192
  0
VERTEX
  5
6DC
  8
0
  6
HCS_01
 62
     7
 10
10.17390537261963
 20
-5.639859199523926
 30
0.0099999997764826
 70
   192
  0
VERTEX
  5
6DD
  8
0
  6
HCS_01
 62
     7
 10
10.25175380706787
 20
-5.761192798614502
 30
0.0099999997764826
 70
   192
  0
VERTEX
  5
6DE
  8
0
  6
HCS_01
 62
     7
 10
10.17390537261963
 20
-5.639859199523926
 30
0.0099999997764826
 70
   192
  0
VERTEX
  5
6DF
  8
0
  6
HCS_01
 62
     7
 10
10.12266063690186
 20
-5.73527193069458
 30
0.0099999997764826
 70
   192
  0
VERTEX
  5
6E0
  8
0
  6
HCS_01
 62
     7
 10
10.17390537261963
 20
-5.639859199523926
 30
0.0099999997764826
 70
   192
  0
VERTEX
  5
6E1
  8
0
  6
HCS_01
 62
     7
 10
10.25175380706787
 20
-5.761192798614502
 30
0.0099999997764826
 70
   192
  0
VERTEX
  5
6E2
  8
0
  6
HCS_01
 62
     7
 10
10.25175380706787
 20
-5.660237789154053
 30
0.0099999997764826
 70
   192
  0
VERTEX
  5
6E3
  8
0
  6
HCS_01
 62
     7
 10
10.35211181640625
 20
-5.746441841125488
 30
0.0099999997764826
 70
   192
  0
VERTEX
  5
6E4
  8
0
  6
HCS_01
 62
     7
 10
10.25175380706787
 20
-5.660237789154053
 30
0.0099999997764826
 70
   192
  0
VERTEX
  5
6E5
  8
0
  6
HCS_01
 62
     7
 10
10.25175380706787
 20
-5.761192798614502
 30
0.0099999997764826
 70
   192
  0
VERTEX
  5
6E6
  8
0
  6
HCS_01
 62
     7
 10
10.25175380706787
 20
-5.660237789154053
 30
0.0099999997764826
 70
   192
  0
VERTEX
  5
6E7
  8
0
  6
HCS_01
 62
     7
 10
10.35211181640625
 20
-5.746441841125488
 30
0.0099999997764826
 70
   192
  0
VERTEX
  5
6E8
  8
0
  6
HCS_01
 62
     7
 10
10.3296012878418
 20
-5.639773845672607
 30
0.0099999997764826
 70
   192
  0
VERTEX
  5
6E9
  8
0
  6
HCS_01
 62
     7
 10
10.06629943847656
 20
-5.45602560043335
 30
0.0099999997764826
 70
   192
  0
VERTEX
  5
6EA
  8
0
  6
HCS_01
 62
     7
 10
10.12266063690186
 20
-5.73527193069458
 30
0.0099999997764826
 70
   192
  0
VERTEX
  5
6EB
  8
0
  6
HCS_01
 62
     7
 10
10.10952949523926
 20
-5.578723430633545
 30
0.0099999997764826
 70
   192
  0
VERTEX
  5
6EC
  8
0
  6
HCS_01
 62
     7
 10
-3.75
 20
-5.978139877319336
 30
0.0099999997764826
 70
   192
  0
VERTEX
  5
6ED
  8
0
  6
HCS_01
 62
     7
 10
-3.75
 20
-4.778140068054199
 30
0.0099999997764826
 70
   192
  0
VERTEX
  5
6EE
  8
0
  6
HCS_01
 62
     7
 10
-0.75
 20
-5.378139972686768
 30
0.0099999997764826
 70
   192
  0
VERTEX
  5
6EF
  8
0
  6
HCS_01
 62
     7
 10
3.75
 20
-4.778140068054199
 30
0.0099999997764826
 70
   192
  0
VERTEX
  5
6F0
  8
0
  6
HCS_01
 62
     7
 10
3.75
 20
-5.978139877319336
 30
0.0099999997764826
 70
   192
  0
VERTEX
  5
6F1
  8
0
  6
HCS_01
 62
     7
 10
0.75
 20
-5.378139972686768
 30
0.0099999997764826
 70
   192
  0
VERTEX
  5
6F2
  8
0
  6
HCS_01
 62
     7
 10
0.0
 20
0.0
 30
0.0
 70
   128
 71
     1
 72
     2
 73
     3
  0
VERTEX
  5
6F3
  8
0
  6
HCS_01
 62
     7
 10
0.0
 20
0.0
 30
0.0
 70
   128
 71
     4
 72
     5
 73
     6
  0
VERTEX
  5
6F4
  8
0
  6
HCS_01
 62
     7
 10
0.0
 20
0.0
 30
0.0
 70
   128
 71
     7
 72
     8
 73
     9
  0
VERTEX
  5
6F5
  8
0
  6
HCS_01
 62
     7
 10
0.0
 20
0.0
 30
0.0
 70
   128
 71
    10
 72
    11
 73
    12
  0
VERTEX
  5
6F6
  8
0
  6
HCS_01
 62
     7
 10
0.0
 20
0.0
 30
0.0
 70
   128
 71
    13
 72
    14
 73
    15
  0
VERTEX
  5
6F7
  8
0
  6
HCS_01
 62
     7
 10
0.0
 20
0.0
 30
0.0
 70
   128
 71
    16
 72
    17
 73
    18
  0
VERTEX
  5
6F8
  8
0
  6
HCS_01
 62
     7
 10
0.0
 20
0.0
 30
0.0
 70
   128
 71
    19
 72
    20
 73
    21
  0
VERTEX
  5
6F9
  8
0
  6
HCS_01
 62
     7
 10
0.0
 20
0.0
 30
0.0
 70
   128
 71
    22
 72
    23
 73
    24
  0
VERTEX
  5
6FA
  8
0
  6
HCS_01
 62
     7
 10
0.0
 20
0.0
 30
0.0
 70
   128
 71
    25
 72
    26
 73
    27
  0
VERTEX
  5
6FB
  8
0
  6
HCS_01
 62
     7
 10
0.0
 20
0.0
 30
0.0
 70
   128
 71
    28
 72
    29
 73
    30
  0
VERTEX
  5
6FC
  8
0
  6
HCS_01
 62
     7
 10
0.0
 20
0.0
 30
0.0
 70
   128
 71
    31
 72
    32
 73
    33
  0
VERTEX
  5
6FD
  8
0
  6
HCS_01
 62
     7
 10
0.0
 20
0.0
 30
0.0
 70
   128
 71
    34
 72
    35
 73
    36
  0
VERTEX
  5
6FE
  8
0
  6
HCS_01
 62
     7
 10
0.0
 20
0.0
 30
0.0
 70
   128
 71
    37
 72
    38
 73
    39
  0
VERTEX
  5
6FF
  8
0
  6
HCS_01
 62
     7
 10
0.0
 20
0.0
 30
0.0
 70
   128
 71
    40
 72
    41
 73
    42
  0
VERTEX
  5
700
  8
0
  6
HCS_01
 62
     7
 10
0.0
 20
0.0
 30
0.0
 70
   128
 71
    43
 72
    44
 73
    45
  0
VERTEX
  5
701
  8
0
  6
HCS_01
 62
     7
 10
0.0
 20
0.0
 30
0.0
 70
   128
 71
    46
 72
    47
 73
    48
  0
VERTEX
  5
702
  8
0
  6
HCS_01
 62
     7
 10
0.0
 20
0.0
 30
0.0
 70
   128
 71
    49
 72
    50
 73
    51
  0
VERTEX
  5
703
  8
0
  6
HCS_01
 62
     7
 10
0.0
 20
0.0
 30
0.0
 70
   128
 71
    52
 72
    53
 73
    54
  0
VERTEX
  5
704
  8
0
  6
HCS_01
 62
     7
 10
0.0
 20
0.0
 30
0.0
 70
   128
 71
    55
 72
    56
 73
    57
  0
VERTEX
  5
705
  8
0
  6
HCS_01
 62
     7
 10
0.0
 20
0.0
 30
0.0
 70
   128
 71
    58
 72
    59
 73
    60
  0
VERTEX
  5
706
  8
0
  6
HCS_01
 62
     7
 10
0.0
 20
0.0
 30
0.0
 70
   128
 71
    61
 72
    62
 73
    63
  0
VERTEX
  5
707
  8
0
  6
HCS_01
 62
     7
 10
0.0
 20
0.0
 30
0.0
 70
   128
 71
    64
 72
    65
 73
    66
  0
VERTEX
  5
708
  8
0
  6
HCS_01
 62
     7
 10
0.0
 20
0.0
 30
0.0
 70
   128
 71
    67
 72
    68
 73
    69
  0
VERTEX
  5
709
  8
0
  6
HCS_01
 62
     7
 10
0.0
 20
0.0
 30
0.0
 70
   128
 71
    70
 72
    71
 73
    72
  0
VERTEX
  5
70A
  8
0
  6
HCS_01
 62
     7
 10
0.0
 20
0.0
 30
0.0
 70
   128
 71
    73
 72
    74
 73
    75
  0
VERTEX
  5
70B
  8
0
  6
HCS_01
 62
     7
 10
0.0
 20
0.0
 30
0.0
 70
   128
 71
    76
 72
    77
 73
    78
  0
VERTEX
  5
70C
  8
0
  6
HCS_01
 62
     7
 10
0.0
 20
0.0
 30
0.0
 70
   128
 71
    79
 72
    80
 73
    81
  0
VERTEX
  5
70D
  8
0
  6
HCS_01
 62
     7
 10
0.0
 20
0.0
 30
0.0
 70
   128
 71
    82
 72
    83
 73
    84
  0
VERTEX
  5
70E
  8
0
  6
HCS_01
 62
     7
 10
0.0
 20
0.0
 30
0.0
 70
   128
 71
    85
 72
    86
 73
    87
  0
VERTEX
  5
70F
  8
0
  6
HCS_01
 62
     7
 10
0.0
 20
0.0
 30
0.0
 70
   128
 71
    88
 72
    89
 73
    90
  0
VERTEX
  5
710
  8
0
  6
HCS_01
 62
     7
 10
0.0
 20
0.0
 30
0.0
 70
   128
 71
    91
 72
    92
 73
    93
  0
VERTEX
  5
711
  8
0
  6
HCS_01
 62
     7
 10
0.0
 20
0.0
 30
0.0
 70
   128
 71
    94
 72
    95
 73
    96
  0
VERTEX
  5
712
  8
0
  6
HCS_01
 62
     7
 10
0.0
 20
0.0
 30
0.0
 70
   128
 71
    97
 72
    98
 73
    99
  0
VERTEX
  5
713
  8
0
  6
HCS_01
 62
     7
 10
0.0
 20
0.0
 30
0.0
 70
   128
 71
   100
 72
   101
 73
   102
  0
VERTEX
  5
714
  8
0
  6
HCS_01
 62
     7
 10
0.0
 20
0.0
 30
0.0
 70
   128
 71
   103
 72
   104
 73
   105
  0
VERTEX
  5
715
  8
0
  6
HCS_01
 62
     7
 10
0.0
 20
0.0
 30
0.0
 70
   128
 71
   106
 72
   107
 73
   108
  0
VERTEX
  5
716
  8
0
  6
HCS_01
 62
     7
 10
0.0
 20
0.0
 30
0.0
 70
   128
 71
   109
 72
   110
 73
   111
  0
VERTEX
  5
717
  8
0
  6
HCS_01
 62
     7
 10
0.0
 20
0.0
 30
0.0
 70
   128
 71
   112
 72
   113
 73
   114
  0
VERTEX
  5
718
  8
0
  6
HCS_01
 62
     7
 10
0.0
 20
0.0
 30
0.0
 70
   128
 71
   115
 72
   116
 73
   117
  0
VERTEX
  5
719
  8
0
  6
HCS_01
 62
     7
 10
0.0
 20
0.0
 30
0.0
 70
   128
 71
   118
 72
   119
 73
   120
  0
VERTEX
  5
71A
  8
0
  6
HCS_01
 62
     7
 10
0.0
 20
0.0
 30
0.0
 70
   128
 71
   121
 72
   122
 73
   123
  0
VERTEX
  5
71B
  8
0
  6
HCS_01
 62
     7
 10
0.0
 20
0.0
 30
0.0
 70
   128
 71
   124
 72
   125
 73
   126
  0
VERTEX
  5
71C
  8
0
  6
HCS_01
 62
     7
 10
0.0
 20
0.0
 30
0.0
 70
   128
 71
   127
 72
   128
 73
   129
  0
VERTEX
  5
71D
  8
0
  6
HCS_01
 62
     7
 10
0.0
 20
0.0
 30
0.0
 70
   128
 71
   130
 72
   131
 73
   132
  0
VERTEX
  5
71E
  8
0
  6
HCS_01
 62
     7
 10
0.0
 20
0.0
 30
0.0
 70
   128
 71
   133
 72
   134
 73
   135
  0
VERTEX
  5
71F
  8
0
  6
HCS_01
 62
     7
 10
0.0
 20
0.0
 30
0.0
 70
   128
 71
   136
 72
   137
 73
   138
  0
VERTEX
  5
720
  8
0
  6
HCS_01
 62
     7
 10
0.0
 20
0.0
 30
0.0
 70
   128
 71
   139
 72
   140
 73
   141
  0
VERTEX
  5
721
  8
0
  6
HCS_01
 62
     7
 10
0.0
 20
0.0
 30
0.0
 70
   128
 71
   142
 72
   143
 73
   144
  0
VERTEX
  5
722
  8
0
  6
HCS_01
 62
     7
 10
0.0
 20
0.0
 30
0.0
 70
   128
 71
   145
 72
   146
 73
   147
  0
VERTEX
  5
723
  8
0
  6
HCS_01
 62
     7
 10
0.0
 20
0.0
 30
0.0
 70
   128
 71
   148
 72
   149
 73
   150
  0
VERTEX
  5
724
  8
0
  6
HCS_01
 62
     7
 10
0.0
 20
0.0
 30
0.0
 70
   128
 71
   151
 72
   152
 73
   153
  0
VERTEX
  5
725
  8
0
  6
HCS_01
 62
     7
 10
0.0
 20
0.0
 30
0.0
 70
   128
 71
   154
 72
   155
 73
   156
  0
VERTEX
  5
726
  8
0
  6
HCS_01
 62
     7
 10
0.0
 20
0.0
 30
0.0
 70
   128
 71
   157
 72
   158
 73
   159
  0
VERTEX
  5
727
  8
0
  6
HCS_01
 62
     7
 10
0.0
 20
0.0
 30
0.0
 70
   128
 71
   160
 72
   161
 73
   162
  0
VERTEX
  5
728
  8
0
  6
HCS_01
 62
     7
 10
0.0
 20
0.0
 30
0.0
 70
   128
 71
   163
 72
   164
 73
   165
  0
VERTEX
  5
729
  8
0
  6
HCS_01
 62
     7
 10
0.0
 20
0.0
 30
0.0
 70
   128
 71
   166
 72
   167
 73
   168
  0
VERTEX
  5
72A
  8
0
  6
HCS_01
 62
     7
 10
0.0
 20
0.0
 30
0.0
 70
   128
 71
   169
 72
   170
 73
   171
  0
VERTEX
  5
72B
  8
0
  6
HCS_01
 62
     7
 10
0.0
 20
0.0
 30
0.0
 70
   128
 71
   172
 72
   173
 73
   174
  0
VERTEX
  5
72C
  8
0
  6
HCS_01
 62
     7
 10
0.0
 20
0.0
 30
0.0
 70
   128
 71
   175
 72
   176
 73
   177
  0
VERTEX
  5
72D
  8
0
  6
HCS_01
 62
     7
 10
0.0
 20
0.0
 30
0.0
 70
   128
 71
   178
 72
   179
 73
   180
  0
VERTEX
  5
72E
  8
0
  6
HCS_01
 62
     7
 10
0.0
 20
0.0
 30
0.0
 70
   128
 71
   181
 72
   182
 73
   183
  0
VERTEX
  5
72F
  8
0
  6
HCS_01
 62
     7
 10
0.0
 20
0.0
 30
0.0
 70
   128
 71
   184
 72
   185
 73
   186
  0
VERTEX
  5
730
  8
0
  6
HCS_01
 62
     7
 10
0.0
 20
0.0
 30
0.0
 70
   128
 71
   187
 72
   188
 73
   189
  0
VERTEX
  5
731
  8
0
  6
HCS_01
 62
     7
 10
0.0
 20
0.0
 30
0.0
 70
   128
 71
   190
 72
   191
 73
   192
  0
VERTEX
  5
732
  8
0
  6
HCS_01
 62
     7
 10
0.0
 20
0.0
 30
0.0
 70
   128
 71
   193
 72
   194
 73
   195
  0
VERTEX
  5
733
  8
0
  6
HCS_01
 62
     7
 10
0.0
 20
0.0
 30
0.0
 70
   128
 71
   196
 72
   197
 73
   198
  0
VERTEX
  5
734
  8
0
  6
HCS_01
 62
     7
 10
0.0
 20
0.0
 30
0.0
 70
   128
 71
   199
 72
   200
 73
   201
  0
VERTEX
  5
735
  8
0
  6
HCS_01
 62
     7
 10
0.0
 20
0.0
 30
0.0
 70
   128
 71
   202
 72
   203
 73
   204
  0
VERTEX
  5
736
  8
0
  6
HCS_01
 62
     7
 10
0.0
 20
0.0
 30
0.0
 70
   128
 71
   205
 72
   206
 73
   207
  0
VERTEX
  5
737
  8
0
  6
HCS_01
 62
     7
 10
0.0
 20
0.0
 30
0.0
 70
   128
 71
   208
 72
   209
 73
   210
  0
VERTEX
  5
738
  8
0
  6
HCS_01
 62
     7
 10
0.0
 20
0.0
 30
0.0
 70
   128
 71
   211
 72
   212
 73
   213
  0
VERTEX
  5
739
  8
0
  6
HCS_01
 62
     7
 10
0.0
 20
0.0
 30
0.0
 70
   128
 71
   214
 72
   215
 73
   216
  0
VERTEX
  5
73A
  8
0
  6
HCS_01
 62
     7
 10
0.0
 20
0.0
 30
0.0
 70
   128
 71
   217
 72
   218
 73
   219
  0
VERTEX
  5
73B
  8
0
  6
HCS_01
 62
     7
 10
0.0
 20
0.0
 30
0.0
 70
   128
 71
   220
 72
   221
 73
   222
  0
VERTEX
  5
73C
  8
0
  6
HCS_01
 62
     7
 10
0.0
 20
0.0
 30
0.0
 70
   128
 71
   223
 72
   224
 73
   225
  0
VERTEX
  5
73D
  8
0
  6
HCS_01
 62
     7
 10
0.0
 20
0.0
 30
0.0
 70
   128
 71
   226
 72
   227
 73
   228
  0
VERTEX
  5
73E
  8
0
  6
HCS_01
 62
     7
 10
0.0
 20
0.0
 30
0.0
 70
   128
 71
   229
 72
   230
 73
   231
  0
VERTEX
  5
73F
  8
0
  6
HCS_01
 62
     7
 10
0.0
 20
0.0
 30
0.0
 70
   128
 71
   232
 72
   233
 73
   234
  0
VERTEX
  5
740
  8
0
  6
HCS_01
 62
     7
 10
0.0
 20
0.0
 30
0.0
 70
   128
 71
   235
 72
   236
 73
   237
  0
VERTEX
  5
741
  8
0
  6
HCS_01
 62
     7
 10
0.0
 20
0.0
 30
0.0
 70
   128
 71
   238
 72
   239
 73
   240
  0
VERTEX
  5
742
  8
0
  6
HCS_01
 62
     7
 10
0.0
 20
0.0
 30
0.0
 70
   128
 71
   241
 72
   242
 73
   243
  0
VERTEX
  5
743
  8
0
  6
HCS_01
 62
     7
 10
0.0
 20
0.0
 30
0.0
 70
   128
 71
   244
 72
   245
 73
   246
  0
VERTEX
  5
744
  8
0
  6
HCS_01
 62
     7
 10
0.0
 20
0.0
 30
0.0
 70
   128
 71
   247
 72
   248
 73
   249
  0
VERTEX
  5
745
  8
0
  6
HCS_01
 62
     7
 10
0.0
 20
0.0
 30
0.0
 70
   128
 71
   250
 72
   251
 73
   252
  0
VERTEX
  5
746
  8
0
  6
HCS_01
 62
     7
 10
0.0
 20
0.0
 30
0.0
 70
   128
 71
   253
 72
   254
 73
   255
  0
VERTEX
  5
747
  8
0
  6
HCS_01
 62
     7
 10
0.0
 20
0.0
 30
0.0
 70
   128
 71
   256
 72
   257
 73
   258
  0
VERTEX
  5
748
  8
0
  6
HCS_01
 62
     7
 10
0.0
 20
0.0
 30
0.0
 70
   128
 71
   259
 72
   260
 73
   261
  0
VERTEX
  5
749
  8
0
  6
HCS_01
 62
     7
 10
0.0
 20
0.0
 30
0.0
 70
   128
 71
   262
 72
   263
 73
   264
  0
VERTEX
  5
74A
  8
0
  6
HCS_01
 62
     7
 10
0.0
 20
0.0
 30
0.0
 70
   128
 71
   265
 72
   266
 73
   267
  0
VERTEX
  5
74B
  8
0
  6
HCS_01
 62
     7
 10
0.0
 20
0.0
 30
0.0
 70
   128
 71
   268
 72
   269
 73
   270
  0
VERTEX
  5
74C
  8
0
  6
HCS_01
 62
     7
 10
0.0
 20
0.0
 30
0.0
 70
   128
 71
   271
 72
   272
 73
   273
  0
VERTEX
  5
74D
  8
0
  6
HCS_01
 62
     7
 10
0.0
 20
0.0
 30
0.0
 70
   128
 71
   274
 72
   275
 73
   276
  0
VERTEX
  5
74E
  8
0
  6
HCS_01
 62
     7
 10
0.0
 20
0.0
 30
0.0
 70
   128
 71
   277
 72
   278
 73
   279
  0
VERTEX
  5
74F
  8
0
  6
HCS_01
 62
     7
 10
0.0
 20
0.0
 30
0.0
 70
   128
 71
   280
 72
   281
 73
   282
  0
VERTEX
  5
750
  8
0
  6
HCS_01
 62
     7
 10
0.0
 20
0.0
 30
0.0
 70
   128
 71
   283
 72
   284
 73
   285
  0
VERTEX
  5
751
  8
0
  6
HCS_01
 62
     7
 10
0.0
 20
0.0
 30
0.0
 70
   128
 71
   286
 72
   287
 73
   288
  0
VERTEX
  5
752
  8
0
  6
HCS_01
 62
     7
 10
0.0
 20
0.0
 30
0.0
 70
   128
 71
   289
 72
   290
 73
   291
  0
VERTEX
  5
753
  8
0
  6
HCS_01
 62
     7
 10
0.0
 20
0.0
 30
0.0
 70
   128
 71
   292
 72
   293
 73
   294
  0
VERTEX
  5
754
  8
0
  6
HCS_01
 62
     7
 10
0.0
 20
0.0
 30
0.0
 70
   128
 71
   295
 72
   296
 73
   297
  0
VERTEX
  5
755
  8
0
  6
HCS_01
 62
     7
 10
0.0
 20
0.0
 30
0.0
 70
   128
 71
   298
 72
   299
 73
   300
  0
VERTEX
  5
756
  8
0
  6
HCS_01
 62
     7
 10
0.0
 20
0.0
 30
0.0
 70
   128
 71
   301
 72
   302
 73
   303
  0
VERTEX
  5
757
  8
0
  6
HCS_01
 62
     7
 10
0.0
 20
0.0
 30
0.0
 70
   128
 71
   304
 72
   305
 73
   306
  0
VERTEX
  5
758
  8
0
  6
HCS_01
 62
     7
 10
0.0
 20
0.0
 30
0.0
 70
   128
 71
   307
 72
   308
 73
   309
  0
VERTEX
  5
759
  8
0
  6
HCS_01
 62
     7
 10
0.0
 20
0.0
 30
0.0
 70
   128
 71
   310
 72
   311
 73
   312
  0
VERTEX
  5
75A
  8
0
  6
HCS_01
 62
     7
 10
0.0
 20
0.0
 30
0.0
 70
   128
 71
   313
 72
   314
 73
   315
  0
VERTEX
  5
75B
  8
0
  6
HCS_01
 62
     7
 10
0.0
 20
0.0
 30
0.0
 70
   128
 71
   316
 72
   317
 73
   318
  0
VERTEX
  5
75C
  8
0
  6
HCS_01
 62
     7
 10
0.0
 20
0.0
 30
0.0
 70
   128
 71
   319
 72
   320
 73
   321
  0
VERTEX
  5
75D
  8
0
  6
HCS_01
 62
     7
 10
0.0
 20
0.0
 30
0.0
 70
   128
 71
   322
 72
   323
 73
   324
  0
VERTEX
  5
75E
  8
0
  6
HCS_01
 62
     7
 10
0.0
 20
0.0
 30
0.0
 70
   128
 71
   325
 72
   326
 73
   327
  0
VERTEX
  5
75F
  8
0
  6
HCS_01
 62
     7
 10
0.0
 20
0.0
 30
0.0
 70
   128
 71
   328
 72
   329
 73
   330
  0
VERTEX
  5
760
  8
0
  6
HCS_01
 62
     7
 10
0.0
 20
0.0
 30
0.0
 70
   128
 71
   331
 72
   332
 73
   333
  0
VERTEX
  5
761
  8
0
  6
HCS_01
 62
     7
 10
0.0
 20
0.0
 30
0.0
 70
   128
 71
   334
 72
   335
 73
   336
  0
VERTEX
  5
762
  8
0
  6
HCS_01
 62
     7
 10
0.0
 20
0.0
 30
0.0
 70
   128
 71
   337
 72
   338
 73
   339
  0
VERTEX
  5
763
  8
0
  6
HCS_01
 62
     7
 10
0.0
 20
0.0
 30
0.0
 70
   128
 71
   340
 72
   341
 73
   342
  0
VERTEX
  5
764
  8
0
  6
HCS_01
 62
     7
 10
0.0
 20
0.0
 30
0.0
 70
   128
 71
   343
 72
   344
 73
   345
  0
VERTEX
  5
765
  8
0
  6
HCS_01
 62
     7
 10
0.0
 20
0.0
 30
0.0
 70
   128
 71
   346
 72
   347
 73
   348
  0
VERTEX
  5
766
  8
0
  6
HCS_01
 62
     7
 10
0.0
 20
0.0
 30
0.0
 70
   128
 71
   349
 72
   350
 73
   351
  0
VERTEX
  5
767
  8
0
  6
HCS_01
 62
     7
 10
0.0
 20
0.0
 30
0.0
 70
   128
 71
   352
 72
   353
 73
   354
  0
VERTEX
  5
768
  8
0
  6
HCS_01
 62
     7
 10
0.0
 20
0.0
 30
0.0
 70
   128
 71
   355
 72
   356
 73
   357
  0
VERTEX
  5
769
  8
0
  6
HCS_01
 62
     7
 10
0.0
 20
0.0
 30
0.0
 70
   128
 71
   358
 72
   359
 73
   360
  0
VERTEX
  5
76A
  8
0
  6
HCS_01
 62
     7
 10
0.0
 20
0.0
 30
0.0
 70
   128
 71
   361
 72
   362
 73
   363
  0
VERTEX
  5
76B
  8
0
  6
HCS_01
 62
     7
 10
0.0
 20
0.0
 30
0.0
 70
   128
 71
   364
 72
   365
 73
   366
  0
VERTEX
  5
76C
  8
0
  6
HCS_01
 62
     7
 10
0.0
 20
0.0
 30
0.0
 70
   128
 71
   367
 72
   368
 73
   369
  0
VERTEX
  5
76D
  8
0
  6
HCS_01
 62
     7
 10
0.0
 20
0.0
 30
0.0
 70
   128
 71
   370
 72
   371
 73
   372
  0
VERTEX
  5
76E
  8
0
  6
HCS_01
 62
     7
 10
0.0
 20
0.0
 30
0.0
 70
   128
 71
   373
 72
   374
 73
   375
  0
VERTEX
  5
76F
  8
0
  6
HCS_01
 62
     7
 10
0.0
 20
0.0
 30
0.0
 70
   128
 71
   376
 72
   377
 73
   378
  0
VERTEX
  5
770
  8
0
  6
HCS_01
 62
     7
 10
0.0
 20
0.0
 30
0.0
 70
   128
 71
   379
 72
   380
 73
   381
  0
VERTEX
  5
771
  8
0
  6
HCS_01
 62
     7
 10
0.0
 20
0.0
 30
0.0
 70
   128
 71
   382
 72
   383
 73
   384
  0
VERTEX
  5
772
  8
0
  6
HCS_01
 62
     7
 10
0.0
 20
0.0
 30
0.0
 70
   128
 71
   385
 72
   386
 73
   387
  0
VERTEX
  5
773
  8
0
  6
HCS_01
 62
     7
 10
0.0
 20
0.0
 30
0.0
 70
   128
 71
   388
 72
   389
 73
   390
  0
VERTEX
  5
774
  8
0
  6
HCS_01
 62
     7
 10
0.0
 20
0.0
 30
0.0
 70
   128
 71
   391
 72
   392
 73
   393
  0
VERTEX
  5
775
  8
0
  6
HCS_01
 62
     7
 10
0.0
 20
0.0
 30
0.0
 70
   128
 71
   394
 72
   395
 73
   396
  0
VERTEX
  5
776
  8
0
  6
HCS_01
 62
     7
 10
0.0
 20
0.0
 30
0.0
 70
   128
 71
   397
 72
   398
 73
   399
  0
VERTEX
  5
777
  8
0
  6
HCS_01
 62
     7
 10
0.0
 20
0.0
 30
0.0
 70
   128
 71
   400
 72
   401
 73
   402
  0
VERTEX
  5
778
  8
0
  6
HCS_01
 62
     7
 10
0.0
 20
0.0
 30
0.0
 70
   128
 71
   403
 72
   404
 73
   405
  0
VERTEX
  5
779
  8
0
  6
HCS_01
 62
     7
 10
0.0
 20
0.0
 30
0.0
 70
   128
 71
   406
 72
   407
 73
   408
  0
VERTEX
  5
77A
  8
0
  6
HCS_01
 62
     7
 10
0.0
 20
0.0
 30
0.0
 70
   128
 71
   409
 72
   410
 73
   411
  0
VERTEX
  5
77B
  8
0
  6
HCS_01
 62
     7
 10
0.0
 20
0.0
 30
0.0
 70
   128
 71
   412
 72
   413
 73
   414
  0
VERTEX
  5
77C
  8
0
  6
HCS_01
 62
     7
 10
0.0
 20
0.0
 30
0.0
 70
   128
 71
   415
 72
   416
 73
   417
  0
VERTEX
  5
77D
  8
0
  6
HCS_01
 62
     7
 10
0.0
 20
0.0
 30
0.0
 70
   128
 71
   418
 72
   419
 73
   420
  0
VERTEX
  5
77E
  8
0
  6
HCS_01
 62
     7
 10
0.0
 20
0.0
 30
0.0
 70
   128
 71
   421
 72
   422
 73
   423
  0
VERTEX
  5
77F
  8
0
  6
HCS_01
 62
     7
 10
0.0
 20
0.0
 30
0.0
 70
   128
 71
   424
 72
   425
 73
   426
  0
VERTEX
  5
780
  8
0
  6
HCS_01
 62
     7
 10
0.0
 20
0.0
 30
0.0
 70
   128
 71
   427
 72
   428
 73
   429
  0
VERTEX
  5
781
  8
0
  6
HCS_01
 62
     7
 10
0.0
 20
0.0
 30
0.0
 70
   128
 71
   430
 72
   431
 73
   432
  0
VERTEX
  5
782
  8
0
  6
HCS_01
 62
     7
 10
0.0
 20
0.0
 30
0.0
 70
   128
 71
   433
 72
   434
 73
   435
  0
VERTEX
  5
783
  8
0
  6
HCS_01
 62
     7
 10
0.0
 20
0.0
 30
0.0
 70
   128
 71
   436
 72
   437
 73
   438
  0
VERTEX
  5
784
  8
0
  6
HCS_01
 62
     7
 10
0.0
 20
0.0
 30
0.0
 70
   128
 71
   439
 72
   440
 73
   441
  0
VERTEX
  5
785
  8
0
  6
HCS_01
 62
     7
 10
0.0
 20
0.0
 30
0.0
 70
   128
 71
   442
 72
   443
 73
   444
  0
VERTEX
  5
786
  8
0
  6
HCS_01
 62
     7
 10
0.0
 20
0.0
 30
0.0
 70
   128
 71
   445
 72
   446
 73
   447
  0
VERTEX
  5
787
  8
0
  6
HCS_01
 62
     7
 10
0.0
 20
0.0
 30
0.0
 70
   128
 71
   448
 72
   449
 73
   450
  0
SEQEND
  5
788
  8
0
  6
HCS_01
 62
     7
  0
ENDBLK
  5
78B
  8
0
  0
BLOCK
  8
0
  2
GNODE_16
 70
     0
 10
0.0
 20
0.0
 30
0.0
  3
GNODE_16
  1

  0
LINE
  5
78D
  8
0
  6
HCS_01
 62
     7
 10
-2.0
 20
43.87918853759766
 30
0.0
 11
-2.0
 21
42.0
 31
0.0
  0
LINE
  5
78E
  8
0
  6
HCS_01
 62
     7
 10
2.0
 20
43.87918853759766
 30
0.0
 11
2.0
 21
42.0
 31
0.0
  0
LINE
  5
78F
  8
0
  6
HCS_01
 62
     7
 10
-6.5
 20
42.87918853759766
 30
0.0
 11
6.700757026672363
 21
42.87918853759766
 31
0.0
  0
POLYLINE
  5
790
  8
0
  6
HCS_01
 62
     7
 66
     1
 10
0.0
 20
0.0
 30
0.0
 70
    64
 71
   732
 72
   244
  0
VERTEX
  5
791
  8
0
  6
HCS_01
 62
     7
 10
8.55955696105957
 20
42.79560089111328
 30
0.0099999997764826
 70
   192
  0
VERTEX
  5
792
  8
0
  6
HCS_01
 62
     7
 10
8.549154281616211
 20
42.87140274047852
 30
0.0099999997764826
 70
   192
  0
VERTEX
  5
793
  8
0
  6
HCS_01
 62
     7
 10
8.548130989074707
 20
42.71809387207031
 30
0.0099999997764826
 70
   192
  0
VERTEX
  5
794
  8
0
  6
HCS_01
 62
     7
 10
8.517946243286133
 20
42.93782424926758
 30
0.0099999997764826
 70
   192
  0
VERTEX
  5
795
  8
0
  6
HCS_01
 62
     7
 10
8.548130989074707
 20
42.71809387207031
 30
0.0099999997764826
 70
   192
  0
VERTEX
  5
796
  8
0
  6
HCS_01
 62
     7
 10
8.549154281616211
 20
42.87140274047852
 30
0.0099999997764826
 70
   192
  0
VERTEX
  5
797
  8
0
  6
HCS_01
 62
     7
 10
8.548130989074707
 20
42.71809387207031
 30
0.0099999997764826
 70
   192
  0
VERTEX
  5
798
  8
0
  6
HCS_01
 62
     7
 10
8.517946243286133
 20
42.93782424926758
 30
0.0099999997764826
 70
   192
  0
VERTEX
  5
799
  8
0
  6
HCS_01
 62
     7
 10
8.513854026794434
 20
42.64519119262695
 30
0.0099999997764826
 70
   192
  0
VERTEX
  5
79A
  8
0
  6
HCS_01
 62
     7
 10
8.464911460876465
 20
42.99418640136719
 30
0.0099999997764826
 70
   192
  0
VERTEX
  5
79B
  8
0
  6
HCS_01
 62
     7
 10
8.513854026794434
 20
42.64519119262695
 30
0.0099999997764826
 70
   192
  0
VERTEX
  5
79C
  8
0
  6
HCS_01
 62
     7
 10
8.517946243286133
 20
42.93782424926758
 30
0.0099999997764826
 70
   192
  0
VERTEX
  5
79D
  8
0
  6
HCS_01
 62
     7
 10
8.513854026794434
 20
42.64519119262695
 30
0.0099999997764826
 70
   192
  0
VERTEX
  5
79E
  8
0
  6
HCS_01
 62
     7
 10
8.464911460876465
 20
42.99418640136719
 30
0.0099999997764826
 70
   192
  0
VERTEX
  5
79F
  8
0
  6
HCS_01
 62
     7
 10
8.458175659179688
 20
42.58243560791016
 30
0.0099999997764826
 70
   192
  0
VERTEX
  5
7A0
  8
0
  6
HCS_01
 62
     7
 10
8.431998252868652
 20
42.78468704223633
 30
0.0099999997764826
 70
   192
  0
VERTEX
  5
7A1
  8
0
  6
HCS_01
 62
     7
 10
8.458175659179688
 20
42.58243560791016
 30
0.0099999997764826
 70
   192
  0
VERTEX
  5
7A2
  8
0
  6
HCS_01
 62
     7
 10
8.464911460876465
 20
42.99418640136719
 30
0.0099999997764826
 70
   192
  0
VERTEX
  5
7A3
  8
0
  6
HCS_01
 62
     7
 10
8.458175659179688
 20
42.58243560791016
 30
0.0099999997764826
 70
   192
  0
VERTEX
  5
7A4
  8
0
  6
HCS_01
 62
     7
 10
8.431998252868652
 20
42.78468704223633
 30
0.0099999997764826
 70
   192
  0
VERTEX
  5
7A5
  8
0
  6
HCS_01
 62
     7
 10
8.424921035766602
 20
42.74009323120117
 30
0.0099999997764826
 70
   192
  0
VERTEX
  5
7A6
  8
0
  6
HCS_01
 62
     7
 10
8.314672470092773
 20
42.92588806152344
 30
0.0099999997764826
 70
   192
  0
VERTEX
  5
7A7
  8
0
  6
HCS_01
 62
     7
 10
8.368560791015625
 20
42.89919662475586
 30
0.0099999997764826
 70
   192
  0
VERTEX
  5
7A8
  8
0
  6
HCS_01
 62
     7
 10
8.38902473449707
 20
43.03980255126953
 30
0.0099999997764826
 70
   192
  0
VERTEX
  5
7A9
  8
0
  6
HCS_01
 62
     7
 10
8.40471363067627
 20
42.86688232421875
 30
0.0099999997764826
 70
   192
  0
VERTEX
  5
7AA
  8
0
  6
HCS_01
 62
     7
 10
8.38902473449707
 20
43.03980255126953
 30
0.0099999997764826
 70
   192
  0
VERTEX
  5
7AB
  8
0
  6
HCS_01
 62
     7
 10
8.368560791015625
 20
42.89919662475586
 30
0.0099999997764826
 70
   192
  0
VERTEX
  5
7AC
  8
0
  6
HCS_01
 62
     7
 10
8.38902473449707
 20
43.03980255126953
 30
0.0099999997764826
 70
   192
  0
VERTEX
  5
7AD
  8
0
  6
HCS_01
 62
     7
 10
8.40471363067627
 20
42.86688232421875
 30
0.0099999997764826
 70
   192
  0
VERTEX
  5
7AE
  8
0
  6
HCS_01
 62
     7
 10
8.464911460876465
 20
42.99418640136719
 30
0.0099999997764826
 70
   192
  0
VERTEX
  5
7AF
  8
0
  6
HCS_01
 62
     7
 10
8.425177574157715
 20
42.82876968383789
 30
0.0099999997764826
 70
   192
  0
VERTEX
  5
7B0
  8
0
  6
HCS_01
 62
     7
 10
8.464911460876465
 20
42.99418640136719
 30
0.0099999997764826
 70
   192
  0
VERTEX
  5
7B1
  8
0
  6
HCS_01
 62
     7
 10
8.40471363067627
 20
42.86688232421875
 30
0.0099999997764826
 70
   192
  0
VERTEX
  5
7B2
  8
0
  6
HCS_01
 62
     7
 10
8.464911460876465
 20
42.99418640136719
 30
0.0099999997764826
 70
   192
  0
VERTEX
  5
7B3
  8
0
  6
HCS_01
 62
     7
 10
8.425177574157715
 20
42.82876968383789
 30
0.0099999997764826
 70
   192
  0
VERTEX
  5
7B4
  8
0
  6
HCS_01
 62
     7
 10
8.431998252868652
 20
42.78468704223633
 30
0.0099999997764826
 70
   192
  0
VERTEX
  5
7B5
  8
0
  6
HCS_01
 62
     7
 10
7.938990116119385
 20
43.21442794799805
 30
0.0099999997764826
 70
   192
  0
VERTEX
  5
7B6
  8
0
  6
HCS_01
 62
     7
 10
7.943594455718994
 20
43.03707504272461
 30
0.0099999997764826
 70
   192
  0
VERTEX
  5
7B7
  8
0
  6
HCS_01
 62
     7
 10
7.968151092529297
 20
43.17486190795898
 30
0.0099999997764826
 70
   192
  0
VERTEX
  5
7B8
  8
0
  6
HCS_01
 62
     7
 10
8.019481658935547
 20
43.00680541992188
 30
0.0099999997764826
 70
   192
  0
VERTEX
  5
7B9
  8
0
  6
HCS_01
 62
     7
 10
7.968151092529297
 20
43.17486190795898
 30
0.0099999997764826
 70
   192
  0
VERTEX
  5
7BA
  8
0
  6
HCS_01
 62
     7
 10
7.943594455718994
 20
43.03707504272461
 30
0.0099999997764826
 70
   192
  0
VERTEX
  5
7BB
  8
0
  6
HCS_01
 62
     7
 10
7.968151092529297
 20
43.17486190795898
 30
0.0099999997764826
 70
   192
  0
VERTEX
  5
7BC
  8
0
  6
HCS_01
 62
     7
 10
8.019481658935547
 20
43.00680541992188
 30
0.0099999997764826
 70
   192
  0
VERTEX
  5
7BD
  8
0
  6
HCS_01
 62
     7
 10
8.037131309509277
 20
43.1396484375
 30
0.0099999997764826
 70
   192
  0
VERTEX
  5
7BE
  8
0
  6
HCS_01
 62
     7
 10
8.136636734008789
 20
42.97465896606445
 30
0.0099999997764826
 70
   192
  0
VERTEX
  5
7BF
  8
0
  6
HCS_01
 62
     7
 10
8.037131309509277
 20
43.1396484375
 30
0.0099999997764826
 70
   192
  0
VERTEX
  5
7C0
  8
0
  6
HCS_01
 62
     7
 10
8.019481658935547
 20
43.00680541992188
 30
0.0099999997764826
 70
   192
  0
VERTEX
  5
7C1
  8
0
  6
HCS_01
 62
     7
 10
8.037131309509277
 20
43.1396484375
 30
0.0099999997764826
 70
   192
  0
VERTEX
  5
7C2
  8
0
  6
HCS_01
 62
     7
 10
8.136636734008789
 20
42.97465896606445
 30
0.0099999997764826
 70
   192
  0
VERTEX
  5
7C3
  8
0
  6
HCS_01
 62
     7
 10
8.16767406463623
 20
43.10358047485352
 30
0.0099999997764826
 70
   192
  0
VERTEX
  5
7C4
  8
0
  6
HCS_01
 62
     7
 10
8.250041007995605
 20
42.9459228515625
 30
0.0099999997764826
 70
   192
  0
VERTEX
  5
7C5
  8
0
  6
HCS_01
 62
     7
 10
8.16767406463623
 20
43.10358047485352
 30
0.0099999997764826
 70
   192
  0
VERTEX
  5
7C6
  8
0
  6
HCS_01
 62
     7
 10
8.136636734008789
 20
42.97465896606445
 30
0.0099999997764826
 70
   192
  0
VERTEX
  5
7C7
  8
0
  6
HCS_01
 62
     7
 10
8.16767406463623
 20
43.10358047485352
 30
0.0099999997764826
 70
   192
  0
VERTEX
  5
7C8
  8
0
  6
HCS_01
 62
     7
 10
8.250041007995605
 20
42.9459228515625
 30
0.0099999997764826
 70
   192
  0
VERTEX
  5
7C9
  8
0
  6
HCS_01
 62
     7
 10
8.303672790527344
 20
43.06938934326172
 30
0.0099999997764826
 70
   192
  0
VERTEX
  5
7CA
  8
0
  6
HCS_01
 62
     7
 10
8.314672470092773
 20
42.92588806152344
 30
0.0099999997764826
 70
   192
  0
VERTEX
  5
7CB
  8
0
  6
HCS_01
 62
     7
 10
8.303672790527344
 20
43.06938934326172
 30
0.0099999997764826
 70
   192
  0
VERTEX
  5
7CC
  8
0
  6
HCS_01
 62
     7
 10
8.250041007995605
 20
42.9459228515625
 30
0.0099999997764826
 70
   192
  0
VERTEX
  5
7CD
  8
0
  6
HCS_01
 62
     7
 10
8.303672790527344
 20
43.06938934326172
 30
0.0099999997764826
 70
   192
  0
VERTEX
  5
7CE
  8
0
  6
HCS_01
 62
     7
 10
8.314672470092773
 20
42.92588806152344
 30
0.0099999997764826
 70
   192
  0
VERTEX
  5
7CF
  8
0
  6
HCS_01
 62
     7
 10
8.38902473449707
 20
43.03980255126953
 30
0.0099999997764826
 70
   192
  0
VERTEX
  5
7D0
  8
0
  6
HCS_01
 62
     7
 10
7.801712036132812
 20
43.25467300415039
 30
0.0099999997764826
 70
   192
  0
VERTEX
  5
7D1
  8
0
  6
HCS_01
 62
     7
 10
7.810494422912598
 20
43.18910217285156
 30
0.0099999997764826
 70
   192
  0
VERTEX
  5
7D2
  8
0
  6
HCS_01
 62
     7
 10
7.812455654144287
 20
43.32791519165039
 30
0.0099999997764826
 70
   192
  0
VERTEX
  5
7D3
  8
0
  6
HCS_01
 62
     7
 10
7.836841583251953
 20
43.13018417358398
 30
0.0099999997764826
 70
   192
  0
VERTEX
  5
7D4
  8
0
  6
HCS_01
 62
     7
 10
7.812455654144287
 20
43.32791519165039
 30
0.0099999997764826
 70
   192
  0
VERTEX
  5
7D5
  8
0
  6
HCS_01
 62
     7
 10
7.810494422912598
 20
43.18910217285156
 30
0.0099999997764826
 70
   192
  0
VERTEX
  5
7D6
  8
0
  6
HCS_01
 62
     7
 10
7.812455654144287
 20
43.32791519165039
 30
0.0099999997764826
 70
   192
  0
VERTEX
  5
7D7
  8
0
  6
HCS_01
 62
     7
 10
7.836841583251953
 20
43.13018417358398
 30
0.0099999997764826
 70
   192
  0
VERTEX
  5
7D8
  8
0
  6
HCS_01
 62
     7
 10
7.844686031341553
 20
43.39621353149414
 30
0.0099999997764826
 70
   192
  0
VERTEX
  5
7D9
  8
0
  6
HCS_01
 62
     7
 10
7.881094455718994
 20
43.07910919189453
 30
0.0099999997764826
 70
   192
  0
VERTEX
  5
7DA
  8
0
  6
HCS_01
 62
     7
 10
7.844686031341553
 20
43.39621353149414
 30
0.0099999997764826
 70
   192
  0
VERTEX
  5
7DB
  8
0
  6
HCS_01
 62
     7
 10
7.836841583251953
 20
43.13018417358398
 30
0.0099999997764826
 70
   192
  0
VERTEX
  5
7DC
  8
0
  6
HCS_01
 62
     7
 10
7.844686031341553
 20
43.39621353149414
 30
0.0099999997764826
 70
   192
  0
VERTEX
  5
7DD
  8
0
  6
HCS_01
 62
     7
 10
7.881094455718994
 20
43.07910919189453
 30
0.0099999997764826
 70
   192
  0
VERTEX
  5
7DE
  8
0
  6
HCS_01
 62
     7
 10
7.8975510597229
 20
43.45410919189453
 30
0.0099999997764826
 70
   192
  0
VERTEX
  5
7DF
  8
0
  6
HCS_01
 62
     7
 10
7.943594455718994
 20
43.03707504272461
 30
0.0099999997764826
 70
   192
  0
VERTEX
  5
7E0
  8
0
  6
HCS_01
 62
     7
 10
7.8975510597229
 20
43.45410919189453
 30
0.0099999997764826
 70
   192
  0
VERTEX
  5
7E1
  8
0
  6
HCS_01
 62
     7
 10
7.881094455718994
 20
43.07910919189453
 30
0.0099999997764826
 70
   192
  0
VERTEX
  5
7E2
  8
0
  6
HCS_01
 62
     7
 10
7.8975510597229
 20
43.45410919189453
 30
0.0099999997764826
 70
   192
  0
VERTEX
  5
7E3
  8
0
  6
HCS_01
 62
     7
 10
7.943594455718994
 20
43.03707504272461
 30
0.0099999997764826
 70
   192
  0
VERTEX
  5
7E4
  8
0
  6
HCS_01
 62
     7
 10
7.929269790649414
 20
43.2635383605957
 30
0.0099999997764826
 70
   192
  0
VERTEX
  5
7E5
  8
0
  6
HCS_01
 62
     7
 10
7.938990116119385
 20
43.21442794799805
 30
0.0099999997764826
 70
   192
  0
VERTEX
  5
7E6
  8
0
  6
HCS_01
 62
     7
 10
7.929269790649414
 20
43.2635383605957
 30
0.0099999997764826
 70
   192
  0
VERTEX
  5
7E7
  8
0
  6
HCS_01
 62
     7
 10
7.943594455718994
 20
43.03707504272461
 30
0.0099999997764826
 70
   192
  0
VERTEX
  5
7E8
  8
0
  6
HCS_01
 62
     7
 10
8.403690338134766
 20
42.69907760620117
 30
0.0099999997764826
 70
   192
  0
VERTEX
  5
7E9
  8
0
  6
HCS_01
 62
     7
 10
8.367963790893555
 20
42.66403579711914
 30
0.0099999997764826
 70
   192
  0
VERTEX
  5
7EA
  8
0
  6
HCS_01
 62
     7
 10
8.38254451751709
 20
42.53536987304688
 30
0.0099999997764826
 70
   192
  0
VERTEX
  5
7EB
  8
0
  6
HCS_01
 62
     7
 10
8.403690338134766
 20
42.69907760620117
 30
0.0099999997764826
 70
   192
  0
VERTEX
  5
7EC
  8
0
  6
HCS_01
 62
     7
 10
8.38254451751709
 20
42.53536987304688
 30
0.0099999997764826
 70
   192
  0
VERTEX
  5
7ED
  8
0
  6
HCS_01
 62
     7
 10
8.458175659179688
 20
42.58243560791016
 30
0.0099999997764826
 70
   192
  0
VERTEX
  5
7EE
  8
0
  6
HCS_01
 62
     7
 10
8.403690338134766
 20
42.69907760620117
 30
0.0099999997764826
 70
   192
  0
VERTEX
  5
7EF
  8
0
  6
HCS_01
 62
     7
 10
8.458175659179688
 20
42.58243560791016
 30
0.0099999997764826
 70
   192
  0
VERTEX
  5
7F0
  8
0
  6
HCS_01
 62
     7
 10
8.424921035766602
 20
42.74009323120117
 30
0.0099999997764826
 70
   192
  0
VERTEX
  5
7F1
  8
0
  6
HCS_01
 62
     7
 10
8.183703422546387
 20
42.61483764648438
 30
0.0099999997764826
 70
   192
  0
VERTEX
  5
7F2
  8
0
  6
HCS_01
 62
     7
 10
8.18984317779541
 20
42.49614715576172
 30
0.0099999997764826
 70
   192
  0
VERTEX
  5
7F3
  8
0
  6
HCS_01
 62
     7
 10
8.254985809326172
 20
42.62046432495117
 30
0.0099999997764826
 70
   192
  0
VERTEX
  5
7F4
  8
0
  6
HCS_01
 62
     7
 10
8.29156494140625
 20
42.50595092773438
 30
0.0099999997764826
 70
   192
  0
VERTEX
  5
7F5
  8
0
  6
HCS_01
 62
     7
 10
8.254985809326172
 20
42.62046432495117
 30
0.0099999997764826
 70
   192
  0
VERTEX
  5
7F6
  8
0
  6
HCS_01
 62
     7
 10
8.18984317779541
 20
42.49614715576172
 30
0.0099999997764826
 70
   192
  0
VERTEX
  5
7F7
  8
0
  6
HCS_01
 62
     7
 10
8.254985809326172
 20
42.62046432495117
 30
0.0099999997764826
 70
   192
  0
VERTEX
  5
7F8
  8
0
  6
HCS_01
 62
     7
 10
8.29156494140625
 20
42.50595092773438
 30
0.0099999997764826
 70
   192
  0
VERTEX
  5
7F9
  8
0
  6
HCS_01
 62
     7
 10
8.317400932312012
 20
42.63734436035156
 30
0.0099999997764826
 70
   192
  0
VERTEX
  5
7FA
  8
0
  6
HCS_01
 62
     7
 10
8.38254451751709
 20
42.53536987304688
 30
0.0099999997764826
 70
   192
  0
VERTEX
  5
7FB
  8
0
  6
HCS_01
 62
     7
 10
8.317400932312012
 20
42.63734436035156
 30
0.0099999997764826
 70
   192
  0
VERTEX
  5
7FC
  8
0
  6
HCS_01
 62
     7
 10
8.29156494140625
 20
42.50595092773438
 30
0.0099999997764826
 70
   192
  0
VERTEX
  5
7FD
  8
0
  6
HCS_01
 62
     7
 10
8.317400932312012
 20
42.63734436035156
 30
0.0099999997764826
 70
   192
  0
VERTEX
  5
7FE
  8
0
  6
HCS_01
 62
     7
 10
8.38254451751709
 20
42.53536987304688
 30
0.0099999997764826
 70
   192
  0
VERTEX
  5
7FF
  8
0
  6
HCS_01
 62
     7
 10
8.367963790893555
 20
42.66403579711914
 30
0.0099999997764826
 70
   192
  0
VERTEX
  5
800
  8
0
  6
HCS_01
 62
     7
 10
8.102701187133789
 20
42.62225341796875
 30
0.0099999997764826
 70
   192
  0
VERTEX
  5
801
  8
0
  6
HCS_01
 62
     7
 10
8.030224800109863
 20
42.64450836181641
 30
0.0099999997764826
 70
   192
  0
VERTEX
  5
802
  8
0
  6
HCS_01
 62
     7
 10
8.065098762512207
 20
42.50603485107422
 30
0.0099999997764826
 70
   192
  0
VERTEX
  5
803
  8
0
  6
HCS_01
 62
     7
 10
8.102701187133789
 20
42.62225341796875
 30
0.0099999997764826
 70
   192
  0
VERTEX
  5
804
  8
0
  6
HCS_01
 62
     7
 10
8.065098762512207
 20
42.50603485107422
 30
0.0099999997764826
 70
   192
  0
VERTEX
  5
805
  8
0
  6
HCS_01
 62
     7
 10
8.18984317779541
 20
42.49614715576172
 30
0.0099999997764826
 70
   192
  0
VERTEX
  5
806
  8
0
  6
HCS_01
 62
     7
 10
8.102701187133789
 20
42.62225341796875
 30
0.0099999997764826
 70
   192
  0
VERTEX
  5
807
  8
0
  6
HCS_01
 62
     7
 10
8.18984317779541
 20
42.49614715576172
 30
0.0099999997764826
 70
   192
  0
VERTEX
  5
808
  8
0
  6
HCS_01
 62
     7
 10
8.183703422546387
 20
42.61483764648438
 30
0.0099999997764826
 70
   192
  0
VERTEX
  5
809
  8
0
  6
HCS_01
 62
     7
 10
7.970964908599854
 20
42.67878723144531
 30
0.0099999997764826
 70
   192
  0
VERTEX
  5
80A
  8
0
  6
HCS_01
 62
     7
 10
7.929611206054688
 20
42.72227096557617
 30
0.0099999997764826
 70
   192
  0
VERTEX
  5
80B
  8
0
  6
HCS_01
 62
     7
 10
7.962353229522705
 20
42.53570938110352
 30
0.0099999997764826
 70
   192
  0
VERTEX
  5
80C
  8
0
  6
HCS_01
 62
     7
 10
7.970964908599854
 20
42.67878723144531
 30
0.0099999997764826
 70
   192
  0
VERTEX
  5
80D
  8
0
  6
HCS_01
 62
     7
 10
7.962353229522705
 20
42.53570938110352
 30
0.0099999997764826
 70
   192
  0
VERTEX
  5
80E
  8
0
  6
HCS_01
 62
     7
 10
8.065098762512207
 20
42.50603485107422
 30
0.0099999997764826
 70
   192
  0
VERTEX
  5
80F
  8
0
  6
HCS_01
 62
     7
 10
7.970964908599854
 20
42.67878723144531
 30
0.0099999997764826
 70
   192
  0
VERTEX
  5
810
  8
0
  6
HCS_01
 62
     7
 10
8.065098762512207
 20
42.50603485107422
 30
0.0099999997764826
 70
   192
  0
VERTEX
  5
811
  8
0
  6
HCS_01
 62
     7
 10
8.030224800109863
 20
42.64450836181641
 30
0.0099999997764826
 70
   192
  0
VERTEX
  5
812
  8
0
  6
HCS_01
 62
     7
 10
7.778604984283447
 20
42.73941040039062
 30
0.0099999997764826
 70
   192
  0
VERTEX
  5
813
  8
0
  6
HCS_01
 62
     7
 10
7.818424224853516
 20
42.65473937988281
 30
0.0099999997764826
 70
   192
  0
VERTEX
  5
814
  8
0
  6
HCS_01
 62
     7
 10
7.888342380523682
 20
42.84539413452148
 30
0.0099999997764826
 70
   192
  0
VERTEX
  5
815
  8
0
  6
HCS_01
 62
     7
 10
7.880497932434082
 20
42.58524703979492
 30
0.0099999997764826
 70
   192
  0
VERTEX
  5
816
  8
0
  6
HCS_01
 62
     7
 10
7.888342380523682
 20
42.84539413452148
 30
0.0099999997764826
 70
   192
  0
VERTEX
  5
817
  8
0
  6
HCS_01
 62
     7
 10
7.818424224853516
 20
42.65473937988281
 30
0.0099999997764826
 70
   192
  0
VERTEX
  5
818
  8
0
  6
HCS_01
 62
     7
 10
7.888342380523682
 20
42.84539413452148
 30
0.0099999997764826
 70
   192
  0
VERTEX
  5
819
  8
0
  6
HCS_01
 62
     7
 10
7.880497932434082
 20
42.58524703979492
 30
0.0099999997764826
 70
   192
  0
VERTEX
  5
81A
  8
0
  6
HCS_01
 62
     7
 10
7.903093338012695
 20
42.77709579467773
 30
0.0099999997764826
 70
   192
  0
VERTEX
  5
81B
  8
0
  6
HCS_01
 62
     7
 10
7.962353229522705
 20
42.53570938110352
 30
0.0099999997764826
 70
   192
  0
VERTEX
  5
81C
  8
0
  6
HCS_01
 62
     7
 10
7.903093338012695
 20
42.77709579467773
 30
0.0099999997764826
 70
   192
  0
VERTEX
  5
81D
  8
0
  6
HCS_01
 62
     7
 10
7.880497932434082
 20
42.58524703979492
 30
0.0099999997764826
 70
   192
  0
VERTEX
  5
81E
  8
0
  6
HCS_01
 62
     7
 10
7.903093338012695
 20
42.77709579467773
 30
0.0099999997764826
 70
   192
  0
VERTEX
  5
81F
  8
0
  6
HCS_01
 62
     7
 10
7.962353229522705
 20
42.53570938110352
 30
0.0099999997764826
 70
   192
  0
VERTEX
  5
820
  8
0
  6
HCS_01
 62
     7
 10
7.929611206054688
 20
42.72227096557617
 30
0.0099999997764826
 70
   192
  0
VERTEX
  5
821
  8
0
  6
HCS_01
 62
     7
 10
8.380242347717285
 20
43.30514907836914
 30
0.0099999997764826
 70
   192
  0
VERTEX
  5
822
  8
0
  6
HCS_01
 62
     7
 10
8.402667045593262
 20
43.22193145751953
 30
0.0099999997764826
 70
   192
  0
VERTEX
  5
823
  8
0
  6
HCS_01
 62
     7
 10
8.424921035766602
 20
43.45018768310547
 30
0.0099999997764826
 70
   192
  0
VERTEX
  5
824
  8
0
  6
HCS_01
 62
     7
 10
8.529542922973633
 20
43.23147964477539
 30
0.0099999997764826
 70
   192
  0
VERTEX
  5
825
  8
0
  6
HCS_01
 62
     7
 10
8.424921035766602
 20
43.45018768310547
 30
0.0099999997764826
 70
   192
  0
VERTEX
  5
826
  8
0
  6
HCS_01
 62
     7
 10
8.402667045593262
 20
43.22193145751953
 30
0.0099999997764826
 70
   192
  0
VERTEX
  5
827
  8
0
  6
HCS_01
 62
     7
 10
8.424921035766602
 20
43.45018768310547
 30
0.0099999997764826
 70
   192
  0
VERTEX
  5
828
  8
0
  6
HCS_01
 62
     7
 10
8.529542922973633
 20
43.23147964477539
 30
0.0099999997764826
 70
   192
  0
VERTEX
  5
829
  8
0
  6
HCS_01
 62
     7
 10
8.480429649353027
 20
43.38905334472656
 30
0.0099999997764826
 70
   192
  0
VERTEX
  5
82A
  8
0
  6
HCS_01
 62
     7
 10
8.515559196472168
 20
43.31486892700195
 30
0.0099999997764826
 70
   192
  0
VERTEX
  5
82B
  8
0
  6
HCS_01
 62
     7
 10
8.480429649353027
 20
43.38905334472656
 30
0.0099999997764826
 70
   192
  0
VERTEX
  5
82C
  8
0
  6
HCS_01
 62
     7
 10
8.529542922973633
 20
43.23147964477539
 30
0.0099999997764826
 70
   192
  0
VERTEX
  5
82D
  8
0
  6
HCS_01
 62
     7
 10
8.349802017211914
 20
43.49444198608398
 30
0.0099999997764826
 70
   192
  0
VERTEX
  5
82E
  8
0
  6
HCS_01
 62
     7
 10
8.25831127166748
 20
43.52129745483398
 30
0.0099999997764826
 70
   192
  0
VERTEX
  5
82F
  8
0
  6
HCS_01
 62
     7
 10
8.260357856750488
 20
43.4015007019043
 30
0.0099999997764826
 70
   192
  0
VERTEX
  5
830
  8
0
  6
HCS_01
 62
     7
 10
8.349802017211914
 20
43.49444198608398
 30
0.0099999997764826
 70
   192
  0
VERTEX
  5
831
  8
0
  6
HCS_01
 62
     7
 10
8.260357856750488
 20
43.4015007019043
 30
0.0099999997764826
 70
   192
  0
VERTEX
  5
832
  8
0
  6
HCS_01
 62
     7
 10
8.333431243896484
 20
43.36517715454102
 30
0.0099999997764826
 70
   192
  0
VERTEX
  5
833
  8
0
  6
HCS_01
 62
     7
 10
8.349802017211914
 20
43.49444198608398
 30
0.0099999997764826
 70
   192
  0
VERTEX
  5
834
  8
0
  6
HCS_01
 62
     7
 10
8.333431243896484
 20
43.36517715454102
 30
0.0099999997764826
 70
   192
  0
VERTEX
  5
835
  8
0
  6
HCS_01
 62
     7
 10
8.380242347717285
 20
43.30514907836914
 30
0.0099999997764826
 70
   192
  0
VERTEX
  5
836
  8
0
  6
HCS_01
 62
     7
 10
8.349802017211914
 20
43.49444198608398
 30
0.0099999997764826
 70
   192
  0
VERTEX
  5
837
  8
0
  6
HCS_01
 62
     7
 10
8.380242347717285
 20
43.30514907836914
 30
0.0099999997764826
 70
   192
  0
VERTEX
  5
838
  8
0
  6
HCS_01
 62
     7
 10
8.424921035766602
 20
43.45018768310547
 30
0.0099999997764826
 70
   192
  0
VERTEX
  5
839
  8
0
  6
HCS_01
 62
     7
 10
8.159147262573242
 20
43.41360855102539
 30
0.0099999997764826
 70
   192
  0
VERTEX
  5
83A
  8
0
  6
HCS_01
 62
     7
 10
8.260357856750488
 20
43.4015007019043
 30
0.0099999997764826
 70
   192
  0
VERTEX
  5
83B
  8
0
  6
HCS_01
 62
     7
 10
8.25831127166748
 20
43.52129745483398
 30
0.0099999997764826
 70
   192
  0
VERTEX
  5
83C
  8
0
  6
HCS_01
 62
     7
 10
8.159147262573242
 20
43.41360855102539
 30
0.0099999997764826
 70
   192
  0
VERTEX
  5
83D
  8
0
  6
HCS_01
 62
     7
 10
8.25831127166748
 20
43.52129745483398
 30
0.0099999997764826
 70
   192
  0
VERTEX
  5
83E
  8
0
  6
HCS_01
 62
     7
 10
8.153690338134766
 20
43.53025054931641
 30
0.0099999997764826
 70
   192
  0
VERTEX
  5
83F
  8
0
  6
HCS_01
 62
     7
 10
8.159147262573242
 20
43.41360855102539
 30
0.0099999997764826
 70
   192
  0
VERTEX
  5
840
  8
0
  6
HCS_01
 62
     7
 10
8.153690338134766
 20
43.53025054931641
 30
0.0099999997764826
 70
   192
  0
VERTEX
  5
841
  8
0
  6
HCS_01
 62
     7
 10
8.057339668273926
 20
43.52172470092773
 30
0.0099999997764826
 70
   192
  0
VERTEX
  5
842
  8
0
  6
HCS_01
 62
     7
 10
8.159147262573242
 20
43.41360855102539
 30
0.0099999997764826
 70
   192
  0
VERTEX
  5
843
  8
0
  6
HCS_01
 62
     7
 10
8.057339668273926
 20
43.52172470092773
 30
0.0099999997764826
 70
   192
  0
VERTEX
  5
844
  8
0
  6
HCS_01
 62
     7
 10
8.055377960205078
 20
43.40260696411133
 30
0.0099999997764826
 70
   192
  0
VERTEX
  5
845
  8
0
  6
HCS_01
 62
     7
 10
7.929269790649414
 20
43.2635383605957
 30
0.0099999997764826
 70
   192
  0
VERTEX
  5
846
  8
0
  6
HCS_01
 62
     7
 10
7.942997932434082
 20
43.32109451293945
 30
0.0099999997764826
 70
   192
  0
VERTEX
  5
847
  8
0
  6
HCS_01
 62
     7
 10
7.970197677612305
 20
43.49614715576172
 30
0.0099999997764826
 70
   192
  0
VERTEX
  5
848
  8
0
  6
HCS_01
 62
     7
 10
7.98418140411377
 20
43.36960983276367
 30
0.0099999997764826
 70
   192
  0
VERTEX
  5
849
  8
0
  6
HCS_01
 62
     7
 10
7.970197677612305
 20
43.49614715576172
 30
0.0099999997764826
 70
   192
  0
VERTEX
  5
84A
  8
0
  6
HCS_01
 62
     7
 10
7.942997932434082
 20
43.32109451293945
 30
0.0099999997764826
 70
   192
  0
VERTEX
  5
84B
  8
0
  6
HCS_01
 62
     7
 10
7.970197677612305
 20
43.49614715576172
 30
0.0099999997764826
 70
   192
  0
VERTEX
  5
84C
  8
0
  6
HCS_01
 62
     7
 10
7.98418140411377
 20
43.36960983276367
 30
0.0099999997764826
 70
   192
  0
VERTEX
  5
84D
  8
0
  6
HCS_01
 62
     7
 10
8.057339668273926
 20
43.52172470092773
 30
0.0099999997764826
 70
   192
  0
VERTEX
  5
84E
  8
0
  6
HCS_01
 62
     7
 10
8.055377960205078
 20
43.40260696411133
 30
0.0099999997764826
 70
   192
  0
VERTEX
  5
84F
  8
0
  6
HCS_01
 62
     7
 10
8.057339668273926
 20
43.52172470092773
 30
0.0099999997764826
 70
   192
  0
VERTEX
  5
850
  8
0
  6
HCS_01
 62
     7
 10
7.98418140411377
 20
43.36960983276367
 30
0.0099999997764826
 70
   192
  0
VERTEX
  5
851
  8
0
  6
HCS_01
 62
     7
 10
7.929269790649414
 20
43.2635383605957
 30
0.0099999997764826
 70
   192
  0
VERTEX
  5
852
  8
0
  6
HCS_01
 62
     7
 10
7.970197677612305
 20
43.49614715576172
 30
0.0099999997764826
 70
   192
  0
VERTEX
  5
853
  8
0
  6
HCS_01
 62
     7
 10
7.8975510597229
 20
43.45410919189453
 30
0.0099999997764826
 70
   192
  0
VERTEX
  5
854
  8
0
  6
HCS_01
 62
     7
 10
7.778604984283447
 20
42.73941040039062
 30
0.0099999997764826
 70
   192
  0
VERTEX
  5
855
  8
0
  6
HCS_01
 62
     7
 10
7.888342380523682
 20
42.84539413452148
 30
0.0099999997764826
 70
   192
  0
VERTEX
  5
856
  8
0
  6
HCS_01
 62
     7
 10
7.76351261138916
 20
42.83448028564453
 30
0.0099999997764826
 70
   192
  0
VERTEX
  5
857
  8
0
  6
HCS_01
 62
     7
 10
9.528861045837402
 20
43.51319885253906
 30
0.0099999997764826
 70
   192
  0
VERTEX
  5
858
  8
0
  6
HCS_01
 62
     7
 10
9.396528244018555
 20
43.51319885253906
 30
0.0099999997764826
 70
   192
  0
VERTEX
  5
859
  8
0
  6
HCS_01
 62
     7
 10
9.528861045837402
 20
42.51319885253906
 30
0.0099999997764826
 70
   192
  0
VERTEX
  5
85A
  8
0
  6
HCS_01
 62
     7
 10
9.396528244018555
 20
43.10255813598633
 30
0.0099999997764826
 70
   192
  0
VERTEX
  5
85B
  8
0
  6
HCS_01
 62
     7
 10
9.528861045837402
 20
42.51319885253906
 30
0.0099999997764826
 70
   192
  0
VERTEX
  5
85C
  8
0
  6
HCS_01
 62
     7
 10
9.396528244018555
 20
43.51319885253906
 30
0.0099999997764826
 70
   192
  0
VERTEX
  5
85D
  8
0
  6
HCS_01
 62
     7
 10
9.528861045837402
 20
42.51319885253906
 30
0.0099999997764826
 70
   192
  0
VERTEX
  5
85E
  8
0
  6
HCS_01
 62
     7
 10
9.396528244018555
 20
43.10255813598633
 30
0.0099999997764826
 70
   192
  0
VERTEX
  5
85F
  8
0
  6
HCS_01
 62
     7
 10
9.396528244018555
 20
42.98455047607422
 30
0.0099999997764826
 70
   192
  0
VERTEX
  5
860
  8
0
  6
HCS_01
 62
     7
 10
8.87674617767334
 20
43.10255813598633
 30
0.0099999997764826
 70
   192
  0
VERTEX
  5
861
  8
0
  6
HCS_01
 62
     7
 10
9.396528244018555
 20
42.98455047607422
 30
0.0099999997764826
 70
   192
  0
VERTEX
  5
862
  8
0
  6
HCS_01
 62
     7
 10
9.396528244018555
 20
43.10255813598633
 30
0.0099999997764826
 70
   192
  0
VERTEX
  5
863
  8
0
  6
HCS_01
 62
     7
 10
9.396528244018555
 20
42.98455047607422
 30
0.0099999997764826
 70
   192
  0
VERTEX
  5
864
  8
0
  6
HCS_01
 62
     7
 10
8.87674617767334
 20
43.10255813598633
 30
0.0099999997764826
 70
   192
  0
VERTEX
  5
865
  8
0
  6
HCS_01
 62
     7
 10
8.87674617767334
 20
42.98455047607422
 30
0.0099999997764826
 70
   192
  0
VERTEX
  5
866
  8
0
  6
HCS_01
 62
     7
 10
8.87674617767334
 20
43.51319885253906
 30
0.0099999997764826
 70
   192
  0
VERTEX
  5
867
  8
0
  6
HCS_01
 62
     7
 10
8.87674617767334
 20
42.98455047607422
 30
0.0099999997764826
 70
   192
  0
VERTEX
  5
868
  8
0
  6
HCS_01
 62
     7
 10
8.87674617767334
 20
43.10255813598633
 30
0.0099999997764826
 70
   192
  0
VERTEX
  5
869
  8
0
  6
HCS_01
 62
     7
 10
8.87674617767334
 20
42.51319885253906
 30
0.0099999997764826
 70
   192
  0
VERTEX
  5
86A
  8
0
  6
HCS_01
 62
     7
 10
8.87674617767334
 20
43.51319885253906
 30
0.0099999997764826
 70
   192
  0
VERTEX
  5
86B
  8
0
  6
HCS_01
 62
     7
 10
8.87674617767334
 20
42.98455047607422
 30
0.0099999997764826
 70
   192
  0
VERTEX
  5
86C
  8
0
  6
HCS_01
 62
     7
 10
8.744413375854492
 20
43.51319885253906
 30
0.0099999997764826
 70
   192
  0
VERTEX
  5
86D
  8
0
  6
HCS_01
 62
     7
 10
8.87674617767334
 20
42.51319885253906
 30
0.0099999997764826
 70
   192
  0
VERTEX
  5
86E
  8
0
  6
HCS_01
 62
     7
 10
8.87674617767334
 20
43.51319885253906
 30
0.0099999997764826
 70
   192
  0
VERTEX
  5
86F
  8
0
  6
HCS_01
 62
     7
 10
8.87674617767334
 20
42.51319885253906
 30
0.0099999997764826
 70
   192
  0
VERTEX
  5
870
  8
0
  6
HCS_01
 62
     7
 10
8.744413375854492
 20
43.51319885253906
 30
0.0099999997764826
 70
   192
  0
VERTEX
  5
871
  8
0
  6
HCS_01
 62
     7
 10
8.744413375854492
 20
42.51319885253906
 30
0.0099999997764826
 70
   192
  0
VERTEX
  5
872
  8
0
  6
HCS_01
 62
     7
 10
9.528861045837402
 20
42.51319885253906
 30
0.0099999997764826
 70
   192
  0
VERTEX
  5
873
  8
0
  6
HCS_01
 62
     7
 10
9.396528244018555
 20
42.98455047607422
 30
0.0099999997764826
 70
   192
  0
VERTEX
  5
874
  8
0
  6
HCS_01
 62
     7
 10
9.396528244018555
 20
42.51319885253906
 30
0.0099999997764826
 70
   192
  0
VERTEX
  5
875
  8
0
  6
HCS_01
 62
     7
 10
9.743730545043945
 20
43.51319885253906
 30
0.0099999997764826
 70
   192
  0
VERTEX
  5
876
  8
0
  6
HCS_01
 62
     7
 10
9.87606430053711
 20
42.51319885253906
 30
0.0099999997764826
 70
   192
  0
VERTEX
  5
877
  8
0
  6
HCS_01
 62
     7
 10
9.87606430053711
 20
43.51319885253906
 30
0.0099999997764826
 70
   192
  0
VERTEX
  5
878
  8
0
  6
HCS_01
 62
     7
 10
9.87606430053711
 20
42.85971832275391
 30
0.0099999997764826
 70
   192
  0
VERTEX
  5
879
  8
0
  6
HCS_01
 62
     7
 10
9.87606430053711
 20
43.51319885253906
 30
0.0099999997764826
 70
   192
  0
VERTEX
  5
87A
  8
0
  6
HCS_01
 62
     7
 10
9.87606430053711
 20
42.51319885253906
 30
0.0099999997764826
 70
   192
  0
VERTEX
  5
87B
  8
0
  6
HCS_01
 62
     7
 10
9.87606430053711
 20
43.01729202270508
 30
0.0099999997764826
 70
   192
  0
VERTEX
  5
87C
  8
0
  6
HCS_01
 62
     7
 10
9.87606430053711
 20
42.85971832275391
 30
0.0099999997764826
 70
   192
  0
VERTEX
  5
87D
  8
0
  6
HCS_01
 62
     7
 10
9.87606430053711
 20
43.51319885253906
 30
0.0099999997764826
 70
   192
  0
VERTEX
  5
87E
  8
0
  6
HCS_01
 62
     7
 10
10.03977489471436
 20
43.01933670043945
 30
0.0099999997764826
 70
   192
  0
VERTEX
  5
87F
  8
0
  6
HCS_01
 62
     7
 10
9.87606430053711
 20
43.01729202270508
 30
0.0099999997764826
 70
   192
  0
VERTEX
  5
880
  8
0
  6
HCS_01
 62
     7
 10
9.87606430053711
 20
42.85971832275391
 30
0.0099999997764826
 70
   192
  0
VERTEX
  5
881
  8
0
  6
HCS_01
 62
     7
 10
9.87606430053711
 20
43.01729202270508
 30
0.0099999997764826
 70
   192
  0
VERTEX
  5
882
  8
0
  6
HCS_01
 62
     7
 10
10.03977489471436
 20
43.01933670043945
 30
0.0099999997764826
 70
   192
  0
VERTEX
  5
883
  8
0
  6
HCS_01
 62
     7
 10
10.37265396118164
 20
43.51319885253906
 30
0.0099999997764826
 70
   192
  0
VERTEX
  5
884
  8
0
  6
HCS_01
 62
     7
 10
10.13254451751709
 20
43.10801315307617
 30
0.0099999997764826
 70
   192
  0
VERTEX
  5
885
  8
0
  6
HCS_01
 62
     7
 10
10.37265396118164
 20
43.51319885253906
 30
0.0099999997764826
 70
   192
  0
VERTEX
  5
886
  8
0
  6
HCS_01
 62
     7
 10
10.03977489471436
 20
43.01933670043945
 30
0.0099999997764826
 70
   192
  0
VERTEX
  5
887
  8
0
  6
HCS_01
 62
     7
 10
10.37265396118164
 20
43.51319885253906
 30
0.0099999997764826
 70
   192
  0
VERTEX
  5
888
  8
0
  6
HCS_01
 62
     7
 10
10.13254451751709
 20
43.10801315307617
 30
0.0099999997764826
 70
   192
  0
VERTEX
  5
889
  8
0
  6
HCS_01
 62
     7
 10
10.55205345153809
 20
43.51319885253906
 30
0.0099999997764826
 70
   192
  0
VERTEX
  5
88A
  8
0
  6
HCS_01
 62
     7
 10
10.13254451751709
 20
43.10801315307617
 30
0.0099999997764826
 70
   192
  0
VERTEX
  5
88B
  8
0
  6
HCS_01
 62
     7
 10
10.03977489471436
 20
43.01933670043945
 30
0.0099999997764826
 70
   192
  0
VERTEX
  5
88C
  8
0
  6
HCS_01
 62
     7
 10
10.39584541320801
 20
42.51319885253906
 30
0.0099999997764826
 70
   192
  0
VERTEX
  5
88D
  8
0
  6
HCS_01
 62
     7
 10
10.13254451751709
 20
43.10801315307617
 30
0.0099999997764826
 70
   192
  0
VERTEX
  5
88E
  8
0
  6
HCS_01
 62
     7
 10
10.39584541320801
 20
42.51319885253906
 30
0.0099999997764826
 70
   192
  0
VERTEX
  5
88F
  8
0
  6
HCS_01
 62
     7
 10
10.57047080993652
 20
42.51319885253906
 30
0.0099999997764826
 70
   192
  0
VERTEX
  5
890
  8
0
  6
HCS_01
 62
     7
 10
9.87606430053711
 20
42.51319885253906
 30
0.0099999997764826
 70
   192
  0
VERTEX
  5
891
  8
0
  6
HCS_01
 62
     7
 10
9.743730545043945
 20
43.51319885253906
 30
0.0099999997764826
 70
   192
  0
VERTEX
  5
892
  8
0
  6
HCS_01
 62
     7
 10
9.743730545043945
 20
42.51319885253906
 30
0.0099999997764826
 70
   192
  0
VERTEX
  5
893
  8
0
  6
HCS_01
 62
     7
 10
11.13800144195557
 20
42.66463088989258
 30
0.0099999997764826
 70
   192
  0
VERTEX
  5
894
  8
0
  6
HCS_01
 62
     7
 10
11.01794624328613
 20
42.53025054931641
 30
0.0099999997764826
 70
   192
  0
VERTEX
  5
895
  8
0
  6
HCS_01
 62
     7
 10
11.08547782897949
 20
42.47295379638672
 30
0.0099999997764826
 70
   192
  0
VERTEX
  5
896
  8
0
  6
HCS_01
 62
     7
 10
11.13800144195557
 20
42.66463088989258
 30
0.0099999997764826
 70
   192
  0
VERTEX
  5
897
  8
0
  6
HCS_01
 62
     7
 10
11.08547782897949
 20
42.47295379638672
 30
0.0099999997764826
 70
   192
  0
VERTEX
  5
898
  8
0
  6
HCS_01
 62
     7
 10
11.20007514953613
 20
42.60119247436523
 30
0.0099999997764826
 70
   192
  0
VERTEX
  5
899
  8
0
  6
HCS_01
 62
     7
 10
11.13800144195557
 20
42.66463088989258
 30
0.0099999997764826
 70
   192
  0
VERTEX
  5
89A
  8
0
  6
HCS_01
 62
     7
 10
11.20007514953613
 20
42.60119247436523
 30
0.0099999997764826
 70
   192
  0
VERTEX
  5
89B
  8
0
  6
HCS_01
 62
     7
 10
11.16630935668945
 20
42.93850708007812
 30
0.0099999997764826
 70
   192
  0
VERTEX
  5
89C
  8
0
  6
HCS_01
 62
     7
 10
11.13800144195557
 20
42.66463088989258
 30
0.0099999997764826
 70
   192
  0
VERTEX
  5
89D
  8
0
  6
HCS_01
 62
     7
 10
11.16630935668945
 20
42.93850708007812
 30
0.0099999997764826
 70
   192
  0
VERTEX
  5
89E
  8
0
  6
HCS_01
 62
     7
 10
11.16255760192871
 20
43.01319885253906
 30
0.0099999997764826
 70
   192
  0
VERTEX
  5
89F
  8
0
  6
HCS_01
 62
     7
 10
11.13800144195557
 20
42.66463088989258
 30
0.0099999997764826
 70
   192
  0
VERTEX
  5
8A0
  8
0
  6
HCS_01
 62
     7
 10
11.16255760192871
 20
43.01319885253906
 30
0.0099999997764826
 70
   192
  0
VERTEX
  5
8A1
  8
0
  6
HCS_01
 62
     7
 10
11.16127872467041
 20
43.39152526855469
 30
0.0099999997764826
 70
   192
  0
VERTEX
  5
8A2
  8
0
  6
HCS_01
 62
     7
 10
11.13800144195557
 20
42.66463088989258
 30
0.0099999997764826
 70
   192
  0
VERTEX
  5
8A3
  8
0
  6
HCS_01
 62
     7
 10
11.16127872467041
 20
43.39152526855469
 30
0.0099999997764826
 70
   192
  0
VERTEX
  5
8A4
  8
0
  6
HCS_01
 62
     7
 10
11.08752346038818
 20
43.28570938110352
 30
0.0099999997764826
 70
   192
  0
VERTEX
  5
8A5
  8
0
  6
HCS_01
 62
     7
 10
11.13800144195557
 20
42.66463088989258
 30
0.0099999997764826
 70
   192
  0
VERTEX
  5
8A6
  8
0
  6
HCS_01
 62
     7
 10
11.08752346038818
 20
43.28570938110352
 30
0.0099999997764826
 70
   192
  0
VERTEX
  5
8A7
  8
0
  6
HCS_01
 62
     7
 10
11.08223724365234
 20
42.75885009765625
 30
0.0099999997764826
 70
   192
  0
VERTEX
  5
8A8
  8
0
  6
HCS_01
 62
     7
 10
11.02613258361816
 20
43.01115417480469
 30
0.0099999997764826
 70
   192
  0
VERTEX
  5
8A9
  8
0
  6
HCS_01
 62
     7
 10
11.03175926208496
 20
42.91744613647461
 30
0.0099999997764826
 70
   192
  0
VERTEX
  5
8AA
  8
0
  6
HCS_01
 62
     7
 10
11.04148006439209
 20
43.1568717956543
 30
0.0099999997764826
 70
   192
  0
VERTEX
  5
8AB
  8
0
  6
HCS_01
 62
     7
 10
11.0486421585083
 20
42.83823394775391
 30
0.0099999997764826
 70
   192
  0
VERTEX
  5
8AC
  8
0
  6
HCS_01
 62
     7
 10
11.04148006439209
 20
43.1568717956543
 30
0.0099999997764826
 70
   192
  0
VERTEX
  5
8AD
  8
0
  6
HCS_01
 62
     7
 10
11.03175926208496
 20
42.91744613647461
 30
0.0099999997764826
 70
   192
  0
VERTEX
  5
8AE
  8
0
  6
HCS_01
 62
     7
 10
11.04148006439209
 20
43.1568717956543
 30
0.0099999997764826
 70
   192
  0
VERTEX
  5
8AF
  8
0
  6
HCS_01
 62
     7
 10
11.0486421585083
 20
42.83823394775391
 30
0.0099999997764826
 70
   192
  0
VERTEX
  5
8B0
  8
0
  6
HCS_01
 62
     7
 10
11.08752346038818
 20
43.28570938110352
 30
0.0099999997764826
 70
   192
  0
VERTEX
  5
8B1
  8
0
  6
HCS_01
 62
     7
 10
11.08223724365234
 20
42.75885009765625
 30
0.0099999997764826
 70
   192
  0
VERTEX
  5
8B2
  8
0
  6
HCS_01
 62
     7
 10
11.08752346038818
 20
43.28570938110352
 30
0.0099999997764826
 70
   192
  0
VERTEX
  5
8B3
  8
0
  6
HCS_01
 62
     7
 10
11.0486421585083
 20
42.83823394775391
 30
0.0099999997764826
 70
   192
  0
VERTEX
  5
8B4
  8
0
  6
HCS_01
 62
     7
 10
11.84579467773438
 20
42.63359451293945
 30
0.0099999997764826
 70
   192
  0
VERTEX
  5
8B5
  8
0
  6
HCS_01
 62
     7
 10
11.92040252685547
 20
42.73898315429688
 30
0.0099999997764826
 70
   192
  0
VERTEX
  5
8B6
  8
0
  6
HCS_01
 62
     7
 10
11.84605026245117
 20
43.00910568237305
 30
0.0099999997764826
 70
   192
  0
VERTEX
  5
8B7
  8
0
  6
HCS_01
 62
     7
 10
11.87606430053711
 20
43.35767364501953
 30
0.0099999997764826
 70
   192
  0
VERTEX
  5
8B8
  8
0
  6
HCS_01
 62
     7
 10
11.84605026245117
 20
43.00910568237305
 30
0.0099999997764826
 70
   192
  0
VERTEX
  5
8B9
  8
0
  6
HCS_01
 62
     7
 10
11.92040252685547
 20
42.73898315429688
 30
0.0099999997764826
 70
   192
  0
VERTEX
  5
8BA
  8
0
  6
HCS_01
 62
     7
 10
11.84605026245117
 20
43.00910568237305
 30
0.0099999997764826
 70
   192
  0
VERTEX
  5
8BB
  8
0
  6
HCS_01
 62
     7
 10
11.87606430053711
 20
43.35767364501953
 30
0.0099999997764826
 70
   192
  0
VERTEX
  5
8BC
  8
0
  6
HCS_01
 62
     7
 10
11.8315544128418
 20
43.14263153076172
 30
0.0099999997764826
 70
   192
  0
VERTEX
  5
8BD
  8
0
  6
HCS_01
 62
     7
 10
11.81398963928223
 20
43.42179489135742
 30
0.0099999997764826
 70
   192
  0
VERTEX
  5
8BE
  8
0
  6
HCS_01
 62
     7
 10
11.8315544128418
 20
43.14263153076172
 30
0.0099999997764826
 70
   192
  0
VERTEX
  5
8BF
  8
0
  6
HCS_01
 62
     7
 10
11.87606430053711
 20
43.35767364501953
 30
0.0099999997764826
 70
   192
  0
VERTEX
  5
8C0
  8
0
  6
HCS_01
 62
     7
 10
11.8315544128418
 20
43.14263153076172
 30
0.0099999997764826
 70
   192
  0
VERTEX
  5
8C1
  8
0
  6
HCS_01
 62
     7
 10
11.81398963928223
 20
43.42179489135742
 30
0.0099999997764826
 70
   192
  0
VERTEX
  5
8C2
  8
0
  6
HCS_01
 62
     7
 10
11.7880687713623
 20
43.25944900512695
 30
0.0099999997764826
 70
   192
  0
VERTEX
  5
8C3
  8
0
  6
HCS_01
 62
     7
 10
11.73750686645508
 20
43.47286987304688
 30
0.0099999997764826
 70
   192
  0
VERTEX
  5
8C4
  8
0
  6
HCS_01
 62
     7
 10
11.7880687713623
 20
43.25944900512695
 30
0.0099999997764826
 70
   192
  0
VERTEX
  5
8C5
  8
0
  6
HCS_01
 62
     7
 10
11.81398963928223
 20
43.42179489135742
 30
0.0099999997764826
 70
   192
  0
VERTEX
  5
8C6
  8
0
  6
HCS_01
 62
     7
 10
11.7880687713623
 20
43.25944900512695
 30
0.0099999997764826
 70
   192
  0
VERTEX
  5
8C7
  8
0
  6
HCS_01
 62
     7
 10
11.73750686645508
 20
43.47286987304688
 30
0.0099999997764826
 70
   192
  0
VERTEX
  5
8C8
  8
0
  6
HCS_01
 62
     7
 10
11.73213481903076
 20
43.32970809936523
 30
0.0099999997764826
 70
   192
  0
VERTEX
  5
8C9
  8
0
  6
HCS_01
 62
     7
 10
11.67202186584473
 20
43.37216949462891
 30
0.0099999997764826
 70
   192
  0
VERTEX
  5
8CA
  8
0
  6
HCS_01
 62
     7
 10
11.73213481903076
 20
43.32970809936523
 30
0.0099999997764826
 70
   192
  0
VERTEX
  5
8CB
  8
0
  6
HCS_01
 62
     7
 10
11.73750686645508
 20
43.47286987304688
 30
0.0099999997764826
 70
   192
  0
VERTEX
  5
8CC
  8
0
  6
HCS_01
 62
     7
 10
11.50703239440918
 20
43.41701889038086
 30
0.0099999997764826
 70
   192
  0
VERTEX
  5
8CD
  8
0
  6
HCS_01
 62
     7
 10
11.56765651702881
 20
43.41241455078125
 30
0.0099999997764826
 70
   192
  0
VERTEX
  5
8CE
  8
0
  6
HCS_01
 62
     7
 10
11.59204292297363
 20
43.52419662475586
 30
0.0099999997764826
 70
   192
  0
VERTEX
  5
8CF
  8
0
  6
HCS_01
 62
     7
 10
11.61992454528809
 20
43.39860153198242
 30
0.0099999997764826
 70
   192
  0
VERTEX
  5
8D0
  8
0
  6
HCS_01
 62
     7
 10
11.59204292297363
 20
43.52419662475586
 30
0.0099999997764826
 70
   192
  0
VERTEX
  5
8D1
  8
0
  6
HCS_01
 62
     7
 10
11.56765651702881
 20
43.41241455078125
 30
0.0099999997764826
 70
   192
  0
VERTEX
  5
8D2
  8
0
  6
HCS_01
 62
     7
 10
11.59204292297363
 20
43.52419662475586
 30
0.0099999997764826
 70
   192
  0
VERTEX
  5
8D3
  8
0
  6
HCS_01
 62
     7
 10
11.61992454528809
 20
43.39860153198242
 30
0.0099999997764826
 70
   192
  0
VERTEX
  5
8D4
  8
0
  6
HCS_01
 62
     7
 10
11.66630935668945
 20
43.50603485107422
 30
0.0099999997764826
 70
   192
  0
VERTEX
  5
8D5
  8
0
  6
HCS_01
 62
     7
 10
11.67202186584473
 20
43.37216949462891
 30
0.0099999997764826
 70
   192
  0
VERTEX
  5
8D6
  8
0
  6
HCS_01
 62
     7
 10
11.66630935668945
 20
43.50603485107422
 30
0.0099999997764826
 70
   192
  0
VERTEX
  5
8D7
  8
0
  6
HCS_01
 62
     7
 10
11.61992454528809
 20
43.39860153198242
 30
0.0099999997764826
 70
   192
  0
VERTEX
  5
8D8
  8
0
  6
HCS_01
 62
     7
 10
11.66630935668945
 20
43.50603485107422
 30
0.0099999997764826
 70
   192
  0
VERTEX
  5
8D9
  8
0
  6
HCS_01
 62
     7
 10
11.67202186584473
 20
43.37216949462891
 30
0.0099999997764826
 70
   192
  0
VERTEX
  5
8DA
  8
0
  6
HCS_01
 62
     7
 10
11.73750686645508
 20
43.47286987304688
 30
0.0099999997764826
 70
   192
  0
VERTEX
  5
8DB
  8
0
  6
HCS_01
 62
     7
 10
11.26010227203369
 20
43.31572341918945
 30
0.0099999997764826
 70
   192
  0
VERTEX
  5
8DC
  8
0
  6
HCS_01
 62
     7
 10
11.37060737609863
 20
43.39169311523438
 30
0.0099999997764826
 70
   192
  0
VERTEX
  5
8DD
  8
0
  6
HCS_01
 62
     7
 10
11.3768310546875
 20
43.51473236083984
 30
0.0099999997764826
 70
   192
  0
VERTEX
  5
8DE
  8
0
  6
HCS_01
 62
     7
 10
11.50703239440918
 20
43.41701889038086
 30
0.0099999997764826
 70
   192
  0
VERTEX
  5
8DF
  8
0
  6
HCS_01
 62
     7
 10
11.3768310546875
 20
43.51473236083984
 30
0.0099999997764826
 70
   192
  0
VERTEX
  5
8E0
  8
0
  6
HCS_01
 62
     7
 10
11.37060737609863
 20
43.39169311523438
 30
0.0099999997764826
 70
   192
  0
VERTEX
  5
8E1
  8
0
  6
HCS_01
 62
     7
 10
11.3768310546875
 20
43.51473236083984
 30
0.0099999997764826
 70
   192
  0
VERTEX
  5
8E2
  8
0
  6
HCS_01
 62
     7
 10
11.50703239440918
 20
43.41701889038086
 30
0.0099999997764826
 70
   192
  0
VERTEX
  5
8E3
  8
0
  6
HCS_01
 62
     7
 10
11.50635051727295
 20
43.53025054931641
 30
0.0099999997764826
 70
   192
  0
VERTEX
  5
8E4
  8
0
  6
HCS_01
 62
     7
 10
11.59204292297363
 20
43.52419662475586
 30
0.0099999997764826
 70
   192
  0
VERTEX
  5
8E5
  8
0
  6
HCS_01
 62
     7
 10
11.50635051727295
 20
43.53025054931641
 30
0.0099999997764826
 70
   192
  0
VERTEX
  5
8E6
  8
0
  6
HCS_01
 62
     7
 10
11.50703239440918
 20
43.41701889038086
 30
0.0099999997764826
 70
   192
  0
VERTEX
  5
8E7
  8
0
  6
HCS_01
 62
     7
 10
11.25976085662842
 20
43.46817779541016
 30
0.0099999997764826
 70
   192
  0
VERTEX
  5
8E8
  8
0
  6
HCS_01
 62
     7
 10
11.16127872467041
 20
43.39152526855469
 30
0.0099999997764826
 70
   192
  0
VERTEX
  5
8E9
  8
0
  6
HCS_01
 62
     7
 10
11.18694400787354
 20
43.18944549560547
 30
0.0099999997764826
 70
   192
  0
VERTEX
  5
8EA
  8
0
  6
HCS_01
 62
     7
 10
11.25976085662842
 20
43.46817779541016
 30
0.0099999997764826
 70
   192
  0
VERTEX
  5
8EB
  8
0
  6
HCS_01
 62
     7
 10
11.18694400787354
 20
43.18944549560547
 30
0.0099999997764826
 70
   192
  0
VERTEX
  5
8EC
  8
0
  6
HCS_01
 62
     7
 10
11.26010227203369
 20
43.31572341918945
 30
0.0099999997764826
 70
   192
  0
VERTEX
  5
8ED
  8
0
  6
HCS_01
 62
     7
 10
11.25976085662842
 20
43.46817779541016
 30
0.0099999997764826
 70
   192
  0
VERTEX
  5
8EE
  8
0
  6
HCS_01
 62
     7
 10
11.26010227203369
 20
43.31572341918945
 30
0.0099999997764826
 70
   192
  0
VERTEX
  5
8EF
  8
0
  6
HCS_01
 62
     7
 10
11.3768310546875
 20
43.51473236083984
 30
0.0099999997764826
 70
   192
  0
VERTEX
  5
8F0
  8
0
  6
HCS_01
 62
     7
 10
11.92858791351318
 20
43.55003356933594
 30
0.0099999997764826
 70
   192
  0
VERTEX
  5
8F1
  8
0
  6
HCS_01
 62
     7
 10
11.81398963928223
 20
43.42179489135742
 30
0.0099999997764826
 70
   192
  0
VERTEX
  5
8F2
  8
0
  6
HCS_01
 62
     7
 10
11.87606430053711
 20
43.35767364501953
 30
0.0099999997764826
 70
   192
  0
VERTEX
  5
8F3
  8
0
  6
HCS_01
 62
     7
 10
11.92858791351318
 20
43.55003356933594
 30
0.0099999997764826
 70
   192
  0
VERTEX
  5
8F4
  8
0
  6
HCS_01
 62
     7
 10
11.87606430053711
 20
43.35767364501953
 30
0.0099999997764826
 70
   192
  0
VERTEX
  5
8F5
  8
0
  6
HCS_01
 62
     7
 10
11.99611854553223
 20
43.49273681640625
 30
0.0099999997764826
 70
   192
  0
VERTEX
  5
8F6
  8
0
  6
HCS_01
 62
     7
 10
11.28124809265137
 20
42.69191741943359
 30
0.0099999997764826
 70
   192
  0
VERTEX
  5
8F7
  8
0
  6
HCS_01
 62
     7
 10
11.7880687713623
 20
43.25944900512695
 30
0.0099999997764826
 70
   192
  0
VERTEX
  5
8F8
  8
0
  6
HCS_01
 62
     7
 10
11.73213481903076
 20
43.32970809936523
 30
0.0099999997764826
 70
   192
  0
VERTEX
  5
8F9
  8
0
  6
HCS_01
 62
     7
 10
11.28124809265137
 20
42.69191741943359
 30
0.0099999997764826
 70
   192
  0
VERTEX
  5
8FA
  8
0
  6
HCS_01
 62
     7
 10
11.73213481903076
 20
43.32970809936523
 30
0.0099999997764826
 70
   192
  0
VERTEX
  5
8FB
  8
0
  6
HCS_01
 62
     7
 10
11.2232666015625
 20
42.76012802124023
 30
0.0099999997764826
 70
   192
  0
VERTEX
  5
8FC
  8
0
  6
HCS_01
 62
     7
 10
11.28124809265137
 20
42.69191741943359
 30
0.0099999997764826
 70
   192
  0
VERTEX
  5
8FD
  8
0
  6
HCS_01
 62
     7
 10
11.2232666015625
 20
42.76012802124023
 30
0.0099999997764826
 70
   192
  0
VERTEX
  5
8FE
  8
0
  6
HCS_01
 62
     7
 10
11.27357387542725
 20
42.55259323120117
 30
0.0099999997764826
 70
   192
  0
VERTEX
  5
8FF
  8
0
  6
HCS_01
 62
     7
 10
11.28124809265137
 20
42.69191741943359
 30
0.0099999997764826
 70
   192
  0
VERTEX
  5
900
  8
0
  6
HCS_01
 62
     7
 10
11.27357387542725
 20
42.55259323120117
 30
0.0099999997764826
 70
   192
  0
VERTEX
  5
901
  8
0
  6
HCS_01
 62
     7
 10
11.33718299865723
 20
42.52274703979492
 30
0.0099999997764826
 70
   192
  0
VERTEX
  5
902
  8
0
  6
HCS_01
 62
     7
 10
11.28124809265137
 20
42.69191741943359
 30
0.0099999997764826
 70
   192
  0
VERTEX
  5
903
  8
0
  6
HCS_01
 62
     7
 10
11.33718299865723
 20
42.52274703979492
 30
0.0099999997764826
 70
   192
  0
VERTEX
  5
904
  8
0
  6
HCS_01
 62
     7
 10
11.33172607421875
 20
42.65542221069336
 30
0.0099999997764826
 70
   192
  0
VERTEX
  5
905
  8
0
  6
HCS_01
 62
     7
 10
11.20007514953613
 20
42.60119247436523
 30
0.0099999997764826
 70
   192
  0
VERTEX
  5
906
  8
0
  6
HCS_01
 62
     7
 10
11.27357387542725
 20
42.55259323120117
 30
0.0099999997764826
 70
   192
  0
VERTEX
  5
907
  8
0
  6
HCS_01
 62
     7
 10
11.2232666015625
 20
42.76012802124023
 30
0.0099999997764826
 70
   192
  0
VERTEX
  5
908
  8
0
  6
HCS_01
 62
     7
 10
11.20007514953613
 20
42.60119247436523
 30
0.0099999997764826
 70
   192
  0
VERTEX
  5
909
  8
0
  6
HCS_01
 62
     7
 10
11.2232666015625
 20
42.76012802124023
 30
0.0099999997764826
 70
   192
  0
VERTEX
  5
90A
  8
0
  6
HCS_01
 62
     7
 10
11.19444751739502
 20
42.82168960571289
 30
0.0099999997764826
 70
   192
  0
VERTEX
  5
90B
  8
0
  6
HCS_01
 62
     7
 10
11.20007514953613
 20
42.60119247436523
 30
0.0099999997764826
 70
   192
  0
VERTEX
  5
90C
  8
0
  6
HCS_01
 62
     7
 10
11.19444751739502
 20
42.82168960571289
 30
0.0099999997764826
 70
   192
  0
VERTEX
  5
90D
  8
0
  6
HCS_01
 62
     7
 10
11.17756462097168
 20
42.8726806640625
 30
0.0099999997764826
 70
   192
  0
VERTEX
  5
90E
  8
0
  6
HCS_01
 62
     7
 10
11.20007514953613
 20
42.60119247436523
 30
0.0099999997764826
 70
   192
  0
VERTEX
  5
90F
  8
0
  6
HCS_01
 62
     7
 10
11.17756462097168
 20
42.8726806640625
 30
0.0099999997764826
 70
   192
  0
VERTEX
  5
910
  8
0
  6
HCS_01
 62
     7
 10
11.16630935668945
 20
42.93850708007812
 30
0.0099999997764826
 70
   192
  0
VERTEX
  5
911
  8
0
  6
HCS_01
 62
     7
 10
11.96695709228516
 20
42.86739349365234
 30
0.0099999997764826
 70
   192
  0
VERTEX
  5
912
  8
0
  6
HCS_01
 62
     7
 10
11.98247528076172
 20
43.01251602172852
 30
0.0099999997764826
 70
   192
  0
VERTEX
  5
913
  8
0
  6
HCS_01
 62
     7
 10
11.97565460205078
 20
43.11381149291992
 30
0.0099999997764826
 70
   192
  0
VERTEX
  5
914
  8
0
  6
HCS_01
 62
     7
 10
11.96695709228516
 20
42.86739349365234
 30
0.0099999997764826
 70
   192
  0
VERTEX
  5
915
  8
0
  6
HCS_01
 62
     7
 10
11.97565460205078
 20
43.11381149291992
 30
0.0099999997764826
 70
   192
  0
VERTEX
  5
916
  8
0
  6
HCS_01
 62
     7
 10
11.95519065856934
 20
43.20487594604492
 30
0.0099999997764826
 70
   192
  0
VERTEX
  5
917
  8
0
  6
HCS_01
 62
     7
 10
11.96695709228516
 20
42.86739349365234
 30
0.0099999997764826
 70
   192
  0
VERTEX
  5
918
  8
0
  6
HCS_01
 62
     7
 10
11.95519065856934
 20
43.20487594604492
 30
0.0099999997764826
 70
   192
  0
VERTEX
  5
919
  8
0
  6
HCS_01
 62
     7
 10
11.9251766204834
 20
43.27581787109375
 30
0.0099999997764826
 70
   192
  0
VERTEX
  5
91A
  8
0
  6
HCS_01
 62
     7
 10
11.96695709228516
 20
42.86739349365234
 30
0.0099999997764826
 70
   192
  0
VERTEX
  5
91B
  8
0
  6
HCS_01
 62
     7
 10
11.9251766204834
 20
43.27581787109375
 30
0.0099999997764826
 70
   192
  0
VERTEX
  5
91C
  8
0
  6
HCS_01
 62
     7
 10
11.92040252685547
 20
42.73898315429688
 30
0.0099999997764826
 70
   192
  0
VERTEX
  5
91D
  8
0
  6
HCS_01
 62
     7
 10
11.50771522521973
 20
42.49614715576172
 30
0.0099999997764826
 70
   192
  0
VERTEX
  5
91E
  8
0
  6
HCS_01
 62
     7
 10
11.63041305541992
 20
42.51149368286133
 30
0.0099999997764826
 70
   192
  0
VERTEX
  5
91F
  8
0
  6
HCS_01
 62
     7
 10
11.63936519622803
 20
42.63563919067383
 30
0.0099999997764826
 70
   192
  0
VERTEX
  5
920
  8
0
  6
HCS_01
 62
     7
 10
11.74611854553223
 20
42.55753707885742
 30
0.0099999997764826
 70
   192
  0
VERTEX
  5
921
  8
0
  6
HCS_01
 62
     7
 10
11.63936519622803
 20
42.63563919067383
 30
0.0099999997764826
 70
   192
  0
VERTEX
  5
922
  8
0
  6
HCS_01
 62
     7
 10
11.63041305541992
 20
42.51149368286133
 30
0.0099999997764826
 70
   192
  0
VERTEX
  5
923
  8
0
  6
HCS_01
 62
     7
 10
11.63936519622803
 20
42.63563919067383
 30
0.0099999997764826
 70
   192
  0
VERTEX
  5
924
  8
0
  6
HCS_01
 62
     7
 10
11.74611854553223
 20
42.55753707885742
 30
0.0099999997764826
 70
   192
  0
VERTEX
  5
925
  8
0
  6
HCS_01
 62
     7
 10
11.74918746948242
 20
42.71442794799805
 30
0.0099999997764826
 70
   192
  0
VERTEX
  5
926
  8
0
  6
HCS_01
 62
     7
 10
11.84579467773438
 20
42.63359451293945
 30
0.0099999997764826
 70
   192
  0
VERTEX
  5
927
  8
0
  6
HCS_01
 62
     7
 10
11.74918746948242
 20
42.71442794799805
 30
0.0099999997764826
 70
   192
  0
VERTEX
  5
928
  8
0
  6
HCS_01
 62
     7
 10
11.74611854553223
 20
42.55753707885742
 30
0.0099999997764826
 70
   192
  0
VERTEX
  5
929
  8
0
  6
HCS_01
 62
     7
 10
11.74918746948242
 20
42.71442794799805
 30
0.0099999997764826
 70
   192
  0
VERTEX
  5
92A
  8
0
  6
HCS_01
 62
     7
 10
11.84579467773438
 20
42.63359451293945
 30
0.0099999997764826
 70
   192
  0
VERTEX
  5
92B
  8
0
  6
HCS_01
 62
     7
 10
11.82183456420898
 20
42.84062194824219
 30
0.0099999997764826
 70
   192
  0
VERTEX
  5
92C
  8
0
  6
HCS_01
 62
     7
 10
11.84605026245117
 20
43.00910568237305
 30
0.0099999997764826
 70
   192
  0
VERTEX
  5
92D
  8
0
  6
HCS_01
 62
     7
 10
11.82183456420898
 20
42.84062194824219
 30
0.0099999997764826
 70
   192
  0
VERTEX
  5
92E
  8
0
  6
HCS_01
 62
     7
 10
11.84579467773438
 20
42.63359451293945
 30
0.0099999997764826
 70
   192
  0
VERTEX
  5
92F
  8
0
  6
HCS_01
 62
     7
 10
11.33172607421875
 20
42.65542221069336
 30
0.0099999997764826
 70
   192
  0
VERTEX
  5
930
  8
0
  6
HCS_01
 62
     7
 10
11.33718299865723
 20
42.52274703979492
 30
0.0099999997764826
 70
   192
  0
VERTEX
  5
931
  8
0
  6
HCS_01
 62
     7
 10
11.37811088562012
 20
42.63188934326172
 30
0.0099999997764826
 70
   192
  0
VERTEX
  5
932
  8
0
  6
HCS_01
 62
     7
 10
11.41801452636719
 20
42.5027961730957
 30
0.0099999997764826
 70
   192
  0
VERTEX
  5
933
  8
0
  6
HCS_01
 62
     7
 10
11.37811088562012
 20
42.63188934326172
 30
0.0099999997764826
 70
   192
  0
VERTEX
  5
934
  8
0
  6
HCS_01
 62
     7
 10
11.33718299865723
 20
42.52274703979492
 30
0.0099999997764826
 70
   192
  0
VERTEX
  5
935
  8
0
  6
HCS_01
 62
     7
 10
11.37811088562012
 20
42.63188934326172
 30
0.0099999997764826
 70
   192
  0
VERTEX
  5
936
  8
0
  6
HCS_01
 62
     7
 10
11.41801452636719
 20
42.5027961730957
 30
0.0099999997764826
 70
   192
  0
VERTEX
  5
937
  8
0
  6
HCS_01
 62
     7
 10
11.43847846984863
 20
42.61500549316406
 30
0.0099999997764826
 70
   192
  0
VERTEX
  5
938
  8
0
  6
HCS_01
 62
     7
 10
11.50771522521973
 20
42.49614715576172
 30
0.0099999997764826
 70
   192
  0
VERTEX
  5
939
  8
0
  6
HCS_01
 62
     7
 10
11.43847846984863
 20
42.61500549316406
 30
0.0099999997764826
 70
   192
  0
VERTEX
  5
93A
  8
0
  6
HCS_01
 62
     7
 10
11.41801452636719
 20
42.5027961730957
 30
0.0099999997764826
 70
   192
  0
VERTEX
  5
93B
  8
0
  6
HCS_01
 62
     7
 10
11.43847846984863
 20
42.61500549316406
 30
0.0099999997764826
 70
   192
  0
VERTEX
  5
93C
  8
0
  6
HCS_01
 62
     7
 10
11.50771522521973
 20
42.49614715576172
 30
0.0099999997764826
 70
   192
  0
VERTEX
  5
93D
  8
0
  6
HCS_01
 62
     7
 10
11.50362205505371
 20
42.60937881469727
 30
0.0099999997764826
 70
   192
  0
VERTEX
  5
93E
  8
0
  6
HCS_01
 62
     7
 10
11.63936519622803
 20
42.63563919067383
 30
0.0099999997764826
 70
   192
  0
VERTEX
  5
93F
  8
0
  6
HCS_01
 62
     7
 10
11.50362205505371
 20
42.60937881469727
 30
0.0099999997764826
 70
   192
  0
VERTEX
  5
940
  8
0
  6
HCS_01
 62
     7
 10
11.50771522521973
 20
42.49614715576172
 30
0.0099999997764826
 70
   192
  0
VERTEX
  5
941
  8
0
  6
HCS_01
 62
     7
 10
11.87606430053711
 20
43.35767364501953
 30
0.0099999997764826
 70
   192
  0
VERTEX
  5
942
  8
0
  6
HCS_01
 62
     7
 10
11.92040252685547
 20
42.73898315429688
 30
0.0099999997764826
 70
   192
  0
VERTEX
  5
943
  8
0
  6
HCS_01
 62
     7
 10
11.9251766204834
 20
43.27581787109375
 30
0.0099999997764826
 70
   192
  0
VERTEX
  5
944
  8
0
  6
HCS_01
 62
     7
 10
11.18694400787354
 20
43.18944549560547
 30
0.0099999997764826
 70
   192
  0
VERTEX
  5
945
  8
0
  6
HCS_01
 62
     7
 10
11.16127872467041
 20
43.39152526855469
 30
0.0099999997764826
 70
   192
  0
VERTEX
  5
946
  8
0
  6
HCS_01
 62
     7
 10
11.16255760192871
 20
43.01319885253906
 30
0.0099999997764826
 70
   192
  0
VERTEX
  5
947
  8
0
  6
HCS_01
 62
     7
 10
12.45382690429688
 20
42.75262451171875
 30
0.0099999997764826
 70
   192
  0
VERTEX
  5
948
  8
0
  6
HCS_01
 62
     7
 10
12.88766098022461
 20
42.75262451171875
 30
0.0099999997764826
 70
   192
  0
VERTEX
  5
949
  8
0
  6
HCS_01
 62
     7
 10
12.45382690429688
 20
42.86517715454102
 30
0.0099999997764826
 70
   192
  0
VERTEX
  5
94A
  8
0
  6
HCS_01
 62
     7
 10
12.57456398010254
 20
42.86517715454102
 30
0.0099999997764826
 70
   192
  0
VERTEX
  5
94B
  8
0
  6
HCS_01
 62
     7
 10
12.45382690429688
 20
42.86517715454102
 30
0.0099999997764826
 70
   192
  0
VERTEX
  5
94C
  8
0
  6
HCS_01
 62
     7
 10
12.88766098022461
 20
42.75262451171875
 30
0.0099999997764826
 70
   192
  0
VERTEX
  5
94D
  8
0
  6
HCS_01
 62
     7
 10
12.45382690429688
 20
42.86517715454102
 30
0.0099999997764826
 70
   192
  0
VERTEX
  5
94E
  8
0
  6
HCS_01
 62
     7
 10
12.57456398010254
 20
42.86517715454102
 30
0.0099999997764826
 70
   192
  0
VERTEX
  5
94F
  8
0
  6
HCS_01
 62
     7
 10
12.91017055511475
 20
43.51319885253906
 30
0.0099999997764826
 70
   192
  0
VERTEX
  5
950
  8
0
  6
HCS_01
 62
     7
 10
12.88766098022461
 20
43.31606292724609
 30
0.0099999997764826
 70
   192
  0
VERTEX
  5
951
  8
0
  6
HCS_01
 62
     7
 10
12.91017055511475
 20
43.51319885253906
 30
0.0099999997764826
 70
   192
  0
VERTEX
  5
952
  8
0
  6
HCS_01
 62
     7
 10
12.57456398010254
 20
42.86517715454102
 30
0.0099999997764826
 70
   192
  0
VERTEX
  5
953
  8
0
  6
HCS_01
 62
     7
 10
12.91017055511475
 20
43.51319885253906
 30
0.0099999997764826
 70
   192
  0
VERTEX
  5
954
  8
0
  6
HCS_01
 62
     7
 10
12.88766098022461
 20
43.31606292724609
 30
0.0099999997764826
 70
   192
  0
VERTEX
  5
955
  8
0
  6
HCS_01
 62
     7
 10
13.01044273376465
 20
42.51319885253906
 30
0.0099999997764826
 70
   192
  0
VERTEX
  5
956
  8
0
  6
HCS_01
 62
     7
 10
12.88766098022461
 20
42.86517715454102
 30
0.0099999997764826
 70
   192
  0
VERTEX
  5
957
  8
0
  6
HCS_01
 62
     7
 10
13.01044273376465
 20
42.51319885253906
 30
0.0099999997764826
 70
   192
  0
VERTEX
  5
958
  8
0
  6
HCS_01
 62
     7
 10
12.88766098022461
 20
43.31606292724609
 30
0.0099999997764826
 70
   192
  0
VERTEX
  5
959
  8
0
  6
HCS_01
 62
     7
 10
13.01044273376465
 20
42.51319885253906
 30
0.0099999997764826
 70
   192
  0
VERTEX
  5
95A
  8
0
  6
HCS_01
 62
     7
 10
12.88766098022461
 20
42.86517715454102
 30
0.0099999997764826
 70
   192
  0
VERTEX
  5
95B
  8
0
  6
HCS_01
 62
     7
 10
12.88766098022461
 20
42.75262451171875
 30
0.0099999997764826
 70
   192
  0
VERTEX
  5
95C
  8
0
  6
HCS_01
 62
     7
 10
12.57456398010254
 20
42.86517715454102
 30
0.0099999997764826
 70
   192
  0
VERTEX
  5
95D
  8
0
  6
HCS_01
 62
     7
 10
12.88766098022461
 20
42.75262451171875
 30
0.0099999997764826
 70
   192
  0
VERTEX
  5
95E
  8
0
  6
HCS_01
 62
     7
 10
12.88766098022461
 20
42.86517715454102
 30
0.0099999997764826
 70
   192
  0
VERTEX
  5
95F
  8
0
  6
HCS_01
 62
     7
 10
12.91017055511475
 20
43.51319885253906
 30
0.0099999997764826
 70
   192
  0
VERTEX
  5
960
  8
0
  6
HCS_01
 62
     7
 10
13.01044273376465
 20
42.51319885253906
 30
0.0099999997764826
 70
   192
  0
VERTEX
  5
961
  8
0
  6
HCS_01
 62
     7
 10
13.01044273376465
 20
43.51319885253906
 30
0.0099999997764826
 70
   192
  0
VERTEX
  5
962
  8
0
  6
HCS_01
 62
     7
 10
13.01044273376465
 20
42.75262451171875
 30
0.0099999997764826
 70
   192
  0
VERTEX
  5
963
  8
0
  6
HCS_01
 62
     7
 10
13.01044273376465
 20
43.51319885253906
 30
0.0099999997764826
 70
   192
  0
VERTEX
  5
964
  8
0
  6
HCS_01
 62
     7
 10
13.01044273376465
 20
42.51319885253906
 30
0.0099999997764826
 70
   192
  0
VERTEX
  5
965
  8
0
  6
HCS_01
 62
     7
 10
13.01044273376465
 20
42.86517715454102
 30
0.0099999997764826
 70
   192
  0
VERTEX
  5
966
  8
0
  6
HCS_01
 62
     7
 10
13.01044273376465
 20
42.75262451171875
 30
0.0099999997764826
 70
   192
  0
VERTEX
  5
967
  8
0
  6
HCS_01
 62
     7
 10
13.01044273376465
 20
43.51319885253906
 30
0.0099999997764826
 70
   192
  0
VERTEX
  5
968
  8
0
  6
HCS_01
 62
     7
 10
13.14550495147705
 20
42.75262451171875
 30
0.0099999997764826
 70
   192
  0
VERTEX
  5
969
  8
0
  6
HCS_01
 62
     7
 10
13.01044273376465
 20
42.86517715454102
 30
0.0099999997764826
 70
   192
  0
VERTEX
  5
96A
  8
0
  6
HCS_01
 62
     7
 10
13.01044273376465
 20
42.75262451171875
 30
0.0099999997764826
 70
   192
  0
VERTEX
  5
96B
  8
0
  6
HCS_01
 62
     7
 10
13.01044273376465
 20
42.86517715454102
 30
0.0099999997764826
 70
   192
  0
VERTEX
  5
96C
  8
0
  6
HCS_01
 62
     7
 10
13.14550495147705
 20
42.75262451171875
 30
0.0099999997764826
 70
   192
  0
VERTEX
  5
96D
  8
0
  6
HCS_01
 62
     7
 10
13.14550495147705
 20
42.86517715454102
 30
0.0099999997764826
 70
   192
  0
VERTEX
  5
96E
  8
0
  6
HCS_01
 62
     7
 10
13.01044273376465
 20
42.51319885253906
 30
0.0099999997764826
 70
   192
  0
VERTEX
  5
96F
  8
0
  6
HCS_01
 62
     7
 10
12.88766098022461
 20
42.75262451171875
 30
0.0099999997764826
 70
   192
  0
VERTEX
  5
970
  8
0
  6
HCS_01
 62
     7
 10
12.88766098022461
 20
42.51319885253906
 30
0.0099999997764826
 70
   192
  0
VERTEX
  5
971
  8
0
  6
HCS_01
 62
     7
 10
13.33991146087646
 20
42.51319885253906
 30
0.0099999997764826
 70
   192
  0
VERTEX
  5
972
  8
0
  6
HCS_01
 62
     7
 10
13.4797477722168
 20
42.51319885253906
 30
0.0099999997764826
 70
   192
  0
VERTEX
  5
973
  8
0
  6
HCS_01
 62
     7
 10
13.4797477722168
 20
42.65303421020508
 30
0.0099999997764826
 70
   192
  0
VERTEX
  5
974
  8
0
  6
HCS_01
 62
     7
 10
13.33991146087646
 20
42.51319885253906
 30
0.0099999997764826
 70
   192
  0
VERTEX
  5
975
  8
0
  6
HCS_01
 62
     7
 10
13.4797477722168
 20
42.65303421020508
 30
0.0099999997764826
 70
   192
  0
VERTEX
  5
976
  8
0
  6
HCS_01
 62
     7
 10
13.33991146087646
 20
42.65303421020508
 30
0.0099999997764826
 70
   192
  0
VERTEX
  5
977
  8
0
  6
HCS_01
 62
     7
 10
14.3112621307373
 20
43.00637817382812
 30
0.0099999997764826
 70
   192
  0
VERTEX
  5
978
  8
0
  6
HCS_01
 62
     7
 10
14.30563354492188
 20
43.13982009887695
 30
0.0099999997764826
 70
   192
  0
VERTEX
  5
979
  8
0
  6
HCS_01
 62
     7
 10
14.30222320556641
 20
42.84735488891602
 30
0.0099999997764826
 70
   192
  0
VERTEX
  5
97A
  8
0
  6
HCS_01
 62
     7
 10
14.28875160217285
 20
43.24273681640625
 30
0.0099999997764826
 70
   192
  0
VERTEX
  5
97B
  8
0
  6
HCS_01
 62
     7
 10
14.30222320556641
 20
42.84735488891602
 30
0.0099999997764826
 70
   192
  0
VERTEX
  5
97C
  8
0
  6
HCS_01
 62
     7
 10
14.30563354492188
 20
43.13982009887695
 30
0.0099999997764826
 70
   192
  0
VERTEX
  5
97D
  8
0
  6
HCS_01
 62
     7
 10
14.30222320556641
 20
42.84735488891602
 30
0.0099999997764826
 70
   192
  0
VERTEX
  5
97E
  8
0
  6
HCS_01
 62
     7
 10
14.28875160217285
 20
43.24273681640625
 30
0.0099999997764826
 70
   192
  0
VERTEX
  5
97F
  8
0
  6
HCS_01
 62
     7
 10
14.27510833740234
 20
42.72227096557617
 30
0.0099999997764826
 70
   192
  0
VERTEX
  5
980
  8
0
  6
HCS_01
 62
     7
 10
14.26197814941406
 20
43.32373809814453
 30
0.0099999997764826
 70
   192
  0
VERTEX
  5
981
  8
0
  6
HCS_01
 62
     7
 10
14.27510833740234
 20
42.72227096557617
 30
0.0099999997764826
 70
   192
  0
VERTEX
  5
982
  8
0
  6
HCS_01
 62
     7
 10
14.28875160217285
 20
43.24273681640625
 30
0.0099999997764826
 70
   192
  0
VERTEX
  5
983
  8
0
  6
HCS_01
 62
     7
 10
14.27510833740234
 20
42.72227096557617
 30
0.0099999997764826
 70
   192
  0
VERTEX
  5
984
  8
0
  6
HCS_01
 62
     7
 10
14.26197814941406
 20
43.32373809814453
 30
0.0099999997764826
 70
   192
  0
VERTEX
  5
985
  8
0
  6
HCS_01
 62
     7
 10
14.23000335693359
 20
42.62643051147461
 30
0.0099999997764826
 70
   192
  0
VERTEX
  5
986
  8
0
  6
HCS_01
 62
     7
 10
14.22667789459229
 20
43.39143753051758
 30
0.0099999997764826
 70
   192
  0
VERTEX
  5
987
  8
0
  6
HCS_01
 62
     7
 10
14.23000335693359
 20
42.62643051147461
 30
0.0099999997764826
 70
   192
  0
VERTEX
  5
988
  8
0
  6
HCS_01
 62
     7
 10
14.26197814941406
 20
43.32373809814453
 30
0.0099999997764826
 70
   192
  0
VERTEX
  5
989
  8
0
  6
HCS_01
 62
     7
 10
14.23000335693359
 20
42.62643051147461
 30
0.0099999997764826
 70
   192
  0
VERTEX
  5
98A
  8
0
  6
HCS_01
 62
     7
 10
14.22667789459229
 20
43.39143753051758
 30
0.0099999997764826
 70
   192
  0
VERTEX
  5
98B
  8
0
  6
HCS_01
 62
     7
 10
14.18506813049316
 20
43.00637817382812
 30
0.0099999997764826
 70
   192
  0
VERTEX
  5
98C
  8
0
  6
HCS_01
 62
     7
 10
14.18182754516602
 20
43.44532775878906
 30
0.0099999997764826
 70
   192
  0
VERTEX
  5
98D
  8
0
  6
HCS_01
 62
     7
 10
14.18506813049316
 20
43.00637817382812
 30
0.0099999997764826
 70
   192
  0
VERTEX
  5
98E
  8
0
  6
HCS_01
 62
     7
 10
14.22667789459229
 20
43.39143753051758
 30
0.0099999997764826
 70
   192
  0
VERTEX
  5
98F
  8
0
  6
HCS_01
 62
     7
 10
14.18506813049316
 20
43.00637817382812
 30
0.0099999997764826
 70
   192
  0
VERTEX
  5
990
  8
0
  6
HCS_01
 62
     7
 10
14.18182754516602
 20
43.44532775878906
 30
0.0099999997764826
 70
   192
  0
VERTEX
  5
991
  8
0
  6
HCS_01
 62
     7
 10
14.17065811157227
 20
43.21186828613281
 30
0.0099999997764826
 70
   192
  0
VERTEX
  5
992
  8
0
  6
HCS_01
 62
     7
 10
14.12742805480957
 20
43.33448028564453
 30
0.0099999997764826
 70
   192
  0
VERTEX
  5
993
  8
0
  6
HCS_01
 62
     7
 10
14.17065811157227
 20
43.21186828613281
 30
0.0099999997764826
 70
   192
  0
VERTEX
  5
994
  8
0
  6
HCS_01
 62
     7
 10
14.18182754516602
 20
43.44532775878906
 30
0.0099999997764826
 70
   192
  0
VERTEX
  5
995
  8
0
  6
HCS_01
 62
     7
 10
14.12640476226807
 20
43.48488998413086
 30
0.0099999997764826
 70
   192
  0
VERTEX
  5
996
  8
0
  6
HCS_01
 62
     7
 10
14.06075000762939
 20
43.50918960571289
 30
0.0099999997764826
 70
   192
  0
VERTEX
  5
997
  8
0
  6
HCS_01
 62
     7
 10
14.06271171569824
 20
43.39536285400391
 30
0.0099999997764826
 70
   192
  0
VERTEX
  5
998
  8
0
  6
HCS_01
 62
     7
 10
14.12640476226807
 20
43.48488998413086
 30
0.0099999997764826
 70
   192
  0
VERTEX
  5
999
  8
0
  6
HCS_01
 62
     7
 10
14.06271171569824
 20
43.39536285400391
 30
0.0099999997764826
 70
   192
  0
VERTEX
  5
99A
  8
0
  6
HCS_01
 62
     7
 10
14.12742805480957
 20
43.33448028564453
 30
0.0099999997764826
 70
   192
  0
VERTEX
  5
99B
  8
0
  6
HCS_01
 62
     7
 10
14.12640476226807
 20
43.48488998413086
 30
0.0099999997764826
 70
   192
  0
VERTEX
  5
99C
  8
0
  6
HCS_01
 62
     7
 10
14.12742805480957
 20
43.33448028564453
 30
0.0099999997764826
 70
   192
  0
VERTEX
  5
99D
  8
0
  6
HCS_01
 62
     7
 10
14.18182754516602
 20
43.44532775878906
 30
0.0099999997764826
 70
   192
  0
VERTEX
  5
99E
  8
0
  6
HCS_01
 62
     7
 10
13.98520469665527
 20
43.51729202270508
 30
0.0099999997764826
 70
   192
  0
VERTEX
  5
99F
  8
0
  6
HCS_01
 62
     7
 10
13.88535785675049
 20
43.50262451171875
 30
0.0099999997764826
 70
   192
  0
VERTEX
  5
9A0
  8
0
  6
HCS_01
 62
     7
 10
13.90778350830078
 20
43.39774703979492
 30
0.0099999997764826
 70
   192
  0
VERTEX
  5
9A1
  8
0
  6
HCS_01
 62
     7
 10
13.98520469665527
 20
43.51729202270508
 30
0.0099999997764826
 70
   192
  0
VERTEX
  5
9A2
  8
0
  6
HCS_01
 62
     7
 10
13.90778350830078
 20
43.39774703979492
 30
0.0099999997764826
 70
   192
  0
VERTEX
  5
9A3
  8
0
  6
HCS_01
 62
     7
 10
13.9838399887085
 20
43.41565322875977
 30
0.0099999997764826
 70
   192
  0
VERTEX
  5
9A4
  8
0
  6
HCS_01
 62
     7
 10
13.98520469665527
 20
43.51729202270508
 30
0.0099999997764826
 70
   192
  0
VERTEX
  5
9A5
  8
0
  6
HCS_01
 62
     7
 10
13.9838399887085
 20
43.41565322875977
 30
0.0099999997764826
 70
   192
  0
VERTEX
  5
9A6
  8
0
  6
HCS_01
 62
     7
 10
14.06271171569824
 20
43.39536285400391
 30
0.0099999997764826
 70
   192
  0
VERTEX
  5
9A7
  8
0
  6
HCS_01
 62
     7
 10
13.98520469665527
 20
43.51729202270508
 30
0.0099999997764826
 70
   192
  0
VERTEX
  5
9A8
  8
0
  6
HCS_01
 62
     7
 10
14.06271171569824
 20
43.39536285400391
 30
0.0099999997764826
 70
   192
  0
VERTEX
  5
9A9
  8
0
  6
HCS_01
 62
     7
 10
14.06075000762939
 20
43.50918960571289
 30
0.0099999997764826
 70
   192
  0
VERTEX
  5
9AA
  8
0
  6
HCS_01
 62
     7
 10
13.78534126281738
 20
43.00637817382812
 30
0.0099999997764826
 70
   192
  0
VERTEX
  5
9AB
  8
0
  6
HCS_01
 62
     7
 10
13.80120086669922
 20
43.21391677856445
 30
0.0099999997764826
 70
   192
  0
VERTEX
  5
9AC
  8
0
  6
HCS_01
 62
     7
 10
13.80410003662109
 20
43.4586296081543
 30
0.0099999997764826
 70
   192
  0
VERTEX
  5
9AD
  8
0
  6
HCS_01
 62
     7
 10
13.84877872467041
 20
43.34403228759766
 30
0.0099999997764826
 70
   192
  0
VERTEX
  5
9AE
  8
0
  6
HCS_01
 62
     7
 10
13.80410003662109
 20
43.4586296081543
 30
0.0099999997764826
 70
   192
  0
VERTEX
  5
9AF
  8
0
  6
HCS_01
 62
     7
 10
13.80120086669922
 20
43.21391677856445
 30
0.0099999997764826
 70
   192
  0
VERTEX
  5
9B0
  8
0
  6
HCS_01
 62
     7
 10
13.80410003662109
 20
43.4586296081543
 30
0.0099999997764826
 70
   192
  0
VERTEX
  5
9B1
  8
0
  6
HCS_01
 62
     7
 10
13.84877872467041
 20
43.34403228759766
 30
0.0099999997764826
 70
   192
  0
VERTEX
  5
9B2
  8
0
  6
HCS_01
 62
     7
 10
13.88535785675049
 20
43.50262451171875
 30
0.0099999997764826
 70
   192
  0
VERTEX
  5
9B3
  8
0
  6
HCS_01
 62
     7
 10
13.90778350830078
 20
43.39774703979492
 30
0.0099999997764826
 70
   192
  0
VERTEX
  5
9B4
  8
0
  6
HCS_01
 62
     7
 10
13.88535785675049
 20
43.50262451171875
 30
0.0099999997764826
 70
   192
  0
VERTEX
  5
9B5
  8
0
  6
HCS_01
 62
     7
 10
13.84877872467041
 20
43.34403228759766
 30
0.0099999997764826
 70
   192
  0
VERTEX
  5
9B6
  8
0
  6
HCS_01
 62
     7
 10
13.75805568695068
 20
42.59983062744141
 30
0.0099999997764826
 70
   192
  0
VERTEX
  5
9B7
  8
0
  6
HCS_01
 62
     7
 10
13.85611152648926
 20
42.52206802368164
 30
0.0099999997764826
 70
   192
  0
VERTEX
  5
9B8
  8
0
  6
HCS_01
 62
     7
 10
13.79975128173828
 20
42.80131149291992
 30
0.0099999997764826
 70
   192
  0
VERTEX
  5
9B9
  8
0
  6
HCS_01
 62
     7
 10
13.75805568695068
 20
42.59983062744141
 30
0.0099999997764826
 70
   192
  0
VERTEX
  5
9BA
  8
0
  6
HCS_01
 62
     7
 10
13.79975128173828
 20
42.80131149291992
 30
0.0099999997764826
 70
   192
  0
VERTEX
  5
9BB
  8
0
  6
HCS_01
 62
     7
 10
13.78534126281738
 20
43.00637817382812
 30
0.0099999997764826
 70
   192
  0
VERTEX
  5
9BC
  8
0
  6
HCS_01
 62
     7
 10
13.75805568695068
 20
42.59983062744141
 30
0.0099999997764826
 70
   192
  0
VERTEX
  5
9BD
  8
0
  6
HCS_01
 62
     7
 10
13.78534126281738
 20
43.00637817382812
 30
0.0099999997764826
 70
   192
  0
VERTEX
  5
9BE
  8
0
  6
HCS_01
 62
     7
 10
13.80410003662109
 20
43.4586296081543
 30
0.0099999997764826
 70
   192
  0
VERTEX
  5
9BF
  8
0
  6
HCS_01
 62
     7
 10
13.75805568695068
 20
42.59983062744141
 30
0.0099999997764826
 70
   192
  0
VERTEX
  5
9C0
  8
0
  6
HCS_01
 62
     7
 10
13.80410003662109
 20
43.4586296081543
 30
0.0099999997764826
 70
   192
  0
VERTEX
  5
9C1
  8
0
  6
HCS_01
 62
     7
 10
13.74100303649902
 20
43.38760375976562
 30
0.0099999997764826
 70
   192
  0
VERTEX
  5
9C2
  8
0
  6
HCS_01
 62
     7
 10
13.75805568695068
 20
42.59983062744141
 30
0.0099999997764826
 70
   192
  0
VERTEX
  5
9C3
  8
0
  6
HCS_01
 62
     7
 10
13.74100303649902
 20
43.38760375976562
 30
0.0099999997764826
 70
   192
  0
VERTEX
  5
9C4
  8
0
  6
HCS_01
 62
     7
 10
13.69564056396484
 20
43.29184722900391
 30
0.0099999997764826
 70
   192
  0
VERTEX
  5
9C5
  8
0
  6
HCS_01
 62
     7
 10
13.75805568695068
 20
42.59983062744141
 30
0.0099999997764826
 70
   192
  0
VERTEX
  5
9C6
  8
0
  6
HCS_01
 62
     7
 10
13.69564056396484
 20
43.29184722900391
 30
0.0099999997764826
 70
   192
  0
VERTEX
  5
9C7
  8
0
  6
HCS_01
 62
     7
 10
13.68387413024902
 20
42.76388168334961
 30
0.0099999997764826
 70
   192
  0
VERTEX
  5
9C8
  8
0
  6
HCS_01
 62
     7
 10
13.66827011108398
 20
43.16641998291016
 30
0.0099999997764826
 70
   192
  0
VERTEX
  5
9C9
  8
0
  6
HCS_01
 62
     7
 10
13.65914726257324
 20
43.00637817382812
 30
0.0099999997764826
 70
   192
  0
VERTEX
  5
9CA
  8
0
  6
HCS_01
 62
     7
 10
13.68387413024902
 20
42.76388168334961
 30
0.0099999997764826
 70
   192
  0
VERTEX
  5
9CB
  8
0
  6
HCS_01
 62
     7
 10
13.66827011108398
 20
43.16641998291016
 30
0.0099999997764826
 70
   192
  0
VERTEX
  5
9CC
  8
0
  6
HCS_01
 62
     7
 10
13.68387413024902
 20
42.76388168334961
 30
0.0099999997764826
 70
   192
  0
VERTEX
  5
9CD
  8
0
  6
HCS_01
 62
     7
 10
13.69564056396484
 20
43.29184722900391
 30
0.0099999997764826
 70
   192
  0
VERTEX
  5
9CE
  8
0
  6
HCS_01
 62
     7
 10
14.0630521774292
 20
42.6175651550293
 30
0.0099999997764826
 70
   192
  0
VERTEX
  5
9CF
  8
0
  6
HCS_01
 62
     7
 10
14.08556270599365
 20
42.51089477539062
 30
0.0099999997764826
 70
   192
  0
VERTEX
  5
9D0
  8
0
  6
HCS_01
 62
     7
 10
14.12742805480957
 20
42.678955078125
 30
0.0099999997764826
 70
   192
  0
VERTEX
  5
9D1
  8
0
  6
HCS_01
 62
     7
 10
14.1669921875
 20
42.55514907836914
 30
0.0099999997764826
 70
   192
  0
VERTEX
  5
9D2
  8
0
  6
HCS_01
 62
     7
 10
14.12742805480957
 20
42.678955078125
 30
0.0099999997764826
 70
   192
  0
VERTEX
  5
9D3
  8
0
  6
HCS_01
 62
     7
 10
14.08556270599365
 20
42.51089477539062
 30
0.0099999997764826
 70
   192
  0
VERTEX
  5
9D4
  8
0
  6
HCS_01
 62
     7
 10
14.12742805480957
 20
42.678955078125
 30
0.0099999997764826
 70
   192
  0
VERTEX
  5
9D5
  8
0
  6
HCS_01
 62
     7
 10
14.1669921875
 20
42.55514907836914
 30
0.0099999997764826
 70
   192
  0
VERTEX
  5
9D6
  8
0
  6
HCS_01
 62
     7
 10
14.17065811157227
 20
42.80173873901367
 30
0.0099999997764826
 70
   192
  0
VERTEX
  5
9D7
  8
0
  6
HCS_01
 62
     7
 10
14.23000335693359
 20
42.62643051147461
 30
0.0099999997764826
 70
   192
  0
VERTEX
  5
9D8
  8
0
  6
HCS_01
 62
     7
 10
14.17065811157227
 20
42.80173873901367
 30
0.0099999997764826
 70
   192
  0
VERTEX
  5
9D9
  8
0
  6
HCS_01
 62
     7
 10
14.1669921875
 20
42.55514907836914
 30
0.0099999997764826
 70
   192
  0
VERTEX
  5
9DA
  8
0
  6
HCS_01
 62
     7
 10
14.17065811157227
 20
42.80173873901367
 30
0.0099999997764826
 70
   192
  0
VERTEX
  5
9DB
  8
0
  6
HCS_01
 62
     7
 10
14.23000335693359
 20
42.62643051147461
 30
0.0099999997764826
 70
   192
  0
VERTEX
  5
9DC
  8
0
  6
HCS_01
 62
     7
 10
14.18506813049316
 20
43.00637817382812
 30
0.0099999997764826
 70
   192
  0
VERTEX
  5
9DD
  8
0
  6
HCS_01
 62
     7
 10
13.84298133850098
 20
42.67861557006836
 30
0.0099999997764826
 70
   192
  0
VERTEX
  5
9DE
  8
0
  6
HCS_01
 62
     7
 10
13.85611152648926
 20
42.52206802368164
 30
0.0099999997764826
 70
   192
  0
VERTEX
  5
9DF
  8
0
  6
HCS_01
 62
     7
 10
13.90735626220703
 20
42.61747741699219
 30
0.0099999997764826
 70
   192
  0
VERTEX
  5
9E0
  8
0
  6
HCS_01
 62
     7
 10
13.98520469665527
 20
42.49614715576172
 30
0.0099999997764826
 70
   192
  0
VERTEX
  5
9E1
  8
0
  6
HCS_01
 62
     7
 10
13.90735626220703
 20
42.61747741699219
 30
0.0099999997764826
 70
   192
  0
VERTEX
  5
9E2
  8
0
  6
HCS_01
 62
     7
 10
13.85611152648926
 20
42.52206802368164
 30
0.0099999997764826
 70
   192
  0
VERTEX
  5
9E3
  8
0
  6
HCS_01
 62
     7
 10
13.90735626220703
 20
42.61747741699219
 30
0.0099999997764826
 70
   192
  0
VERTEX
  5
9E4
  8
0
  6
HCS_01
 62
     7
 10
13.98520469665527
 20
42.49614715576172
 30
0.0099999997764826
 70
   192
  0
VERTEX
  5
9E5
  8
0
  6
HCS_01
 62
     7
 10
13.98520469665527
 20
42.59709930419922
 30
0.0099999997764826
 70
   192
  0
VERTEX
  5
9E6
  8
0
  6
HCS_01
 62
     7
 10
14.08556270599365
 20
42.51089477539062
 30
0.0099999997764826
 70
   192
  0
VERTEX
  5
9E7
  8
0
  6
HCS_01
 62
     7
 10
13.98520469665527
 20
42.59709930419922
 30
0.0099999997764826
 70
   192
  0
VERTEX
  5
9E8
  8
0
  6
HCS_01
 62
     7
 10
13.98520469665527
 20
42.49614715576172
 30
0.0099999997764826
 70
   192
  0
VERTEX
  5
9E9
  8
0
  6
HCS_01
 62
     7
 10
13.98520469665527
 20
42.59709930419922
 30
0.0099999997764826
 70
   192
  0
VERTEX
  5
9EA
  8
0
  6
HCS_01
 62
     7
 10
14.08556270599365
 20
42.51089477539062
 30
0.0099999997764826
 70
   192
  0
VERTEX
  5
9EB
  8
0
  6
HCS_01
 62
     7
 10
14.0630521774292
 20
42.6175651550293
 30
0.0099999997764826
 70
   192
  0
VERTEX
  5
9EC
  8
0
  6
HCS_01
 62
     7
 10
13.79975128173828
 20
42.80131149291992
 30
0.0099999997764826
 70
   192
  0
VERTEX
  5
9ED
  8
0
  6
HCS_01
 62
     7
 10
13.85611152648926
 20
42.52206802368164
 30
0.0099999997764826
 70
   192
  0
VERTEX
  5
9EE
  8
0
  6
HCS_01
 62
     7
 10
13.84298133850098
 20
42.67861557006836
 30
0.0099999997764826
 70
   192
  0
VERTEX
  5
9EF
  8
0
  6
HCS_01
 62
     7
 10
15.08820533752441
 20
43.00637817382812
 30
0.0099999997764826
 70
   192
  0
VERTEX
  5
9F0
  8
0
  6
HCS_01
 62
     7
 10
15.08257865905762
 20
43.13982009887695
 30
0.0099999997764826
 70
   192
  0
VERTEX
  5
9F1
  8
0
  6
HCS_01
 62
     7
 10
15.07916831970215
 20
42.84735488891602
 30
0.0099999997764826
 70
   192
  0
VERTEX
  5
9F2
  8
0
  6
HCS_01
 62
     7
 10
15.06569576263428
 20
43.24273681640625
 30
0.0099999997764826
 70
   192
  0
VERTEX
  5
9F3
  8
0
  6
HCS_01
 62
     7
 10
15.07916831970215
 20
42.84735488891602
 30
0.0099999997764826
 70
   192
  0
VERTEX
  5
9F4
  8
0
  6
HCS_01
 62
     7
 10
15.08257865905762
 20
43.13982009887695
 30
0.0099999997764826
 70
   192
  0
VERTEX
  5
9F5
  8
0
  6
HCS_01
 62
     7
 10
15.07916831970215
 20
42.84735488891602
 30
0.0099999997764826
 70
   192
  0
VERTEX
  5
9F6
  8
0
  6
HCS_01
 62
     7
 10
15.06569576263428
 20
43.24273681640625
 30
0.0099999997764826
 70
   192
  0
VERTEX
  5
9F7
  8
0
  6
HCS_01
 62
     7
 10
15.05205345153809
 20
42.72227096557617
 30
0.0099999997764826
 70
   192
  0
VERTEX
  5
9F8
  8
0
  6
HCS_01
 62
     7
 10
15.03892230987549
 20
43.32373809814453
 30
0.0099999997764826
 70
   192
  0
VERTEX
  5
9F9
  8
0
  6
HCS_01
 62
     7
 10
15.05205345153809
 20
42.72227096557617
 30
0.0099999997764826
 70
   192
  0
VERTEX
  5
9FA
  8
0
  6
HCS_01
 62
     7
 10
15.06569576263428
 20
43.24273681640625
 30
0.0099999997764826
 70
   192
  0
VERTEX
  5
9FB
  8
0
  6
HCS_01
 62
     7
 10
15.05205345153809
 20
42.72227096557617
 30
0.0099999997764826
 70
   192
  0
VERTEX
  5
9FC
  8
0
  6
HCS_01
 62
     7
 10
15.03892230987549
 20
43.32373809814453
 30
0.0099999997764826
 70
   192
  0
VERTEX
  5
9FD
  8
0
  6
HCS_01
 62
     7
 10
15.00694751739502
 20
42.62643051147461
 30
0.0099999997764826
 70
   192
  0
VERTEX
  5
9FE
  8
0
  6
HCS_01
 62
     7
 10
15.00362205505371
 20
43.39143753051758
 30
0.0099999997764826
 70
   192
  0
VERTEX
  5
9FF
  8
0
  6
HCS_01
 62
     7
 10
15.00694751739502
 20
42.62643051147461
 30
0.0099999997764826
 70
   192
  0
VERTEX
  5
A00
  8
0
  6
HCS_01
 62
     7
 10
15.03892230987549
 20
43.32373809814453
 30
0.0099999997764826
 70
   192
  0
VERTEX
  5
A01
  8
0
  6
HCS_01
 62
     7
 10
15.00694751739502
 20
42.62643051147461
 30
0.0099999997764826
 70
   192
  0
VERTEX
  5
A02
  8
0
  6
HCS_01
 62
     7
 10
15.00362205505371
 20
43.39143753051758
 30
0.0099999997764826
 70
   192
  0
VERTEX
  5
A03
  8
0
  6
HCS_01
 62
     7
 10
14.96201229095459
 20
43.00637817382812
 30
0.0099999997764826
 70
   192
  0
VERTEX
  5
A04
  8
0
  6
HCS_01
 62
     7
 10
14.95877265930176
 20
43.44532775878906
 30
0.0099999997764826
 70
   192
  0
VERTEX
  5
A05
  8
0
  6
HCS_01
 62
     7
 10
14.96201229095459
 20
43.00637817382812
 30
0.0099999997764826
 70
   192
  0
VERTEX
  5
A06
  8
0
  6
HCS_01
 62
     7
 10
15.00362205505371
 20
43.39143753051758
 30
0.0099999997764826
 70
   192
  0
VERTEX
  5
A07
  8
0
  6
HCS_01
 62
     7
 10
14.96201229095459
 20
43.00637817382812
 30
0.0099999997764826
 70
   192
  0
VERTEX
  5
A08
  8
0
  6
HCS_01
 62
     7
 10
14.95877265930176
 20
43.44532775878906
 30
0.0099999997764826
 70
   192
  0
VERTEX
  5
A09
  8
0
  6
HCS_01
 62
     7
 10
14.94760227203369
 20
43.21186828613281
 30
0.0099999997764826
 70
   192
  0
VERTEX
  5
A0A
  8
0
  6
HCS_01
 62
     7
 10
14.904372215271
 20
43.33448028564453
 30
0.0099999997764826
 70
   192
  0
VERTEX
  5
A0B
  8
0
  6
HCS_01
 62
     7
 10
14.94760227203369
 20
43.21186828613281
 30
0.0099999997764826
 70
   192
  0
VERTEX
  5
A0C
  8
0
  6
HCS_01
 62
     7
 10
14.95877265930176
 20
43.44532775878906
 30
0.0099999997764826
 70
   192
  0
VERTEX
  5
A0D
  8
0
  6
HCS_01
 62
     7
 10
14.90334892272949
 20
43.48488998413086
 30
0.0099999997764826
 70
   192
  0
VERTEX
  5
A0E
  8
0
  6
HCS_01
 62
     7
 10
14.83769416809082
 20
43.50918960571289
 30
0.0099999997764826
 70
   192
  0
VERTEX
  5
A0F
  8
0
  6
HCS_01
 62
     7
 10
14.83965492248535
 20
43.39536285400391
 30
0.0099999997764826
 70
   192
  0
VERTEX
  5
A10
  8
0
  6
HCS_01
 62
     7
 10
14.90334892272949
 20
43.48488998413086
 30
0.0099999997764826
 70
   192
  0
VERTEX
  5
A11
  8
0
  6
HCS_01
 62
     7
 10
14.83965492248535
 20
43.39536285400391
 30
0.0099999997764826
 70
   192
  0
VERTEX
  5
A12
  8
0
  6
HCS_01
 62
     7
 10
14.904372215271
 20
43.33448028564453
 30
0.0099999997764826
 70
   192
  0
VERTEX
  5
A13
  8
0
  6
HCS_01
 62
     7
 10
14.90334892272949
 20
43.48488998413086
 30
0.0099999997764826
 70
   192
  0
VERTEX
  5
A14
  8
0
  6
HCS_01
 62
     7
 10
14.904372215271
 20
43.33448028564453
 30
0.0099999997764826
 70
   192
  0
VERTEX
  5
A15
  8
0
  6
HCS_01
 62
     7
 10
14.95877265930176
 20
43.44532775878906
 30
0.0099999997764826
 70
   192
  0
VERTEX
  5
A16
  8
0
  6
HCS_01
 62
     7
 10
14.76214790344238
 20
43.51729202270508
 30
0.0099999997764826
 70
   192
  0
VERTEX
  5
A17
  8
0
  6
HCS_01
 62
     7
 10
14.66230201721191
 20
43.50262451171875
 30
0.0099999997764826
 70
   192
  0
VERTEX
  5
A18
  8
0
  6
HCS_01
 62
     7
 10
14.68472671508789
 20
43.39774703979492
 30
0.0099999997764826
 70
   192
  0
VERTEX
  5
A19
  8
0
  6
HCS_01
 62
     7
 10
14.76214790344238
 20
43.51729202270508
 30
0.0099999997764826
 70
   192
  0
VERTEX
  5
A1A
  8
0
  6
HCS_01
 62
     7
 10
14.68472671508789
 20
43.39774703979492
 30
0.0099999997764826
 70
   192
  0
VERTEX
  5
A1B
  8
0
  6
HCS_01
 62
     7
 10
14.76078414916992
 20
43.41565322875977
 30
0.0099999997764826
 70
   192
  0
VERTEX
  5
A1C
  8
0
  6
HCS_01
 62
     7
 10
14.76214790344238
 20
43.51729202270508
 30
0.0099999997764826
 70
   192
  0
VERTEX
  5
A1D
  8
0
  6
HCS_01
 62
     7
 10
14.76078414916992
 20
43.41565322875977
 30
0.0099999997764826
 70
   192
  0
VERTEX
  5
A1E
  8
0
  6
HCS_01
 62
     7
 10
14.83965492248535
 20
43.39536285400391
 30
0.0099999997764826
 70
   192
  0
VERTEX
  5
A1F
  8
0
  6
HCS_01
 62
     7
 10
14.76214790344238
 20
43.51729202270508
 30
0.0099999997764826
 70
   192
  0
VERTEX
  5
A20
  8
0
  6
HCS_01
 62
     7
 10
14.83965492248535
 20
43.39536285400391
 30
0.0099999997764826
 70
   192
  0
VERTEX
  5
A21
  8
0
  6
HCS_01
 62
     7
 10
14.83769416809082
 20
43.50918960571289
 30
0.0099999997764826
 70
   192
  0
VERTEX
  5
A22
  8
0
  6
HCS_01
 62
     7
 10
14.56228446960449
 20
43.00637817382812
 30
0.0099999997764826
 70
   192
  0
VERTEX
  5
A23
  8
0
  6
HCS_01
 62
     7
 10
14.57814407348633
 20
43.21391677856445
 30
0.0099999997764826
 70
   192
  0
VERTEX
  5
A24
  8
0
  6
HCS_01
 62
     7
 10
14.5810432434082
 20
43.4586296081543
 30
0.0099999997764826
 70
   192
  0
VERTEX
  5
A25
  8
0
  6
HCS_01
 62
     7
 10
14.62572288513184
 20
43.34403228759766
 30
0.0099999997764826
 70
   192
  0
VERTEX
  5
A26
  8
0
  6
HCS_01
 62
     7
 10
14.5810432434082
 20
43.4586296081543
 30
0.0099999997764826
 70
   192
  0
VERTEX
  5
A27
  8
0
  6
HCS_01
 62
     7
 10
14.57814407348633
 20
43.21391677856445
 30
0.0099999997764826
 70
   192
  0
VERTEX
  5
A28
  8
0
  6
HCS_01
 62
     7
 10
14.5810432434082
 20
43.4586296081543
 30
0.0099999997764826
 70
   192
  0
VERTEX
  5
A29
  8
0
  6
HCS_01
 62
     7
 10
14.62572288513184
 20
43.34403228759766
 30
0.0099999997764826
 70
   192
  0
VERTEX
  5
A2A
  8
0
  6
HCS_01
 62
     7
 10
14.66230201721191
 20
43.50262451171875
 30
0.0099999997764826
 70
   192
  0
VERTEX
  5
A2B
  8
0
  6
HCS_01
 62
     7
 10
14.68472671508789
 20
43.39774703979492
 30
0.0099999997764826
 70
   192
  0
VERTEX
  5
A2C
  8
0
  6
HCS_01
 62
     7
 10
14.66230201721191
 20
43.50262451171875
 30
0.0099999997764826
 70
   192
  0
VERTEX
  5
A2D
  8
0
  6
HCS_01
 62
     7
 10
14.62572288513184
 20
43.34403228759766
 30
0.0099999997764826
 70
   192
  0
VERTEX
  5
A2E
  8
0
  6
HCS_01
 62
     7
 10
14.53499984741211
 20
42.59983062744141
 30
0.0099999997764826
 70
   192
  0
VERTEX
  5
A2F
  8
0
  6
HCS_01
 62
     7
 10
14.63305568695068
 20
42.52206802368164
 30
0.0099999997764826
 70
   192
  0
VERTEX
  5
A30
  8
0
  6
HCS_01
 62
     7
 10
14.57669448852539
 20
42.80131149291992
 30
0.0099999997764826
 70
   192
  0
VERTEX
  5
A31
  8
0
  6
HCS_01
 62
     7
 10
14.53499984741211
 20
42.59983062744141
 30
0.0099999997764826
 70
   192
  0
VERTEX
  5
A32
  8
0
  6
HCS_01
 62
     7
 10
14.57669448852539
 20
42.80131149291992
 30
0.0099999997764826
 70
   192
  0
VERTEX
  5
A33
  8
0
  6
HCS_01
 62
     7
 10
14.56228446960449
 20
43.00637817382812
 30
0.0099999997764826
 70
   192
  0
VERTEX
  5
A34
  8
0
  6
HCS_01
 62
     7
 10
14.53499984741211
 20
42.59983062744141
 30
0.0099999997764826
 70
   192
  0
VERTEX
  5
A35
  8
0
  6
HCS_01
 62
     7
 10
14.56228446960449
 20
43.00637817382812
 30
0.0099999997764826
 70
   192
  0
VERTEX
  5
A36
  8
0
  6
HCS_01
 62
     7
 10
14.5810432434082
 20
43.4586296081543
 30
0.0099999997764826
 70
   192
  0
VERTEX
  5
A37
  8
0
  6
HCS_01
 62
     7
 10
14.53499984741211
 20
42.59983062744141
 30
0.0099999997764826
 70
   192
  0
VERTEX
  5
A38
  8
0
  6
HCS_01
 62
     7
 10
14.5810432434082
 20
43.4586296081543
 30
0.0099999997764826
 70
   192
  0
VERTEX
  5
A39
  8
0
  6
HCS_01
 62
     7
 10
14.51794624328613
 20
43.38760375976562
 30
0.0099999997764826
 70
   192
  0
VERTEX
  5
A3A
  8
0
  6
HCS_01
 62
     7
 10
14.53499984741211
 20
42.59983062744141
 30
0.0099999997764826
 70
   192
  0
VERTEX
  5
A3B
  8
0
  6
HCS_01
 62
     7
 10
14.51794624328613
 20
43.38760375976562
 30
0.0099999997764826
 70
   192
  0
VERTEX
  5
A3C
  8
0
  6
HCS_01
 62
     7
 10
14.47258567810059
 20
43.29184722900391
 30
0.0099999997764826
 70
   192
  0
VERTEX
  5
A3D
  8
0
  6
HCS_01
 62
     7
 10
14.53499984741211
 20
42.59983062744141
 30
0.0099999997764826
 70
   192
  0
VERTEX
  5
A3E
  8
0
  6
HCS_01
 62
     7
 10
14.47258567810059
 20
43.29184722900391
 30
0.0099999997764826
 70
   192
  0
VERTEX
  5
A3F
  8
0
  6
HCS_01
 62
     7
 10
14.46081829071045
 20
42.76388168334961
 30
0.0099999997764826
 70
   192
  0
VERTEX
  5
A40
  8
0
  6
HCS_01
 62
     7
 10
14.44521522521973
 20
43.16641998291016
 30
0.0099999997764826
 70
   192
  0
VERTEX
  5
A41
  8
0
  6
HCS_01
 62
     7
 10
14.43609142303467
 20
43.00637817382812
 30
0.0099999997764826
 70
   192
  0
VERTEX
  5
A42
  8
0
  6
HCS_01
 62
     7
 10
14.46081829071045
 20
42.76388168334961
 30
0.0099999997764826
 70
   192
  0
VERTEX
  5
A43
  8
0
  6
HCS_01
 62
     7
 10
14.44521522521973
 20
43.16641998291016
 30
0.0099999997764826
 70
   192
  0
VERTEX
  5
A44
  8
0
  6
HCS_01
 62
     7
 10
14.46081829071045
 20
42.76388168334961
 30
0.0099999997764826
 70
   192
  0
VERTEX
  5
A45
  8
0
  6
HCS_01
 62
     7
 10
14.47258567810059
 20
43.29184722900391
 30
0.0099999997764826
 70
   192
  0
VERTEX
  5
A46
  8
0
  6
HCS_01
 62
     7
 10
14.83999633789062
 20
42.6175651550293
 30
0.0099999997764826
 70
   192
  0
VERTEX
  5
A47
  8
0
  6
HCS_01
 62
     7
 10
14.86250686645508
 20
42.51089477539062
 30
0.0099999997764826
 70
   192
  0
VERTEX
  5
A48
  8
0
  6
HCS_01
 62
     7
 10
14.904372215271
 20
42.678955078125
 30
0.0099999997764826
 70
   192
  0
VERTEX
  5
A49
  8
0
  6
HCS_01
 62
     7
 10
14.94393539428711
 20
42.55514907836914
 30
0.0099999997764826
 70
   192
  0
VERTEX
  5
A4A
  8
0
  6
HCS_01
 62
     7
 10
14.904372215271
 20
42.678955078125
 30
0.0099999997764826
 70
   192
  0
VERTEX
  5
A4B
  8
0
  6
HCS_01
 62
     7
 10
14.86250686645508
 20
42.51089477539062
 30
0.0099999997764826
 70
   192
  0
VERTEX
  5
A4C
  8
0
  6
HCS_01
 62
     7
 10
14.904372215271
 20
42.678955078125
 30
0.0099999997764826
 70
   192
  0
VERTEX
  5
A4D
  8
0
  6
HCS_01
 62
     7
 10
14.94393539428711
 20
42.55514907836914
 30
0.0099999997764826
 70
   192
  0
VERTEX
  5
A4E
  8
0
  6
HCS_01
 62
     7
 10
14.94760227203369
 20
42.80173873901367
 30
0.0099999997764826
 70
   192
  0
VERTEX
  5
A4F
  8
0
  6
HCS_01
 62
     7
 10
15.00694751739502
 20
42.62643051147461
 30
0.0099999997764826
 70
   192
  0
VERTEX
  5
A50
  8
0
  6
HCS_01
 62
     7
 10
14.94760227203369
 20
42.80173873901367
 30
0.0099999997764826
 70
   192
  0
VERTEX
  5
A51
  8
0
  6
HCS_01
 62
     7
 10
14.94393539428711
 20
42.55514907836914
 30
0.0099999997764826
 70
   192
  0
VERTEX
  5
A52
  8
0
  6
HCS_01
 62
     7
 10
14.94760227203369
 20
42.80173873901367
 30
0.0099999997764826
 70
   192
  0
VERTEX
  5
A53
  8
0
  6
HCS_01
 62
     7
 10
15.00694751739502
 20
42.62643051147461
 30
0.0099999997764826
 70
   192
  0
VERTEX
  5
A54
  8
0
  6
HCS_01
 62
     7
 10
14.96201229095459
 20
43.00637817382812
 30
0.0099999997764826
 70
   192
  0
VERTEX
  5
A55
  8
0
  6
HCS_01
 62
     7
 10
14.61992454528809
 20
42.67861557006836
 30
0.0099999997764826
 70
   192
  0
VERTEX
  5
A56
  8
0
  6
HCS_01
 62
     7
 10
14.63305568695068
 20
42.52206802368164
 30
0.0099999997764826
 70
   192
  0
VERTEX
  5
A57
  8
0
  6
HCS_01
 62
     7
 10
14.68430137634277
 20
42.61747741699219
 30
0.0099999997764826
 70
   192
  0
VERTEX
  5
A58
  8
0
  6
HCS_01
 62
     7
 10
14.76214790344238
 20
42.49614715576172
 30
0.0099999997764826
 70
   192
  0
VERTEX
  5
A59
  8
0
  6
HCS_01
 62
     7
 10
14.68430137634277
 20
42.61747741699219
 30
0.0099999997764826
 70
   192
  0
VERTEX
  5
A5A
  8
0
  6
HCS_01
 62
     7
 10
14.63305568695068
 20
42.52206802368164
 30
0.0099999997764826
 70
   192
  0
VERTEX
  5
A5B
  8
0
  6
HCS_01
 62
     7
 10
14.68430137634277
 20
42.61747741699219
 30
0.0099999997764826
 70
   192
  0
VERTEX
  5
A5C
  8
0
  6
HCS_01
 62
     7
 10
14.76214790344238
 20
42.49614715576172
 30
0.0099999997764826
 70
   192
  0
VERTEX
  5
A5D
  8
0
  6
HCS_01
 62
     7
 10
14.76214790344238
 20
42.59709930419922
 30
0.0099999997764826
 70
   192
  0
VERTEX
  5
A5E
  8
0
  6
HCS_01
 62
     7
 10
14.86250686645508
 20
42.51089477539062
 30
0.0099999997764826
 70
   192
  0
VERTEX
  5
A5F
  8
0
  6
HCS_01
 62
     7
 10
14.76214790344238
 20
42.59709930419922
 30
0.0099999997764826
 70
   192
  0
VERTEX
  5
A60
  8
0
  6
HCS_01
 62
     7
 10
14.76214790344238
 20
42.49614715576172
 30
0.0099999997764826
 70
   192
  0
VERTEX
  5
A61
  8
0
  6
HCS_01
 62
     7
 10
14.76214790344238
 20
42.59709930419922
 30
0.0099999997764826
 70
   192
  0
VERTEX
  5
A62
  8
0
  6
HCS_01
 62
     7
 10
14.86250686645508
 20
42.51089477539062
 30
0.0099999997764826
 70
   192
  0
VERTEX
  5
A63
  8
0
  6
HCS_01
 62
     7
 10
14.83999633789062
 20
42.6175651550293
 30
0.0099999997764826
 70
   192
  0
VERTEX
  5
A64
  8
0
  6
HCS_01
 62
     7
 10
14.57669448852539
 20
42.80131149291992
 30
0.0099999997764826
 70
   192
  0
VERTEX
  5
A65
  8
0
  6
HCS_01
 62
     7
 10
14.63305568695068
 20
42.52206802368164
 30
0.0099999997764826
 70
   192
  0
VERTEX
  5
A66
  8
0
  6
HCS_01
 62
     7
 10
14.61992454528809
 20
42.67861557006836
 30
0.0099999997764826
 70
   192
  0
VERTEX
  5
A67
  8
0
  6
HCS_01
 62
     7
 10
-5.0
 20
42.27920150756836
 30
0.0099999997764826
 70
   192
  0
VERTEX
  5
A68
  8
0
  6
HCS_01
 62
     7
 10
-5.0
 20
43.47919845581055
 30
0.0099999997764826
 70
   192
  0
VERTEX
  5
A69
  8
0
  6
HCS_01
 62
     7
 10
-2.0
 20
42.87919998168945
 30
0.0099999997764826
 70
   192
  0
VERTEX
  5
A6A
  8
0
  6
HCS_01
 62
     7
 10
5.0
 20
43.47919845581055
 30
0.0099999997764826
 70
   192
  0
VERTEX
  5
A6B
  8
0
  6
HCS_01
 62
     7
 10
5.0
 20
42.27920150756836
 30
0.0099999997764826
 70
   192
  0
VERTEX
  5
A6C
  8
0
  6
HCS_01
 62
     7
 10
2.0
 20
42.87919998168945
 30
0.0099999997764826
 70
   192
  0
VERTEX
  5
A6D
  8
0
  6
HCS_01
 62
     7
 10
0.0
 20
0.0
 30
0.0
 70
   128
 71
     1
 72
     2
 73
     3
  0
VERTEX
  5
A6E
  8
0
  6
HCS_01
 62
     7
 10
0.0
 20
0.0
 30
0.0
 70
   128
 71
     4
 72
     5
 73
     6
  0
VERTEX
  5
A6F
  8
0
  6
HCS_01
 62
     7
 10
0.0
 20
0.0
 30
0.0
 70
   128
 71
     7
 72
     8
 73
     9
  0
VERTEX
  5
A70
  8
0
  6
HCS_01
 62
     7
 10
0.0
 20
0.0
 30
0.0
 70
   128
 71
    10
 72
    11
 73
    12
  0
VERTEX
  5
A71
  8
0
  6
HCS_01
 62
     7
 10
0.0
 20
0.0
 30
0.0
 70
   128
 71
    13
 72
    14
 73
    15
  0
VERTEX
  5
A72
  8
0
  6
HCS_01
 62
     7
 10
0.0
 20
0.0
 30
0.0
 70
   128
 71
    16
 72
    17
 73
    18
  0
VERTEX
  5
A73
  8
0
  6
HCS_01
 62
     7
 10
0.0
 20
0.0
 30
0.0
 70
   128
 71
    19
 72
    20
 73
    21
  0
VERTEX
  5
A74
  8
0
  6
HCS_01
 62
     7
 10
0.0
 20
0.0
 30
0.0
 70
   128
 71
    22
 72
    23
 73
    24
  0
VERTEX
  5
A75
  8
0
  6
HCS_01
 62
     7
 10
0.0
 20
0.0
 30
0.0
 70
   128
 71
    25
 72
    26
 73
    27
  0
VERTEX
  5
A76
  8
0
  6
HCS_01
 62
     7
 10
0.0
 20
0.0
 30
0.0
 70
   128
 71
    28
 72
    29
 73
    30
  0
VERTEX
  5
A77
  8
0
  6
HCS_01
 62
     7
 10
0.0
 20
0.0
 30
0.0
 70
   128
 71
    31
 72
    32
 73
    33
  0
VERTEX
  5
A78
  8
0
  6
HCS_01
 62
     7
 10
0.0
 20
0.0
 30
0.0
 70
   128
 71
    34
 72
    35
 73
    36
  0
VERTEX
  5
A79
  8
0
  6
HCS_01
 62
     7
 10
0.0
 20
0.0
 30
0.0
 70
   128
 71
    37
 72
    38
 73
    39
  0
VERTEX
  5
A7A
  8
0
  6
HCS_01
 62
     7
 10
0.0
 20
0.0
 30
0.0
 70
   128
 71
    40
 72
    41
 73
    42
  0
VERTEX
  5
A7B
  8
0
  6
HCS_01
 62
     7
 10
0.0
 20
0.0
 30
0.0
 70
   128
 71
    43
 72
    44
 73
    45
  0
VERTEX
  5
A7C
  8
0
  6
HCS_01
 62
     7
 10
0.0
 20
0.0
 30
0.0
 70
   128
 71
    46
 72
    47
 73
    48
  0
VERTEX
  5
A7D
  8
0
  6
HCS_01
 62
     7
 10
0.0
 20
0.0
 30
0.0
 70
   128
 71
    49
 72
    50
 73
    51
  0
VERTEX
  5
A7E
  8
0
  6
HCS_01
 62
     7
 10
0.0
 20
0.0
 30
0.0
 70
   128
 71
    52
 72
    53
 73
    54
  0
VERTEX
  5
A7F
  8
0
  6
HCS_01
 62
     7
 10
0.0
 20
0.0
 30
0.0
 70
   128
 71
    55
 72
    56
 73
    57
  0
VERTEX
  5
A80
  8
0
  6
HCS_01
 62
     7
 10
0.0
 20
0.0
 30
0.0
 70
   128
 71
    58
 72
    59
 73
    60
  0
VERTEX
  5
A81
  8
0
  6
HCS_01
 62
     7
 10
0.0
 20
0.0
 30
0.0
 70
   128
 71
    61
 72
    62
 73
    63
  0
VERTEX
  5
A82
  8
0
  6
HCS_01
 62
     7
 10
0.0
 20
0.0
 30
0.0
 70
   128
 71
    64
 72
    65
 73
    66
  0
VERTEX
  5
A83
  8
0
  6
HCS_01
 62
     7
 10
0.0
 20
0.0
 30
0.0
 70
   128
 71
    67
 72
    68
 73
    69
  0
VERTEX
  5
A84
  8
0
  6
HCS_01
 62
     7
 10
0.0
 20
0.0
 30
0.0
 70
   128
 71
    70
 72
    71
 73
    72
  0
VERTEX
  5
A85
  8
0
  6
HCS_01
 62
     7
 10
0.0
 20
0.0
 30
0.0
 70
   128
 71
    73
 72
    74
 73
    75
  0
VERTEX
  5
A86
  8
0
  6
HCS_01
 62
     7
 10
0.0
 20
0.0
 30
0.0
 70
   128
 71
    76
 72
    77
 73
    78
  0
VERTEX
  5
A87
  8
0
  6
HCS_01
 62
     7
 10
0.0
 20
0.0
 30
0.0
 70
   128
 71
    79
 72
    80
 73
    81
  0
VERTEX
  5
A88
  8
0
  6
HCS_01
 62
     7
 10
0.0
 20
0.0
 30
0.0
 70
   128
 71
    82
 72
    83
 73
    84
  0
VERTEX
  5
A89
  8
0
  6
HCS_01
 62
     7
 10
0.0
 20
0.0
 30
0.0
 70
   128
 71
    85
 72
    86
 73
    87
  0
VERTEX
  5
A8A
  8
0
  6
HCS_01
 62
     7
 10
0.0
 20
0.0
 30
0.0
 70
   128
 71
    88
 72
    89
 73
    90
  0
VERTEX
  5
A8B
  8
0
  6
HCS_01
 62
     7
 10
0.0
 20
0.0
 30
0.0
 70
   128
 71
    91
 72
    92
 73
    93
  0
VERTEX
  5
A8C
  8
0
  6
HCS_01
 62
     7
 10
0.0
 20
0.0
 30
0.0
 70
   128
 71
    94
 72
    95
 73
    96
  0
VERTEX
  5
A8D
  8
0
  6
HCS_01
 62
     7
 10
0.0
 20
0.0
 30
0.0
 70
   128
 71
    97
 72
    98
 73
    99
  0
VERTEX
  5
A8E
  8
0
  6
HCS_01
 62
     7
 10
0.0
 20
0.0
 30
0.0
 70
   128
 71
   100
 72
   101
 73
   102
  0
VERTEX
  5
A8F
  8
0
  6
HCS_01
 62
     7
 10
0.0
 20
0.0
 30
0.0
 70
   128
 71
   103
 72
   104
 73
   105
  0
VERTEX
  5
A90
  8
0
  6
HCS_01
 62
     7
 10
0.0
 20
0.0
 30
0.0
 70
   128
 71
   106
 72
   107
 73
   108
  0
VERTEX
  5
A91
  8
0
  6
HCS_01
 62
     7
 10
0.0
 20
0.0
 30
0.0
 70
   128
 71
   109
 72
   110
 73
   111
  0
VERTEX
  5
A92
  8
0
  6
HCS_01
 62
     7
 10
0.0
 20
0.0
 30
0.0
 70
   128
 71
   112
 72
   113
 73
   114
  0
VERTEX
  5
A93
  8
0
  6
HCS_01
 62
     7
 10
0.0
 20
0.0
 30
0.0
 70
   128
 71
   115
 72
   116
 73
   117
  0
VERTEX
  5
A94
  8
0
  6
HCS_01
 62
     7
 10
0.0
 20
0.0
 30
0.0
 70
   128
 71
   118
 72
   119
 73
   120
  0
VERTEX
  5
A95
  8
0
  6
HCS_01
 62
     7
 10
0.0
 20
0.0
 30
0.0
 70
   128
 71
   121
 72
   122
 73
   123
  0
VERTEX
  5
A96
  8
0
  6
HCS_01
 62
     7
 10
0.0
 20
0.0
 30
0.0
 70
   128
 71
   124
 72
   125
 73
   126
  0
VERTEX
  5
A97
  8
0
  6
HCS_01
 62
     7
 10
0.0
 20
0.0
 30
0.0
 70
   128
 71
   127
 72
   128
 73
   129
  0
VERTEX
  5
A98
  8
0
  6
HCS_01
 62
     7
 10
0.0
 20
0.0
 30
0.0
 70
   128
 71
   130
 72
   131
 73
   132
  0
VERTEX
  5
A99
  8
0
  6
HCS_01
 62
     7
 10
0.0
 20
0.0
 30
0.0
 70
   128
 71
   133
 72
   134
 73
   135
  0
VERTEX
  5
A9A
  8
0
  6
HCS_01
 62
     7
 10
0.0
 20
0.0
 30
0.0
 70
   128
 71
   136
 72
   137
 73
   138
  0
VERTEX
  5
A9B
  8
0
  6
HCS_01
 62
     7
 10
0.0
 20
0.0
 30
0.0
 70
   128
 71
   139
 72
   140
 73
   141
  0
VERTEX
  5
A9C
  8
0
  6
HCS_01
 62
     7
 10
0.0
 20
0.0
 30
0.0
 70
   128
 71
   142
 72
   143
 73
   144
  0
VERTEX
  5
A9D
  8
0
  6
HCS_01
 62
     7
 10
0.0
 20
0.0
 30
0.0
 70
   128
 71
   145
 72
   146
 73
   147
  0
VERTEX
  5
A9E
  8
0
  6
HCS_01
 62
     7
 10
0.0
 20
0.0
 30
0.0
 70
   128
 71
   148
 72
   149
 73
   150
  0
VERTEX
  5
A9F
  8
0
  6
HCS_01
 62
     7
 10
0.0
 20
0.0
 30
0.0
 70
   128
 71
   151
 72
   152
 73
   153
  0
VERTEX
  5
AA0
  8
0
  6
HCS_01
 62
     7
 10
0.0
 20
0.0
 30
0.0
 70
   128
 71
   154
 72
   155
 73
   156
  0
VERTEX
  5
AA1
  8
0
  6
HCS_01
 62
     7
 10
0.0
 20
0.0
 30
0.0
 70
   128
 71
   157
 72
   158
 73
   159
  0
VERTEX
  5
AA2
  8
0
  6
HCS_01
 62
     7
 10
0.0
 20
0.0
 30
0.0
 70
   128
 71
   160
 72
   161
 73
   162
  0
VERTEX
  5
AA3
  8
0
  6
HCS_01
 62
     7
 10
0.0
 20
0.0
 30
0.0
 70
   128
 71
   163
 72
   164
 73
   165
  0
VERTEX
  5
AA4
  8
0
  6
HCS_01
 62
     7
 10
0.0
 20
0.0
 30
0.0
 70
   128
 71
   166
 72
   167
 73
   168
  0
VERTEX
  5
AA5
  8
0
  6
HCS_01
 62
     7
 10
0.0
 20
0.0
 30
0.0
 70
   128
 71
   169
 72
   170
 73
   171
  0
VERTEX
  5
AA6
  8
0
  6
HCS_01
 62
     7
 10
0.0
 20
0.0
 30
0.0
 70
   128
 71
   172
 72
   173
 73
   174
  0
VERTEX
  5
AA7
  8
0
  6
HCS_01
 62
     7
 10
0.0
 20
0.0
 30
0.0
 70
   128
 71
   175
 72
   176
 73
   177
  0
VERTEX
  5
AA8
  8
0
  6
HCS_01
 62
     7
 10
0.0
 20
0.0
 30
0.0
 70
   128
 71
   178
 72
   179
 73
   180
  0
VERTEX
  5
AA9
  8
0
  6
HCS_01
 62
     7
 10
0.0
 20
0.0
 30
0.0
 70
   128
 71
   181
 72
   182
 73
   183
  0
VERTEX
  5
AAA
  8
0
  6
HCS_01
 62
     7
 10
0.0
 20
0.0
 30
0.0
 70
   128
 71
   184
 72
   185
 73
   186
  0
VERTEX
  5
AAB
  8
0
  6
HCS_01
 62
     7
 10
0.0
 20
0.0
 30
0.0
 70
   128
 71
   187
 72
   188
 73
   189
  0
VERTEX
  5
AAC
  8
0
  6
HCS_01
 62
     7
 10
0.0
 20
0.0
 30
0.0
 70
   128
 71
   190
 72
   191
 73
   192
  0
VERTEX
  5
AAD
  8
0
  6
HCS_01
 62
     7
 10
0.0
 20
0.0
 30
0.0
 70
   128
 71
   193
 72
   194
 73
   195
  0
VERTEX
  5
AAE
  8
0
  6
HCS_01
 62
     7
 10
0.0
 20
0.0
 30
0.0
 70
   128
 71
   196
 72
   197
 73
   198
  0
VERTEX
  5
AAF
  8
0
  6
HCS_01
 62
     7
 10
0.0
 20
0.0
 30
0.0
 70
   128
 71
   199
 72
   200
 73
   201
  0
VERTEX
  5
AB0
  8
0
  6
HCS_01
 62
     7
 10
0.0
 20
0.0
 30
0.0
 70
   128
 71
   202
 72
   203
 73
   204
  0
VERTEX
  5
AB1
  8
0
  6
HCS_01
 62
     7
 10
0.0
 20
0.0
 30
0.0
 70
   128
 71
   205
 72
   206
 73
   207
  0
VERTEX
  5
AB2
  8
0
  6
HCS_01
 62
     7
 10
0.0
 20
0.0
 30
0.0
 70
   128
 71
   208
 72
   209
 73
   210
  0
VERTEX
  5
AB3
  8
0
  6
HCS_01
 62
     7
 10
0.0
 20
0.0
 30
0.0
 70
   128
 71
   211
 72
   212
 73
   213
  0
VERTEX
  5
AB4
  8
0
  6
HCS_01
 62
     7
 10
0.0
 20
0.0
 30
0.0
 70
   128
 71
   214
 72
   215
 73
   216
  0
VERTEX
  5
AB5
  8
0
  6
HCS_01
 62
     7
 10
0.0
 20
0.0
 30
0.0
 70
   128
 71
   217
 72
   218
 73
   219
  0
VERTEX
  5
AB6
  8
0
  6
HCS_01
 62
     7
 10
0.0
 20
0.0
 30
0.0
 70
   128
 71
   220
 72
   221
 73
   222
  0
VERTEX
  5
AB7
  8
0
  6
HCS_01
 62
     7
 10
0.0
 20
0.0
 30
0.0
 70
   128
 71
   223
 72
   224
 73
   225
  0
VERTEX
  5
AB8
  8
0
  6
HCS_01
 62
     7
 10
0.0
 20
0.0
 30
0.0
 70
   128
 71
   226
 72
   227
 73
   228
  0
VERTEX
  5
AB9
  8
0
  6
HCS_01
 62
     7
 10
0.0
 20
0.0
 30
0.0
 70
   128
 71
   229
 72
   230
 73
   231
  0
VERTEX
  5
ABA
  8
0
  6
HCS_01
 62
     7
 10
0.0
 20
0.0
 30
0.0
 70
   128
 71
   232
 72
   233
 73
   234
  0
VERTEX
  5
ABB
  8
0
  6
HCS_01
 62
     7
 10
0.0
 20
0.0
 30
0.0
 70
   128
 71
   235
 72
   236
 73
   237
  0
VERTEX
  5
ABC
  8
0
  6
HCS_01
 62
     7
 10
0.0
 20
0.0
 30
0.0
 70
   128
 71
   238
 72
   239
 73
   240
  0
VERTEX
  5
ABD
  8
0
  6
HCS_01
 62
     7
 10
0.0
 20
0.0
 30
0.0
 70
   128
 71
   241
 72
   242
 73
   243
  0
VERTEX
  5
ABE
  8
0
  6
HCS_01
 62
     7
 10
0.0
 20
0.0
 30
0.0
 70
   128
 71
   244
 72
   245
 73
   246
  0
VERTEX
  5
ABF
  8
0
  6
HCS_01
 62
     7
 10
0.0
 20
0.0
 30
0.0
 70
   128
 71
   247
 72
   248
 73
   249
  0
VERTEX
  5
AC0
  8
0
  6
HCS_01
 62
     7
 10
0.0
 20
0.0
 30
0.0
 70
   128
 71
   250
 72
   251
 73
   252
  0
VERTEX
  5
AC1
  8
0
  6
HCS_01
 62
     7
 10
0.0
 20
0.0
 30
0.0
 70
   128
 71
   253
 72
   254
 73
   255
  0
VERTEX
  5
AC2
  8
0
  6
HCS_01
 62
     7
 10
0.0
 20
0.0
 30
0.0
 70
   128
 71
   256
 72
   257
 73
   258
  0
VERTEX
  5
AC3
  8
0
  6
HCS_01
 62
     7
 10
0.0
 20
0.0
 30
0.0
 70
   128
 71
   259
 72
   260
 73
   261
  0
VERTEX
  5
AC4
  8
0
  6
HCS_01
 62
     7
 10
0.0
 20
0.0
 30
0.0
 70
   128
 71
   262
 72
   263
 73
   264
  0
VERTEX
  5
AC5
  8
0
  6
HCS_01
 62
     7
 10
0.0
 20
0.0
 30
0.0
 70
   128
 71
   265
 72
   266
 73
   267
  0
VERTEX
  5
AC6
  8
0
  6
HCS_01
 62
     7
 10
0.0
 20
0.0
 30
0.0
 70
   128
 71
   268
 72
   269
 73
   270
  0
VERTEX
  5
AC7
  8
0
  6
HCS_01
 62
     7
 10
0.0
 20
0.0
 30
0.0
 70
   128
 71
   271
 72
   272
 73
   273
  0
VERTEX
  5
AC8
  8
0
  6
HCS_01
 62
     7
 10
0.0
 20
0.0
 30
0.0
 70
   128
 71
   274
 72
   275
 73
   276
  0
VERTEX
  5
AC9
  8
0
  6
HCS_01
 62
     7
 10
0.0
 20
0.0
 30
0.0
 70
   128
 71
   277
 72
   278
 73
   279
  0
VERTEX
  5
ACA
  8
0
  6
HCS_01
 62
     7
 10
0.0
 20
0.0
 30
0.0
 70
   128
 71
   280
 72
   281
 73
   282
  0
VERTEX
  5
ACB
  8
0
  6
HCS_01
 62
     7
 10
0.0
 20
0.0
 30
0.0
 70
   128
 71
   283
 72
   284
 73
   285
  0
VERTEX
  5
ACC
  8
0
  6
HCS_01
 62
     7
 10
0.0
 20
0.0
 30
0.0
 70
   128
 71
   286
 72
   287
 73
   288
  0
VERTEX
  5
ACD
  8
0
  6
HCS_01
 62
     7
 10
0.0
 20
0.0
 30
0.0
 70
   128
 71
   289
 72
   290
 73
   291
  0
VERTEX
  5
ACE
  8
0
  6
HCS_01
 62
     7
 10
0.0
 20
0.0
 30
0.0
 70
   128
 71
   292
 72
   293
 73
   294
  0
VERTEX
  5
ACF
  8
0
  6
HCS_01
 62
     7
 10
0.0
 20
0.0
 30
0.0
 70
   128
 71
   295
 72
   296
 73
   297
  0
VERTEX
  5
AD0
  8
0
  6
HCS_01
 62
     7
 10
0.0
 20
0.0
 30
0.0
 70
   128
 71
   298
 72
   299
 73
   300
  0
VERTEX
  5
AD1
  8
0
  6
HCS_01
 62
     7
 10
0.0
 20
0.0
 30
0.0
 70
   128
 71
   301
 72
   302
 73
   303
  0
VERTEX
  5
AD2
  8
0
  6
HCS_01
 62
     7
 10
0.0
 20
0.0
 30
0.0
 70
   128
 71
   304
 72
   305
 73
   306
  0
VERTEX
  5
AD3
  8
0
  6
HCS_01
 62
     7
 10
0.0
 20
0.0
 30
0.0
 70
   128
 71
   307
 72
   308
 73
   309
  0
VERTEX
  5
AD4
  8
0
  6
HCS_01
 62
     7
 10
0.0
 20
0.0
 30
0.0
 70
   128
 71
   310
 72
   311
 73
   312
  0
VERTEX
  5
AD5
  8
0
  6
HCS_01
 62
     7
 10
0.0
 20
0.0
 30
0.0
 70
   128
 71
   313
 72
   314
 73
   315
  0
VERTEX
  5
AD6
  8
0
  6
HCS_01
 62
     7
 10
0.0
 20
0.0
 30
0.0
 70
   128
 71
   316
 72
   317
 73
   318
  0
VERTEX
  5
AD7
  8
0
  6
HCS_01
 62
     7
 10
0.0
 20
0.0
 30
0.0
 70
   128
 71
   319
 72
   320
 73
   321
  0
VERTEX
  5
AD8
  8
0
  6
HCS_01
 62
     7
 10
0.0
 20
0.0
 30
0.0
 70
   128
 71
   322
 72
   323
 73
   324
  0
VERTEX
  5
AD9
  8
0
  6
HCS_01
 62
     7
 10
0.0
 20
0.0
 30
0.0
 70
   128
 71
   325
 72
   326
 73
   327
  0
VERTEX
  5
ADA
  8
0
  6
HCS_01
 62
     7
 10
0.0
 20
0.0
 30
0.0
 70
   128
 71
   328
 72
   329
 73
   330
  0
VERTEX
  5
ADB
  8
0
  6
HCS_01
 62
     7
 10
0.0
 20
0.0
 30
0.0
 70
   128
 71
   331
 72
   332
 73
   333
  0
VERTEX
  5
ADC
  8
0
  6
HCS_01
 62
     7
 10
0.0
 20
0.0
 30
0.0
 70
   128
 71
   334
 72
   335
 73
   336
  0
VERTEX
  5
ADD
  8
0
  6
HCS_01
 62
     7
 10
0.0
 20
0.0
 30
0.0
 70
   128
 71
   337
 72
   338
 73
   339
  0
VERTEX
  5
ADE
  8
0
  6
HCS_01
 62
     7
 10
0.0
 20
0.0
 30
0.0
 70
   128
 71
   340
 72
   341
 73
   342
  0
VERTEX
  5
ADF
  8
0
  6
HCS_01
 62
     7
 10
0.0
 20
0.0
 30
0.0
 70
   128
 71
   343
 72
   344
 73
   345
  0
VERTEX
  5
AE0
  8
0
  6
HCS_01
 62
     7
 10
0.0
 20
0.0
 30
0.0
 70
   128
 71
   346
 72
   347
 73
   348
  0
VERTEX
  5
AE1
  8
0
  6
HCS_01
 62
     7
 10
0.0
 20
0.0
 30
0.0
 70
   128
 71
   349
 72
   350
 73
   351
  0
VERTEX
  5
AE2
  8
0
  6
HCS_01
 62
     7
 10
0.0
 20
0.0
 30
0.0
 70
   128
 71
   352
 72
   353
 73
   354
  0
VERTEX
  5
AE3
  8
0
  6
HCS_01
 62
     7
 10
0.0
 20
0.0
 30
0.0
 70
   128
 71
   355
 72
   356
 73
   357
  0
VERTEX
  5
AE4
  8
0
  6
HCS_01
 62
     7
 10
0.0
 20
0.0
 30
0.0
 70
   128
 71
   358
 72
   359
 73
   360
  0
VERTEX
  5
AE5
  8
0
  6
HCS_01
 62
     7
 10
0.0
 20
0.0
 30
0.0
 70
   128
 71
   361
 72
   362
 73
   363
  0
VERTEX
  5
AE6
  8
0
  6
HCS_01
 62
     7
 10
0.0
 20
0.0
 30
0.0
 70
   128
 71
   364
 72
   365
 73
   366
  0
VERTEX
  5
AE7
  8
0
  6
HCS_01
 62
     7
 10
0.0
 20
0.0
 30
0.0
 70
   128
 71
   367
 72
   368
 73
   369
  0
VERTEX
  5
AE8
  8
0
  6
HCS_01
 62
     7
 10
0.0
 20
0.0
 30
0.0
 70
   128
 71
   370
 72
   371
 73
   372
  0
VERTEX
  5
AE9
  8
0
  6
HCS_01
 62
     7
 10
0.0
 20
0.0
 30
0.0
 70
   128
 71
   373
 72
   374
 73
   375
  0
VERTEX
  5
AEA
  8
0
  6
HCS_01
 62
     7
 10
0.0
 20
0.0
 30
0.0
 70
   128
 71
   376
 72
   377
 73
   378
  0
VERTEX
  5
AEB
  8
0
  6
HCS_01
 62
     7
 10
0.0
 20
0.0
 30
0.0
 70
   128
 71
   379
 72
   380
 73
   381
  0
VERTEX
  5
AEC
  8
0
  6
HCS_01
 62
     7
 10
0.0
 20
0.0
 30
0.0
 70
   128
 71
   382
 72
   383
 73
   384
  0
VERTEX
  5
AED
  8
0
  6
HCS_01
 62
     7
 10
0.0
 20
0.0
 30
0.0
 70
   128
 71
   385
 72
   386
 73
   387
  0
VERTEX
  5
AEE
  8
0
  6
HCS_01
 62
     7
 10
0.0
 20
0.0
 30
0.0
 70
   128
 71
   388
 72
   389
 73
   390
  0
VERTEX
  5
AEF
  8
0
  6
HCS_01
 62
     7
 10
0.0
 20
0.0
 30
0.0
 70
   128
 71
   391
 72
   392
 73
   393
  0
VERTEX
  5
AF0
  8
0
  6
HCS_01
 62
     7
 10
0.0
 20
0.0
 30
0.0
 70
   128
 71
   394
 72
   395
 73
   396
  0
VERTEX
  5
AF1
  8
0
  6
HCS_01
 62
     7
 10
0.0
 20
0.0
 30
0.0
 70
   128
 71
   397
 72
   398
 73
   399
  0
VERTEX
  5
AF2
  8
0
  6
HCS_01
 62
     7
 10
0.0
 20
0.0
 30
0.0
 70
   128
 71
   400
 72
   401
 73
   402
  0
VERTEX
  5
AF3
  8
0
  6
HCS_01
 62
     7
 10
0.0
 20
0.0
 30
0.0
 70
   128
 71
   403
 72
   404
 73
   405
  0
VERTEX
  5
AF4
  8
0
  6
HCS_01
 62
     7
 10
0.0
 20
0.0
 30
0.0
 70
   128
 71
   406
 72
   407
 73
   408
  0
VERTEX
  5
AF5
  8
0
  6
HCS_01
 62
     7
 10
0.0
 20
0.0
 30
0.0
 70
   128
 71
   409
 72
   410
 73
   411
  0
VERTEX
  5
AF6
  8
0
  6
HCS_01
 62
     7
 10
0.0
 20
0.0
 30
0.0
 70
   128
 71
   412
 72
   413
 73
   414
  0
VERTEX
  5
AF7
  8
0
  6
HCS_01
 62
     7
 10
0.0
 20
0.0
 30
0.0
 70
   128
 71
   415
 72
   416
 73
   417
  0
VERTEX
  5
AF8
  8
0
  6
HCS_01
 62
     7
 10
0.0
 20
0.0
 30
0.0
 70
   128
 71
   418
 72
   419
 73
   420
  0
VERTEX
  5
AF9
  8
0
  6
HCS_01
 62
     7
 10
0.0
 20
0.0
 30
0.0
 70
   128
 71
   421
 72
   422
 73
   423
  0
VERTEX
  5
AFA
  8
0
  6
HCS_01
 62
     7
 10
0.0
 20
0.0
 30
0.0
 70
   128
 71
   424
 72
   425
 73
   426
  0
VERTEX
  5
AFB
  8
0
  6
HCS_01
 62
     7
 10
0.0
 20
0.0
 30
0.0
 70
   128
 71
   427
 72
   428
 73
   429
  0
VERTEX
  5
AFC
  8
0
  6
HCS_01
 62
     7
 10
0.0
 20
0.0
 30
0.0
 70
   128
 71
   430
 72
   431
 73
   432
  0
VERTEX
  5
AFD
  8
0
  6
HCS_01
 62
     7
 10
0.0
 20
0.0
 30
0.0
 70
   128
 71
   433
 72
   434
 73
   435
  0
VERTEX
  5
AFE
  8
0
  6
HCS_01
 62
     7
 10
0.0
 20
0.0
 30
0.0
 70
   128
 71
   436
 72
   437
 73
   438
  0
VERTEX
  5
AFF
  8
0
  6
HCS_01
 62
     7
 10
0.0
 20
0.0
 30
0.0
 70
   128
 71
   439
 72
   440
 73
   441
  0
VERTEX
  5
B00
  8
0
  6
HCS_01
 62
     7
 10
0.0
 20
0.0
 30
0.0
 70
   128
 71
   442
 72
   443
 73
   444
  0
VERTEX
  5
B01
  8
0
  6
HCS_01
 62
     7
 10
0.0
 20
0.0
 30
0.0
 70
   128
 71
   445
 72
   446
 73
   447
  0
VERTEX
  5
B02
  8
0
  6
HCS_01
 62
     7
 10
0.0
 20
0.0
 30
0.0
 70
   128
 71
   448
 72
   449
 73
   450
  0
VERTEX
  5
B03
  8
0
  6
HCS_01
 62
     7
 10
0.0
 20
0.0
 30
0.0
 70
   128
 71
   451
 72
   452
 73
   453
  0
VERTEX
  5
B04
  8
0
  6
HCS_01
 62
     7
 10
0.0
 20
0.0
 30
0.0
 70
   128
 71
   454
 72
   455
 73
   456
  0
VERTEX
  5
B05
  8
0
  6
HCS_01
 62
     7
 10
0.0
 20
0.0
 30
0.0
 70
   128
 71
   457
 72
   458
 73
   459
  0
VERTEX
  5
B06
  8
0
  6
HCS_01
 62
     7
 10
0.0
 20
0.0
 30
0.0
 70
   128
 71
   460
 72
   461
 73
   462
  0
VERTEX
  5
B07
  8
0
  6
HCS_01
 62
     7
 10
0.0
 20
0.0
 30
0.0
 70
   128
 71
   463
 72
   464
 73
   465
  0
VERTEX
  5
B08
  8
0
  6
HCS_01
 62
     7
 10
0.0
 20
0.0
 30
0.0
 70
   128
 71
   466
 72
   467
 73
   468
  0
VERTEX
  5
B09
  8
0
  6
HCS_01
 62
     7
 10
0.0
 20
0.0
 30
0.0
 70
   128
 71
   469
 72
   470
 73
   471
  0
VERTEX
  5
B0A
  8
0
  6
HCS_01
 62
     7
 10
0.0
 20
0.0
 30
0.0
 70
   128
 71
   472
 72
   473
 73
   474
  0
VERTEX
  5
B0B
  8
0
  6
HCS_01
 62
     7
 10
0.0
 20
0.0
 30
0.0
 70
   128
 71
   475
 72
   476
 73
   477
  0
VERTEX
  5
B0C
  8
0
  6
HCS_01
 62
     7
 10
0.0
 20
0.0
 30
0.0
 70
   128
 71
   478
 72
   479
 73
   480
  0
VERTEX
  5
B0D
  8
0
  6
HCS_01
 62
     7
 10
0.0
 20
0.0
 30
0.0
 70
   128
 71
   481
 72
   482
 73
   483
  0
VERTEX
  5
B0E
  8
0
  6
HCS_01
 62
     7
 10
0.0
 20
0.0
 30
0.0
 70
   128
 71
   484
 72
   485
 73
   486
  0
VERTEX
  5
B0F
  8
0
  6
HCS_01
 62
     7
 10
0.0
 20
0.0
 30
0.0
 70
   128
 71
   487
 72
   488
 73
   489
  0
VERTEX
  5
B10
  8
0
  6
HCS_01
 62
     7
 10
0.0
 20
0.0
 30
0.0
 70
   128
 71
   490
 72
   491
 73
   492
  0
VERTEX
  5
B11
  8
0
  6
HCS_01
 62
     7
 10
0.0
 20
0.0
 30
0.0
 70
   128
 71
   493
 72
   494
 73
   495
  0
VERTEX
  5
B12
  8
0
  6
HCS_01
 62
     7
 10
0.0
 20
0.0
 30
0.0
 70
   128
 71
   496
 72
   497
 73
   498
  0
VERTEX
  5
B13
  8
0
  6
HCS_01
 62
     7
 10
0.0
 20
0.0
 30
0.0
 70
   128
 71
   499
 72
   500
 73
   501
  0
VERTEX
  5
B14
  8
0
  6
HCS_01
 62
     7
 10
0.0
 20
0.0
 30
0.0
 70
   128
 71
   502
 72
   503
 73
   504
  0
VERTEX
  5
B15
  8
0
  6
HCS_01
 62
     7
 10
0.0
 20
0.0
 30
0.0
 70
   128
 71
   505
 72
   506
 73
   507
  0
VERTEX
  5
B16
  8
0
  6
HCS_01
 62
     7
 10
0.0
 20
0.0
 30
0.0
 70
   128
 71
   508
 72
   509
 73
   510
  0
VERTEX
  5
B17
  8
0
  6
HCS_01
 62
     7
 10
0.0
 20
0.0
 30
0.0
 70
   128
 71
   511
 72
   512
 73
   513
  0
VERTEX
  5
B18
  8
0
  6
HCS_01
 62
     7
 10
0.0
 20
0.0
 30
0.0
 70
   128
 71
   514
 72
   515
 73
   516
  0
VERTEX
  5
B19
  8
0
  6
HCS_01
 62
     7
 10
0.0
 20
0.0
 30
0.0
 70
   128
 71
   517
 72
   518
 73
   519
  0
VERTEX
  5
B1A
  8
0
  6
HCS_01
 62
     7
 10
0.0
 20
0.0
 30
0.0
 70
   128
 71
   520
 72
   521
 73
   522
  0
VERTEX
  5
B1B
  8
0
  6
HCS_01
 62
     7
 10
0.0
 20
0.0
 30
0.0
 70
   128
 71
   523
 72
   524
 73
   525
  0
VERTEX
  5
B1C
  8
0
  6
HCS_01
 62
     7
 10
0.0
 20
0.0
 30
0.0
 70
   128
 71
   526
 72
   527
 73
   528
  0
VERTEX
  5
B1D
  8
0
  6
HCS_01
 62
     7
 10
0.0
 20
0.0
 30
0.0
 70
   128
 71
   529
 72
   530
 73
   531
  0
VERTEX
  5
B1E
  8
0
  6
HCS_01
 62
     7
 10
0.0
 20
0.0
 30
0.0
 70
   128
 71
   532
 72
   533
 73
   534
  0
VERTEX
  5
B1F
  8
0
  6
HCS_01
 62
     7
 10
0.0
 20
0.0
 30
0.0
 70
   128
 71
   535
 72
   536
 73
   537
  0
VERTEX
  5
B20
  8
0
  6
HCS_01
 62
     7
 10
0.0
 20
0.0
 30
0.0
 70
   128
 71
   538
 72
   539
 73
   540
  0
VERTEX
  5
B21
  8
0
  6
HCS_01
 62
     7
 10
0.0
 20
0.0
 30
0.0
 70
   128
 71
   541
 72
   542
 73
   543
  0
VERTEX
  5
B22
  8
0
  6
HCS_01
 62
     7
 10
0.0
 20
0.0
 30
0.0
 70
   128
 71
   544
 72
   545
 73
   546
  0
VERTEX
  5
B23
  8
0
  6
HCS_01
 62
     7
 10
0.0
 20
0.0
 30
0.0
 70
   128
 71
   547
 72
   548
 73
   549
  0
VERTEX
  5
B24
  8
0
  6
HCS_01
 62
     7
 10
0.0
 20
0.0
 30
0.0
 70
   128
 71
   550
 72
   551
 73
   552
  0
VERTEX
  5
B25
  8
0
  6
HCS_01
 62
     7
 10
0.0
 20
0.0
 30
0.0
 70
   128
 71
   553
 72
   554
 73
   555
  0
VERTEX
  5
B26
  8
0
  6
HCS_01
 62
     7
 10
0.0
 20
0.0
 30
0.0
 70
   128
 71
   556
 72
   557
 73
   558
  0
VERTEX
  5
B27
  8
0
  6
HCS_01
 62
     7
 10
0.0
 20
0.0
 30
0.0
 70
   128
 71
   559
 72
   560
 73
   561
  0
VERTEX
  5
B28
  8
0
  6
HCS_01
 62
     7
 10
0.0
 20
0.0
 30
0.0
 70
   128
 71
   562
 72
   563
 73
   564
  0
VERTEX
  5
B29
  8
0
  6
HCS_01
 62
     7
 10
0.0
 20
0.0
 30
0.0
 70
   128
 71
   565
 72
   566
 73
   567
  0
VERTEX
  5
B2A
  8
0
  6
HCS_01
 62
     7
 10
0.0
 20
0.0
 30
0.0
 70
   128
 71
   568
 72
   569
 73
   570
  0
VERTEX
  5
B2B
  8
0
  6
HCS_01
 62
     7
 10
0.0
 20
0.0
 30
0.0
 70
   128
 71
   571
 72
   572
 73
   573
  0
VERTEX
  5
B2C
  8
0
  6
HCS_01
 62
     7
 10
0.0
 20
0.0
 30
0.0
 70
   128
 71
   574
 72
   575
 73
   576
  0
VERTEX
  5
B2D
  8
0
  6
HCS_01
 62
     7
 10
0.0
 20
0.0
 30
0.0
 70
   128
 71
   577
 72
   578
 73
   579
  0
VERTEX
  5
B2E
  8
0
  6
HCS_01
 62
     7
 10
0.0
 20
0.0
 30
0.0
 70
   128
 71
   580
 72
   581
 73
   582
  0
VERTEX
  5
B2F
  8
0
  6
HCS_01
 62
     7
 10
0.0
 20
0.0
 30
0.0
 70
   128
 71
   583
 72
   584
 73
   585
  0
VERTEX
  5
B30
  8
0
  6
HCS_01
 62
     7
 10
0.0
 20
0.0
 30
0.0
 70
   128
 71
   586
 72
   587
 73
   588
  0
VERTEX
  5
B31
  8
0
  6
HCS_01
 62
     7
 10
0.0
 20
0.0
 30
0.0
 70
   128
 71
   589
 72
   590
 73
   591
  0
VERTEX
  5
B32
  8
0
  6
HCS_01
 62
     7
 10
0.0
 20
0.0
 30
0.0
 70
   128
 71
   592
 72
   593
 73
   594
  0
VERTEX
  5
B33
  8
0
  6
HCS_01
 62
     7
 10
0.0
 20
0.0
 30
0.0
 70
   128
 71
   595
 72
   596
 73
   597
  0
VERTEX
  5
B34
  8
0
  6
HCS_01
 62
     7
 10
0.0
 20
0.0
 30
0.0
 70
   128
 71
   598
 72
   599
 73
   600
  0
VERTEX
  5
B35
  8
0
  6
HCS_01
 62
     7
 10
0.0
 20
0.0
 30
0.0
 70
   128
 71
   601
 72
   602
 73
   603
  0
VERTEX
  5
B36
  8
0
  6
HCS_01
 62
     7
 10
0.0
 20
0.0
 30
0.0
 70
   128
 71
   604
 72
   605
 73
   606
  0
VERTEX
  5
B37
  8
0
  6
HCS_01
 62
     7
 10
0.0
 20
0.0
 30
0.0
 70
   128
 71
   607
 72
   608
 73
   609
  0
VERTEX
  5
B38
  8
0
  6
HCS_01
 62
     7
 10
0.0
 20
0.0
 30
0.0
 70
   128
 71
   610
 72
   611
 73
   612
  0
VERTEX
  5
B39
  8
0
  6
HCS_01
 62
     7
 10
0.0
 20
0.0
 30
0.0
 70
   128
 71
   613
 72
   614
 73
   615
  0
VERTEX
  5
B3A
  8
0
  6
HCS_01
 62
     7
 10
0.0
 20
0.0
 30
0.0
 70
   128
 71
   616
 72
   617
 73
   618
  0
VERTEX
  5
B3B
  8
0
  6
HCS_01
 62
     7
 10
0.0
 20
0.0
 30
0.0
 70
   128
 71
   619
 72
   620
 73
   621
  0
VERTEX
  5
B3C
  8
0
  6
HCS_01
 62
     7
 10
0.0
 20
0.0
 30
0.0
 70
   128
 71
   622
 72
   623
 73
   624
  0
VERTEX
  5
B3D
  8
0
  6
HCS_01
 62
     7
 10
0.0
 20
0.0
 30
0.0
 70
   128
 71
   625
 72
   626
 73
   627
  0
VERTEX
  5
B3E
  8
0
  6
HCS_01
 62
     7
 10
0.0
 20
0.0
 30
0.0
 70
   128
 71
   628
 72
   629
 73
   630
  0
VERTEX
  5
B3F
  8
0
  6
HCS_01
 62
     7
 10
0.0
 20
0.0
 30
0.0
 70
   128
 71
   631
 72
   632
 73
   633
  0
VERTEX
  5
B40
  8
0
  6
HCS_01
 62
     7
 10
0.0
 20
0.0
 30
0.0
 70
   128
 71
   634
 72
   635
 73
   636
  0
VERTEX
  5
B41
  8
0
  6
HCS_01
 62
     7
 10
0.0
 20
0.0
 30
0.0
 70
   128
 71
   637
 72
   638
 73
   639
  0
VERTEX
  5
B42
  8
0
  6
HCS_01
 62
     7
 10
0.0
 20
0.0
 30
0.0
 70
   128
 71
   640
 72
   641
 73
   642
  0
VERTEX
  5
B43
  8
0
  6
HCS_01
 62
     7
 10
0.0
 20
0.0
 30
0.0
 70
   128
 71
   643
 72
   644
 73
   645
  0
VERTEX
  5
B44
  8
0
  6
HCS_01
 62
     7
 10
0.0
 20
0.0
 30
0.0
 70
   128
 71
   646
 72
   647
 73
   648
  0
VERTEX
  5
B45
  8
0
  6
HCS_01
 62
     7
 10
0.0
 20
0.0
 30
0.0
 70
   128
 71
   649
 72
   650
 73
   651
  0
VERTEX
  5
B46
  8
0
  6
HCS_01
 62
     7
 10
0.0
 20
0.0
 30
0.0
 70
   128
 71
   652
 72
   653
 73
   654
  0
VERTEX
  5
B47
  8
0
  6
HCS_01
 62
     7
 10
0.0
 20
0.0
 30
0.0
 70
   128
 71
   655
 72
   656
 73
   657
  0
VERTEX
  5
B48
  8
0
  6
HCS_01
 62
     7
 10
0.0
 20
0.0
 30
0.0
 70
   128
 71
   658
 72
   659
 73
   660
  0
VERTEX
  5
B49
  8
0
  6
HCS_01
 62
     7
 10
0.0
 20
0.0
 30
0.0
 70
   128
 71
   661
 72
   662
 73
   663
  0
VERTEX
  5
B4A
  8
0
  6
HCS_01
 62
     7
 10
0.0
 20
0.0
 30
0.0
 70
   128
 71
   664
 72
   665
 73
   666
  0
VERTEX
  5
B4B
  8
0
  6
HCS_01
 62
     7
 10
0.0
 20
0.0
 30
0.0
 70
   128
 71
   667
 72
   668
 73
   669
  0
VERTEX
  5
B4C
  8
0
  6
HCS_01
 62
     7
 10
0.0
 20
0.0
 30
0.0
 70
   128
 71
   670
 72
   671
 73
   672
  0
VERTEX
  5
B4D
  8
0
  6
HCS_01
 62
     7
 10
0.0
 20
0.0
 30
0.0
 70
   128
 71
   673
 72
   674
 73
   675
  0
VERTEX
  5
B4E
  8
0
  6
HCS_01
 62
     7
 10
0.0
 20
0.0
 30
0.0
 70
   128
 71
   676
 72
   677
 73
   678
  0
VERTEX
  5
B4F
  8
0
  6
HCS_01
 62
     7
 10
0.0
 20
0.0
 30
0.0
 70
   128
 71
   679
 72
   680
 73
   681
  0
VERTEX
  5
B50
  8
0
  6
HCS_01
 62
     7
 10
0.0
 20
0.0
 30
0.0
 70
   128
 71
   682
 72
   683
 73
   684
  0
VERTEX
  5
B51
  8
0
  6
HCS_01
 62
     7
 10
0.0
 20
0.0
 30
0.0
 70
   128
 71
   685
 72
   686
 73
   687
  0
VERTEX
  5
B52
  8
0
  6
HCS_01
 62
     7
 10
0.0
 20
0.0
 30
0.0
 70
   128
 71
   688
 72
   689
 73
   690
  0
VERTEX
  5
B53
  8
0
  6
HCS_01
 62
     7
 10
0.0
 20
0.0
 30
0.0
 70
   128
 71
   691
 72
   692
 73
   693
  0
VERTEX
  5
B54
  8
0
  6
HCS_01
 62
     7
 10
0.0
 20
0.0
 30
0.0
 70
   128
 71
   694
 72
   695
 73
   696
  0
VERTEX
  5
B55
  8
0
  6
HCS_01
 62
     7
 10
0.0
 20
0.0
 30
0.0
 70
   128
 71
   697
 72
   698
 73
   699
  0
VERTEX
  5
B56
  8
0
  6
HCS_01
 62
     7
 10
0.0
 20
0.0
 30
0.0
 70
   128
 71
   700
 72
   701
 73
   702
  0
VERTEX
  5
B57
  8
0
  6
HCS_01
 62
     7
 10
0.0
 20
0.0
 30
0.0
 70
   128
 71
   703
 72
   704
 73
   705
  0
VERTEX
  5
B58
  8
0
  6
HCS_01
 62
     7
 10
0.0
 20
0.0
 30
0.0
 70
   128
 71
   706
 72
   707
 73
   708
  0
VERTEX
  5
B59
  8
0
  6
HCS_01
 62
     7
 10
0.0
 20
0.0
 30
0.0
 70
   128
 71
   709
 72
   710
 73
   711
  0
VERTEX
  5
B5A
  8
0
  6
HCS_01
 62
     7
 10
0.0
 20
0.0
 30
0.0
 70
   128
 71
   712
 72
   713
 73
   714
  0
VERTEX
  5
B5B
  8
0
  6
HCS_01
 62
     7
 10
0.0
 20
0.0
 30
0.0
 70
   128
 71
   715
 72
   716
 73
   717
  0
VERTEX
  5
B5C
  8
0
  6
HCS_01
 62
     7
 10
0.0
 20
0.0
 30
0.0
 70
   128
 71
   718
 72
   719
 73
   720
  0
VERTEX
  5
B5D
  8
0
  6
HCS_01
 62
     7
 10
0.0
 20
0.0
 30
0.0
 70
   128
 71
   721
 72
   722
 73
   723
  0
VERTEX
  5
B5E
  8
0
  6
HCS_01
 62
     7
 10
0.0
 20
0.0
 30
0.0
 70
   128
 71
   724
 72
   725
 73
   726
  0
VERTEX
  5
B5F
  8
0
  6
HCS_01
 62
     7
 10
0.0
 20
0.0
 30
0.0
 70
   128
 71
   727
 72
   728
 73
   729
  0
VERTEX
  5
B60
  8
0
  6
HCS_01
 62
     7
 10
0.0
 20
0.0
 30
0.0
 70
   128
 71
   730
 72
   731
 73
   732
  0
SEQEND
  5
B61
  8
0
  6
HCS_01
 62
     7
  0
ENDBLK
  5
B64
  8
0
  0
ENDSEC
  0
SECTION
  2
ENTITIES
  0
LINE
  5
98
  8
UNNAMED_LEVEL_1
  6
HCS_01
 62
   253
 10
0.0
 20
40.0
 30
0.0
 11
2.0
 21
40.0
 31
0.0
  0
LINE
  5
99
  8
UNNAMED_LEVEL_1
  6
HCS_01
 62
   253
 10
2.0
 20
40.0
 30
0.0
 11
2.0
 21
11.16506350946108
 31
0.0
  0
LINE
  5
9A
  8
UNNAMED_LEVEL_1
  6
HCS_01
 62
   253
 10
0.0
 20
0.0
 30
0.0
 11
0.75
 21
0.0
 31
0.0
  0
LINE
  5
9B
  8
UNNAMED_LEVEL_1
  6
HCS_01
 62
   253
 10
0.75
 20
0.0
 30
0.0
 11
0.7500000000000002
 21
4.5
 31
0.0
  0
LINE
  5
9C
  8
UNNAMED_LEVEL_1
  6
HCS_01
 62
   253
 10
0.75
 20
4.5
 30
0.0
 11
0.7500000000000001
 21
6.5
 31
0.0
  0
LINE
  5
9D
  8
UNNAMED_LEVEL_1
  6
HCS_01
 62
   253
 10
0.75
 20
6.5
 30
0.0
 11
2.0
 21
11.16506350946108
 31
0.0
  0
LINE
  5
9E
  8
UNNAMED_LEVEL_1
  6
HCS_01
 62
   253
 10
0.0
 20
40.0
 30
0.0
 11
-2.0
 21
40.0
 31
0.0
  0
LINE
  5
9F
  8
UNNAMED_LEVEL_1
  6
HCS_01
 62
   253
 10
-2.0
 20
40.0
 30
0.0
 11
-2.0
 21
11.16506350946108
 31
0.0
  0
LINE
  5
A0
  8
UNNAMED_LEVEL_1
  6
HCS_01
 62
   253
 10
0.0
 20
0.0
 30
0.0
 11
-0.75
 21
0.0
 31
0.0
  0
LINE
  5
A1
  8
UNNAMED_LEVEL_1
  6
HCS_01
 62
   253
 10
-0.75
 20
0.0
 30
0.0
 11
-0.7500000000000002
 21
4.5
 31
0.0
  0
LINE
  5
A2
  8
UNNAMED_LEVEL_1
  6
HCS_01
 62
   253
 10
-0.75
 20
4.5
 30
0.0
 11
-0.7500000000000001
 21
6.5
 31
0.0
  0
LINE
  5
A3
  8
UNNAMED_LEVEL_1
  6
HCS_01
 62
   253
 10
-0.75
 20
6.5
 30
0.0
 11
-2.0
 21
11.16506350946108
 31
0.0
  0
INSERT
  5
2FB
  8
0
  6
HCS_01
 62
     7
  2
GNODE_13
 10
0.0
 20
0.0
 30
0.0
  0
INSERT
  5
528
  8
0
  6
HCS_01
 62
     7
  2
GNODE_14
 10
0.0
 20
0.0
 30
0.0
  0
INSERT
  5
789
  8
0
  6
HCS_01
 62
     7
  2
GNODE_15
 10
0.0
 20
0.0
 30
0.0
  0
INSERT
  5
B62
  8
0
  6
HCS_01
 62
     7
  2
GNODE_16
 10
0.0
 20
0.0
 30
0.0
  0
ENDSEC
  0
EOF
