ISO-10303-21;
HEADER;
/* Generated by software containing ST-Developer
 * from STEP Tools, Inc. (www.steptools.com) 
 */
/* OPTION: using custom schema-name function */

FILE_DESCRIPTION(
/* description */ (''),
/* implementation_level */ '2;1');

FILE_NAME(
/* name */ 'R96011_16.stp',
/* time_stamp */ '2022-08-30T10:14:40+02:00',
/* author */ (''),
/* organization */ ('Dormer Pramet'),
/* preprocessor_version */ 'ST-DEVELOPER v16.7',
/* originating_system */ 'SIEMENS PLM Software NX 12.0',
/* authorisation */ '');

FILE_SCHEMA (('AUTOMOTIVE_DESIGN { 1 0 10303 214 3 1 1 1 }'));
ENDSEC;

DATA;
#10=CONSTRUCTIVE_GEOMETRY_REPRESENTATION_RELATIONSHIP(
'supplemental geometry','',#26,#11);
#11=CONSTRUCTIVE_GEOMETRY_REPRESENTATION('supplemental geometry',(#126,
#127,#128),#176);
#12=GEOMETRICALLY_BOUNDED_WIREFRAME_SHAPE_REPRESENTATION(
'R96011_16-None',(#27),#176);
#13=SHAPE_REPRESENTATION_RELATIONSHIP('None',
'relationship between R96011_16-None and R96011_16-None',#26,#15);
#14=SHAPE_REPRESENTATION_RELATIONSHIP('None',
'relationship between R96011_16-None and R96011_16-None',#26,#12);
#15=ADVANCED_BREP_SHAPE_REPRESENTATION('R96011_16-None',(#33),#176);
#16=SHAPE_DEFINITION_REPRESENTATION(#17,#26);
#17=PRODUCT_DEFINITION_SHAPE('','',#18);
#18=PRODUCT_DEFINITION(' ','',#20,#19);
#19=PRODUCT_DEFINITION_CONTEXT('part definition',#25,'design');
#20=PRODUCT_DEFINITION_FORMATION_WITH_SPECIFIED_SOURCE(' ',' ',#22,
 .NOT_KNOWN.);
#21=PRODUCT_RELATED_PRODUCT_CATEGORY('part','',(#22));
#22=PRODUCT('R96011_16','R96011_16',' ',(#23));
#23=PRODUCT_CONTEXT(' ',#25,'mechanical');
#24=APPLICATION_PROTOCOL_DEFINITION('international standard',
'automotive_design',2010,#25);
#25=APPLICATION_CONTEXT(
'core data for automotive mechanical design processes');
#26=SHAPE_REPRESENTATION('R96011_16-None',(#125),#176);
#27=GEOMETRIC_CURVE_SET('None',(#157,#158,#159,#76,#77,#78,#79));
#28=SURFACE_STYLE_USAGE(.BOTH.,#29);
#29=SURFACE_SIDE_STYLE('',(#30));
#30=SURFACE_STYLE_FILL_AREA(#31);
#31=FILL_AREA_STYLE('',(#32));
#32=FILL_AREA_STYLE_COLOUR('',#124);
#33=MANIFOLD_SOLID_BREP('',#34);
#34=CLOSED_SHELL('',(#38,#39,#40));
#35=PLANE('',#133);
#36=FACE_OUTER_BOUND('',#50,.T.);
#37=CYLINDRICAL_SURFACE('',#132,8.73);
#38=ADVANCED_FACE('',(#43,#44),#41,.T.);
#39=ADVANCED_FACE('',(#45,#46),#37,.T.);
#40=ADVANCED_FACE('',(#36),#35,.T.);
#41=CONICAL_SURFACE('',#130,1.78364901193784E-14,70.);
#42=VERTEX_LOOP('',#56);
#43=FACE_BOUND('',#47,.T.);
#44=FACE_BOUND('',#42,.T.);
#45=FACE_BOUND('',#48,.T.);
#46=FACE_BOUND('',#49,.T.);
#47=EDGE_LOOP('',(#51));
#48=EDGE_LOOP('',(#52));
#49=EDGE_LOOP('',(#53));
#50=EDGE_LOOP('',(#54));
#51=ORIENTED_EDGE('',*,*,#58,.T.);
#52=ORIENTED_EDGE('',*,*,#59,.T.);
#53=ORIENTED_EDGE('',*,*,#58,.F.);
#54=ORIENTED_EDGE('',*,*,#59,.F.);
#55=VERTEX_POINT('',#168);
#56=VERTEX_POINT('',#169);
#57=VERTEX_POINT('',#172);
#58=EDGE_CURVE('',#55,#55,#60,.T.);
#59=EDGE_CURVE('',#57,#57,#61,.T.);
#60=CIRCLE('',#129,8.73);
#61=CIRCLE('',#131,8.73);
#62=CURVE_STYLE('',#69,POSITIVE_LENGTH_MEASURE(0.18),#88);
#63=CURVE_STYLE('',#70,POSITIVE_LENGTH_MEASURE(0.18),#88);
#64=CURVE_STYLE('',#71,POSITIVE_LENGTH_MEASURE(0.18),#88);
#65=CURVE_STYLE('',#72,POSITIVE_LENGTH_MEASURE(0.18),#88);
#66=CURVE_STYLE('',#73,POSITIVE_LENGTH_MEASURE(0.18),#123);
#67=CURVE_STYLE('',#74,POSITIVE_LENGTH_MEASURE(0.18),#88);
#68=CURVE_STYLE('',#75,POSITIVE_LENGTH_MEASURE(0.18),#89);
#69=DRAUGHTING_PRE_DEFINED_CURVE_FONT('continuous');
#70=DRAUGHTING_PRE_DEFINED_CURVE_FONT('continuous');
#71=DRAUGHTING_PRE_DEFINED_CURVE_FONT('continuous');
#72=DRAUGHTING_PRE_DEFINED_CURVE_FONT('continuous');
#73=DRAUGHTING_PRE_DEFINED_CURVE_FONT('continuous');
#74=DRAUGHTING_PRE_DEFINED_CURVE_FONT('continuous');
#75=DRAUGHTING_PRE_DEFINED_CURVE_FONT('continuous');
#76=TRIMMED_CURVE('Line1',#80,(PARAMETER_VALUE(0.)),(PARAMETER_VALUE(1.)),
 .T.,.PARAMETER.);
#77=TRIMMED_CURVE('Line2',#81,(PARAMETER_VALUE(0.)),(PARAMETER_VALUE(1.)),
 .T.,.PARAMETER.);
#78=TRIMMED_CURVE('Line3',#82,(PARAMETER_VALUE(0.)),(PARAMETER_VALUE(1.)),
 .T.,.PARAMETER.);
#79=TRIMMED_CURVE('Line4',#83,(PARAMETER_VALUE(0.)),(PARAMETER_VALUE(1.)),
 .T.,.PARAMETER.);
#80=LINE('Line1',#160,#84);
#81=LINE('Line2',#161,#85);
#82=LINE('Line3',#162,#86);
#83=LINE('Line4',#163,#87);
#84=VECTOR('',#136,9.29027195371471);
#85=VECTOR('',#137,9.02253985485605);
#86=VECTOR('',#138,8.73);
#87=VECTOR('',#139,12.2);
#88=DRAUGHTING_PRE_DEFINED_COLOUR('blue');
#89=DRAUGHTING_PRE_DEFINED_COLOUR('red');
#90=PRESENTATION_LAYER_ASSIGNMENT('100','Layer 100',(#157,#126));
#91=PRESENTATION_LAYER_ASSIGNMENT('102','Layer 102',(#158,#127));
#92=PRESENTATION_LAYER_ASSIGNMENT('103','Layer 103',(#159,#128));
#93=PRESENTATION_LAYER_ASSIGNMENT('95','Layer 95',(#76,#77,#78,#79));
#94=PRESENTATION_LAYER_ASSIGNMENT('96','Layer 96',(#33));
#95=STYLED_ITEM('',(#106),#157);
#96=STYLED_ITEM('',(#107),#158);
#97=STYLED_ITEM('',(#108),#159);
#98=STYLED_ITEM('',(#109),#76);
#99=STYLED_ITEM('',(#110),#77);
#100=STYLED_ITEM('',(#111),#78);
#101=STYLED_ITEM('',(#112),#79);
#102=STYLED_ITEM('',(#113),#126);
#103=STYLED_ITEM('',(#114),#127);
#104=STYLED_ITEM('',(#115),#128);
#105=STYLED_ITEM('',(#116),#33);
#106=PRESENTATION_STYLE_ASSIGNMENT((#117));
#107=PRESENTATION_STYLE_ASSIGNMENT((#118));
#108=PRESENTATION_STYLE_ASSIGNMENT((#119));
#109=PRESENTATION_STYLE_ASSIGNMENT((#62));
#110=PRESENTATION_STYLE_ASSIGNMENT((#63));
#111=PRESENTATION_STYLE_ASSIGNMENT((#64));
#112=PRESENTATION_STYLE_ASSIGNMENT((#65));
#113=PRESENTATION_STYLE_ASSIGNMENT((#66));
#114=PRESENTATION_STYLE_ASSIGNMENT((#67));
#115=PRESENTATION_STYLE_ASSIGNMENT((#68));
#116=PRESENTATION_STYLE_ASSIGNMENT((#28));
#117=POINT_STYLE('',#120,POSITIVE_LENGTH_MEASURE(3.),#123);
#118=POINT_STYLE('',#121,POSITIVE_LENGTH_MEASURE(3.),#88);
#119=POINT_STYLE('',#122,POSITIVE_LENGTH_MEASURE(3.),#89);
#120=PRE_DEFINED_POINT_MARKER_SYMBOL('plus');
#121=PRE_DEFINED_POINT_MARKER_SYMBOL('plus');
#122=PRE_DEFINED_POINT_MARKER_SYMBOL('plus');
#123=COLOUR_RGB('Medium Weak Red',0.6,0.4,0.4);
#124=COLOUR_RGB('Light Gray',0.8,0.8,0.8);
#125=AXIS2_PLACEMENT_3D('',#156,#134,#135);
#126=AXIS2_PLACEMENT_3D('CIP',#164,#140,#141);
#127=AXIS2_PLACEMENT_3D('MCS',#165,#142,#143);
#128=AXIS2_PLACEMENT_3D('PCS',#166,#144,#145);
#129=AXIS2_PLACEMENT_3D('',#167,#146,#147);
#130=AXIS2_PLACEMENT_3D('',#170,#148,#149);
#131=AXIS2_PLACEMENT_3D('',#171,#150,#151);
#132=AXIS2_PLACEMENT_3D('',#173,#152,#153);
#133=AXIS2_PLACEMENT_3D('',#174,#154,#155);
#134=DIRECTION('',(0.,0.,1.));
#135=DIRECTION('',(1.,0.,0.));
#136=DIRECTION('',(0.,0.939692620785908,0.342020143325669));
#137=DIRECTION('',(0.,0.,1.));
#138=DIRECTION('',(0.,-1.,0.));
#139=DIRECTION('',(0.,-1.4620073868343E-15,-1.));
#140=DIRECTION('',(0.,0.,1.));
#141=DIRECTION('',(1.,0.,0.));
#142=DIRECTION('',(0.,0.,1.));
#143=DIRECTION('',(1.,0.,0.));
#144=DIRECTION('',(0.,0.,1.));
#145=DIRECTION('',(1.,0.,0.));
#146=DIRECTION('',(0.,0.,-1.));
#147=DIRECTION('',(-1.,0.,0.));
#148=DIRECTION('',(0.,0.,1.));
#149=DIRECTION('',(1.,0.,0.));
#150=DIRECTION('',(0.,0.,-1.));
#151=DIRECTION('',(-1.,0.,0.));
#152=DIRECTION('',(0.,0.,-1.));
#153=DIRECTION('',(-1.,0.,0.));
#154=DIRECTION('',(0.,0.,1.));
#155=DIRECTION('',(1.,0.,0.));
#156=CARTESIAN_POINT('',(0.,0.,0.));
#157=CARTESIAN_POINT('CSYS_INSERT_ORIGIN',(0.,0.,0.));
#158=CARTESIAN_POINT('',(0.,0.,12.2));
#159=CARTESIAN_POINT('',(0.,0.,12.2));
#160=CARTESIAN_POINT('',(0.,0.,0.));
#161=CARTESIAN_POINT('',(0.,8.73,3.17746014514395));
#162=CARTESIAN_POINT('',(0.,8.73,12.2));
#163=CARTESIAN_POINT('',(0.,0.,12.2));
#164=CARTESIAN_POINT('',(0.,0.,0.));
#165=CARTESIAN_POINT('',(0.,0.,12.2));
#166=CARTESIAN_POINT('',(0.,0.,12.2));
#167=CARTESIAN_POINT('',(0.,0.,3.17746014514395));
#168=CARTESIAN_POINT('',(-8.73,0.,3.17746014514395));
#169=CARTESIAN_POINT('',(0.,-1.78364901193784E-14,0.));
#170=CARTESIAN_POINT('',(0.,0.,0.));
#171=CARTESIAN_POINT('',(0.,0.,12.2));
#172=CARTESIAN_POINT('',(-8.73,0.,12.2));
#173=CARTESIAN_POINT('',(0.,0.,0.));
#174=CARTESIAN_POINT('',(0.,8.73,12.2));
#175=MECHANICAL_DESIGN_GEOMETRIC_PRESENTATION_REPRESENTATION('',(#95,#96,
#97,#98,#99,#100,#101,#102,#103,#104,#105),#176);
#176=(
GEOMETRIC_REPRESENTATION_CONTEXT(3)
GLOBAL_UNCERTAINTY_ASSIGNED_CONTEXT((#177))
GLOBAL_UNIT_ASSIGNED_CONTEXT((#183,#179,#178))
REPRESENTATION_CONTEXT('R96011_16','TOP_LEVEL_ASSEMBLY_PART')
);
#177=UNCERTAINTY_MEASURE_WITH_UNIT(LENGTH_MEASURE(2.E-5),#183,
'DISTANCE_ACCURACY_VALUE','Maximum Tolerance applied to model');
#178=(
NAMED_UNIT(*)
SI_UNIT($,.STERADIAN.)
SOLID_ANGLE_UNIT()
);
#179=(
CONVERSION_BASED_UNIT('DEGREE',#181)
NAMED_UNIT(#180)
PLANE_ANGLE_UNIT()
);
#180=DIMENSIONAL_EXPONENTS(0.,0.,0.,0.,0.,0.,0.);
#181=PLANE_ANGLE_MEASURE_WITH_UNIT(PLANE_ANGLE_MEASURE(0.0174532925),#182);
#182=(
NAMED_UNIT(*)
PLANE_ANGLE_UNIT()
SI_UNIT($,.RADIAN.)
);
#183=(
LENGTH_UNIT()
NAMED_UNIT(*)
SI_UNIT(.MILLI.,.METRE.)
);
ENDSEC;
END-ISO-10303-21;
