ISO-10303-21;
HEADER;
/* Generated by software containing ST-Developer
 * from STEP Tools, Inc. (www.steptools.com) 
 */
/* OPTION: using custom schema-name function */

FILE_DESCRIPTION(
/* description */ (''),
/* implementation_level */ '2;1');

FILE_NAME(
/* name */ 'CAPP~A~20231011175026~8402825~MOD~TM01_00~ISO~FR.STP',
/* time_stamp */ '2023-10-11T17:52:43+02:00',
/* author */ (''),
/* organization */ ('SMS'),
/* preprocessor_version */ 'ST-DEVELOPER v16.7',
/* originating_system */ 'SIEMENS PLM Software NX 12.0',
/* authorisation */ '');

FILE_SCHEMA (('AUTOMOTIVE_DESIGN { 1 0 10303 214 3 1 1 1 }'));
ENDSEC;

DATA;
#10=CONSTRUCTIVE_GEOMETRY_REPRESENTATION_RELATIONSHIP(
'supplemental geometry','',#26,#11);
#11=CONSTRUCTIVE_GEOMETRY_REPRESENTATION('supplemental geometry',(#167,
#168,#169),#271);
#12=GEOMETRICALLY_BOUNDED_WIREFRAME_SHAPE_REPRESENTATION(
'CAPP~A~20231011175026~8402825~MOD~TM01_00~ISO~FR-None',(#27),#271);
#13=SHAPE_REPRESENTATION_RELATIONSHIP('None',
'relationship between CAPP~A~20231011175026~8402825~MOD~TM01_00~ISO~FR
-None and CAPP~A~20231011175026~8402825~MOD~TM01_00~ISO~FR-None',#26,#15);
#14=SHAPE_REPRESENTATION_RELATIONSHIP('None',
'relationship between CAPP~A~20231011175026~8402825~MOD~TM01_00~ISO~FR
-None and CAPP~A~20231011175026~8402825~MOD~TM01_00~ISO~FR-None',#26,#12);
#15=ADVANCED_BREP_SHAPE_REPRESENTATION(
'CAPP~A~20231011175026~8402825~MOD~TM01_00~ISO~FR-None',(#39,#40),#271);
#16=SHAPE_DEFINITION_REPRESENTATION(#17,#26);
#17=PRODUCT_DEFINITION_SHAPE('','',#18);
#18=PRODUCT_DEFINITION(' ','',#20,#19);
#19=PRODUCT_DEFINITION_CONTEXT('part definition',#25,'design');
#20=PRODUCT_DEFINITION_FORMATION_WITH_SPECIFIED_SOURCE(' ',' ',#22,
 .NOT_KNOWN.);
#21=PRODUCT_RELATED_PRODUCT_CATEGORY('part','',(#22));
#22=PRODUCT('CAPP~A~20231011175026~8402825~MOD~TM01_00~ISO~FR',
'CAPP~A~20231011175026~8402825~MOD~TM01_00~ISO~FR',' ',(#23));
#23=PRODUCT_CONTEXT(' ',#25,'mechanical');
#24=APPLICATION_PROTOCOL_DEFINITION('international standard',
'automotive_design',2010,#25);
#25=APPLICATION_CONTEXT(
'core data for automotive mechanical design processes');
#26=SHAPE_REPRESENTATION(
'CAPP~A~20231011175026~8402825~MOD~TM01_00~ISO~FR-None',(#166),#271);
#27=GEOMETRIC_CURVE_SET('None',(#227,#228,#229,#134));
#28=VERTEX_LOOP('',#111);
#29=SURFACE_STYLE_USAGE(.BOTH.,#31);
#30=SURFACE_STYLE_USAGE(.BOTH.,#32);
#31=SURFACE_SIDE_STYLE('',(#33));
#32=SURFACE_SIDE_STYLE('',(#34));
#33=SURFACE_STYLE_FILL_AREA(#35);
#34=SURFACE_STYLE_FILL_AREA(#36);
#35=FILL_AREA_STYLE('',(#37));
#36=FILL_AREA_STYLE('',(#38));
#37=FILL_AREA_STYLE_COLOUR('',#164);
#38=FILL_AREA_STYLE_COLOUR('',#165);
#39=MANIFOLD_SOLID_BREP('NOCUT',#41);
#40=MANIFOLD_SOLID_BREP('CUT',#42);
#41=CLOSED_SHELL('',(#50,#51,#52,#53,#54,#55));
#42=CLOSED_SHELL('',(#56,#57,#58));
#43=CYLINDRICAL_SURFACE('',#179,1.15);
#44=PLANE('',#176);
#45=PLANE('',#180);
#46=PLANE('',#182);
#47=FACE_OUTER_BOUND('',#80,.T.);
#48=FACE_OUTER_BOUND('',#85,.T.);
#49=FACE_OUTER_BOUND('',#86,.T.);
#50=ADVANCED_FACE('',(#64,#65),#59,.T.);
#51=ADVANCED_FACE('',(#66,#67),#60,.T.);
#52=ADVANCED_FACE('',(#47),#44,.T.);
#53=ADVANCED_FACE('',(#68,#69),#61,.T.);
#54=ADVANCED_FACE('CYL_FACE',(#70,#71),#43,.T.);
#55=ADVANCED_FACE('',(#48),#45,.T.);
#56=ADVANCED_FACE('',(#49),#46,.T.);
#57=ADVANCED_FACE('',(#72,#73),#62,.T.);
#58=ADVANCED_FACE('',(#74,#75),#63,.T.);
#59=CONICAL_SURFACE('',#172,1.1500479662443,0.0214859163044633);
#60=CONICAL_SURFACE('',#174,1.13939570893575,6.05318929751828);
#61=CONICAL_SURFACE('',#178,1.15,44.9999999999998);
#62=CONICAL_SURFACE('',#184,1.1500479662443,0.0214859163044633);
#63=CONICAL_SURFACE('',#185,6.18446633569414E-15,61.5966052379175);
#64=FACE_BOUND('',#76,.T.);
#65=FACE_BOUND('',#77,.T.);
#66=FACE_BOUND('',#78,.T.);
#67=FACE_BOUND('',#79,.T.);
#68=FACE_BOUND('',#81,.T.);
#69=FACE_BOUND('',#82,.T.);
#70=FACE_BOUND('',#83,.T.);
#71=FACE_BOUND('',#84,.T.);
#72=FACE_BOUND('',#87,.T.);
#73=FACE_BOUND('',#88,.T.);
#74=FACE_BOUND('',#89,.T.);
#75=FACE_BOUND('',#28,.T.);
#76=EDGE_LOOP('',(#90));
#77=EDGE_LOOP('',(#91));
#78=EDGE_LOOP('',(#92));
#79=EDGE_LOOP('',(#93));
#80=EDGE_LOOP('',(#94));
#81=EDGE_LOOP('',(#95));
#82=EDGE_LOOP('',(#96));
#83=EDGE_LOOP('',(#97));
#84=EDGE_LOOP('',(#98));
#85=EDGE_LOOP('',(#99));
#86=EDGE_LOOP('',(#100));
#87=EDGE_LOOP('',(#101));
#88=EDGE_LOOP('',(#102));
#89=EDGE_LOOP('',(#103));
#90=ORIENTED_EDGE('',*,*,#112,.F.);
#91=ORIENTED_EDGE('',*,*,#113,.F.);
#92=ORIENTED_EDGE('',*,*,#114,.T.);
#93=ORIENTED_EDGE('',*,*,#112,.T.);
#94=ORIENTED_EDGE('',*,*,#115,.F.);
#95=ORIENTED_EDGE('',*,*,#115,.T.);
#96=ORIENTED_EDGE('',*,*,#116,.F.);
#97=ORIENTED_EDGE('',*,*,#116,.T.);
#98=ORIENTED_EDGE('',*,*,#114,.F.);
#99=ORIENTED_EDGE('',*,*,#113,.T.);
#100=ORIENTED_EDGE('',*,*,#117,.T.);
#101=ORIENTED_EDGE('',*,*,#118,.F.);
#102=ORIENTED_EDGE('',*,*,#117,.F.);
#103=ORIENTED_EDGE('',*,*,#118,.T.);
#104=VERTEX_POINT('',#247);
#105=VERTEX_POINT('',#249);
#106=VERTEX_POINT('',#252);
#107=VERTEX_POINT('',#255);
#108=VERTEX_POINT('',#258);
#109=VERTEX_POINT('',#263);
#110=VERTEX_POINT('',#266);
#111=VERTEX_POINT('',#268);
#112=EDGE_CURVE('',#104,#104,#119,.T.);
#113=EDGE_CURVE('',#105,#105,#120,.T.);
#114=EDGE_CURVE('',#106,#106,#121,.T.);
#115=EDGE_CURVE('',#107,#107,#122,.T.);
#116=EDGE_CURVE('',#108,#108,#123,.T.);
#117=EDGE_CURVE('',#109,#109,#124,.T.);
#118=EDGE_CURVE('',#110,#110,#125,.T.);
#119=CIRCLE('',#170,1.13939570893575);
#120=CIRCLE('',#171,1.14263945893488);
#121=CIRCLE('',#173,1.15);
#122=CIRCLE('',#175,0.85);
#123=CIRCLE('',#177,1.15);
#124=CIRCLE('',#181,1.14263945893488);
#125=CIRCLE('',#183,1.14999999990515);
#126=CURVE_STYLE('',#130,POSITIVE_LENGTH_MEASURE(0.18),#136);
#127=CURVE_STYLE('',#131,POSITIVE_LENGTH_MEASURE(0.13),#163);
#128=CURVE_STYLE('',#132,POSITIVE_LENGTH_MEASURE(0.18),#162);
#129=CURVE_STYLE('',#133,POSITIVE_LENGTH_MEASURE(0.18),#162);
#130=DRAUGHTING_PRE_DEFINED_CURVE_FONT('continuous');
#131=DRAUGHTING_PRE_DEFINED_CURVE_FONT('continuous');
#132=DRAUGHTING_PRE_DEFINED_CURVE_FONT('continuous');
#133=DRAUGHTING_PRE_DEFINED_CURVE_FONT('continuous');
#134=B_SPLINE_CURVE_WITH_KNOTS('CUTTING PART LINE',3,(#230,#231,#232,#233,
#234,#235,#236,#237,#238,#239,#240,#241,#242),.UNSPECIFIED.,.T.,.F.,(4,
3,3,3,4),(0.,0.478405233661527,0.505400033529608,0.9691131622616,1.),
 .UNSPECIFIED.);
#135=DRAUGHTING_PRE_DEFINED_COLOUR('white');
#136=DRAUGHTING_PRE_DEFINED_COLOUR('blue');
#137=PRESENTATION_LAYER_ASSIGNMENT('1','Layer 1',(#227,#228,#229,#134,#167,
#168,#169,#39,#40));
#138=STYLED_ITEM('',(#147),#227);
#139=STYLED_ITEM('',(#148),#228);
#140=STYLED_ITEM('',(#149),#229);
#141=STYLED_ITEM('',(#150),#134);
#142=STYLED_ITEM('',(#151),#167);
#143=STYLED_ITEM('',(#152),#168);
#144=STYLED_ITEM('',(#153),#169);
#145=STYLED_ITEM('',(#154),#39);
#146=STYLED_ITEM('',(#155),#40);
#147=PRESENTATION_STYLE_ASSIGNMENT((#156));
#148=PRESENTATION_STYLE_ASSIGNMENT((#157));
#149=PRESENTATION_STYLE_ASSIGNMENT((#158));
#150=PRESENTATION_STYLE_ASSIGNMENT((#126));
#151=PRESENTATION_STYLE_ASSIGNMENT((#127));
#152=PRESENTATION_STYLE_ASSIGNMENT((#128));
#153=PRESENTATION_STYLE_ASSIGNMENT((#129));
#154=PRESENTATION_STYLE_ASSIGNMENT((#29));
#155=PRESENTATION_STYLE_ASSIGNMENT((#30));
#156=POINT_STYLE('',#159,POSITIVE_LENGTH_MEASURE(3.),#162);
#157=POINT_STYLE('',#160,POSITIVE_LENGTH_MEASURE(3.),#135);
#158=POINT_STYLE('',#161,POSITIVE_LENGTH_MEASURE(3.),#162);
#159=PRE_DEFINED_POINT_MARKER_SYMBOL('plus');
#160=PRE_DEFINED_POINT_MARKER_SYMBOL('plus');
#161=PRE_DEFINED_POINT_MARKER_SYMBOL('plus');
#162=COLOUR_RGB('Medium Maroon',0.6,0.4,0.4);
#163=COLOUR_RGB('Silver Gray',0.6,0.6,0.6);
#164=COLOUR_RGB('TLS_NOCUT',0.498023956664378,0.498023956664378,0.498023956664378);
#165=COLOUR_RGB('TLS_CUT',0.8,0.8,0.8);
#166=AXIS2_PLACEMENT_3D('',#226,#186,#187);
#167=AXIS2_PLACEMENT_3D('PCS',#243,#188,#189);
#168=AXIS2_PLACEMENT_3D('MCS',#244,#190,#191);
#169=AXIS2_PLACEMENT_3D('CIP',#245,#192,#193);
#170=AXIS2_PLACEMENT_3D('',#246,#194,#195);
#171=AXIS2_PLACEMENT_3D('',#248,#196,#197);
#172=AXIS2_PLACEMENT_3D('',#250,#198,#199);
#173=AXIS2_PLACEMENT_3D('',#251,#200,#201);
#174=AXIS2_PLACEMENT_3D('',#253,#202,#203);
#175=AXIS2_PLACEMENT_3D('',#254,#204,#205);
#176=AXIS2_PLACEMENT_3D('',#256,#206,#207);
#177=AXIS2_PLACEMENT_3D('',#257,#208,#209);
#178=AXIS2_PLACEMENT_3D('',#259,#210,#211);
#179=AXIS2_PLACEMENT_3D('',#260,#212,#213);
#180=AXIS2_PLACEMENT_3D('',#261,#214,#215);
#181=AXIS2_PLACEMENT_3D('',#262,#216,#217);
#182=AXIS2_PLACEMENT_3D('',#264,#218,#219);
#183=AXIS2_PLACEMENT_3D('',#265,#220,#221);
#184=AXIS2_PLACEMENT_3D('',#267,#222,#223);
#185=AXIS2_PLACEMENT_3D('',#269,#224,#225);
#186=DIRECTION('',(0.,0.,1.));
#187=DIRECTION('',(1.,0.,0.));
#188=DIRECTION('',(0.,0.,1.));
#189=DIRECTION('',(1.,0.,0.));
#190=DIRECTION('',(0.,0.,1.));
#191=DIRECTION('',(1.,0.,0.));
#192=DIRECTION('',(0.,0.,1.));
#193=DIRECTION('',(1.,0.,0.));
#194=DIRECTION('',(0.,0.,1.));
#195=DIRECTION('',(-1.,0.,0.));
#196=DIRECTION('',(0.,0.,-1.));
#197=DIRECTION('',(-1.,0.,0.));
#198=DIRECTION('',(0.,0.,-1.));
#199=DIRECTION('',(-1.,0.,4.54995125265162E-15));
#200=DIRECTION('',(0.,0.,-1.));
#201=DIRECTION('',(-1.,0.,0.));
#202=DIRECTION('',(0.,0.,1.));
#203=DIRECTION('',(1.,0.,-6.47391732844177E-17));
#204=DIRECTION('',(0.,0.,-1.));
#205=DIRECTION('',(-1.,0.,0.));
#206=DIRECTION('',(0.,0.,1.));
#207=DIRECTION('',(1.,0.,0.));
#208=DIRECTION('',(0.,0.,-1.));
#209=DIRECTION('',(-1.,0.,0.));
#210=DIRECTION('',(0.,0.,-1.));
#211=DIRECTION('',(-1.,0.,3.46546167103195E-17));
#212=DIRECTION('',(0.,0.,-1.));
#213=DIRECTION('',(-1.,0.,0.));
#214=DIRECTION('',(0.,0.,-1.));
#215=DIRECTION('',(-1.,0.,0.));
#216=DIRECTION('',(0.,0.,1.));
#217=DIRECTION('',(1.,0.,0.));
#218=DIRECTION('',(0.,0.,1.));
#219=DIRECTION('',(1.,0.,0.));
#220=DIRECTION('',(0.,0.,-1.));
#221=DIRECTION('',(-1.,0.,0.));
#222=DIRECTION('',(0.,0.,-1.));
#223=DIRECTION('',(-1.,0.,4.54995125265162E-15));
#224=DIRECTION('',(0.,0.,1.));
#225=DIRECTION('',(1.,0.,-2.62666409447502E-17));
#226=CARTESIAN_POINT('',(0.,0.,0.));
#227=CARTESIAN_POINT('',(0.,0.,-24.));
#228=CARTESIAN_POINT('CRP',(-1.15,0.,-52.3781092593065));
#229=CARTESIAN_POINT('CIP_DCSYS',(0.,0.,-53.));
#230=CARTESIAN_POINT('',(0.,0.,-53.));
#231=CARTESIAN_POINT('',(0.,0.,-46.25));
#232=CARTESIAN_POINT('',(0.,0.,-39.5));
#233=CARTESIAN_POINT('',(0.,0.,-32.75));
#234=CARTESIAN_POINT('',(-0.380879819644959,0.,-32.75));
#235=CARTESIAN_POINT('',(-0.761759639289919,0.,-32.75));
#236=CARTESIAN_POINT('',(-1.14263945893488,0.,-32.7500000000001));
#237=CARTESIAN_POINT('',(-1.14509297259164,0.,-39.2927030864527));
#238=CARTESIAN_POINT('',(-1.1475464862484,0.,-45.8354061729052));
#239=CARTESIAN_POINT('',(-1.14999999990515,0.,-52.3781092593578));
#240=CARTESIAN_POINT('',(-0.766666666603435,0.,-52.5854061729052));
#241=CARTESIAN_POINT('',(-0.383333333301717,0.,-52.7927030864526));
#242=CARTESIAN_POINT('',(0.,0.,-53.));
#243=CARTESIAN_POINT('',(0.,0.,0.));
#244=CARTESIAN_POINT('',(0.,0.,-24.));
#245=CARTESIAN_POINT('',(0.,0.,-53.));
#246=CARTESIAN_POINT('',(0.,0.,-24.1));
#247=CARTESIAN_POINT('',(-1.13939570893575,0.,-24.1));
#248=CARTESIAN_POINT('',(0.,0.,-32.75));
#249=CARTESIAN_POINT('',(-1.14263945893488,0.,-32.75));
#250=CARTESIAN_POINT('',(0.,0.,-52.5060194971079));
#251=CARTESIAN_POINT('',(0.,0.,-24.));
#252=CARTESIAN_POINT('',(-1.15,0.,-24.));
#253=CARTESIAN_POINT('',(0.,0.,-24.1));
#254=CARTESIAN_POINT('',(0.,0.,0.));
#255=CARTESIAN_POINT('',(-0.85,0.,0.));
#256=CARTESIAN_POINT('',(-0.85,0.,-5.55111512312578E-17));
#257=CARTESIAN_POINT('',(0.,0.,-0.300000000000002));
#258=CARTESIAN_POINT('',(-1.15,0.,-0.300000000000002));
#259=CARTESIAN_POINT('',(0.,0.,-0.300000000000002));
#260=CARTESIAN_POINT('',(0.,0.,20.9080749503476));
#261=CARTESIAN_POINT('',(0.,0.,-32.75));
#262=CARTESIAN_POINT('',(0.,0.,-32.75));
#263=CARTESIAN_POINT('',(1.14263945893488,0.,-32.75));
#264=CARTESIAN_POINT('',(0.,0.,-32.75));
#265=CARTESIAN_POINT('',(0.,0.,-52.3781092593578));
#266=CARTESIAN_POINT('',(-1.14999999990515,0.,-52.3781092593578));
#267=CARTESIAN_POINT('',(0.,0.,-52.5060194971079));
#268=CARTESIAN_POINT('',(-6.18446633569414E-15,0.,-53.));
#269=CARTESIAN_POINT('',(0.,0.,-53.));
#270=MECHANICAL_DESIGN_GEOMETRIC_PRESENTATION_REPRESENTATION('',(#138,#139,
#140,#141,#142,#143,#144,#145,#146),#271);
#271=(
GEOMETRIC_REPRESENTATION_CONTEXT(3)
GLOBAL_UNCERTAINTY_ASSIGNED_CONTEXT((#272))
GLOBAL_UNIT_ASSIGNED_CONTEXT((#278,#274,#273))
REPRESENTATION_CONTEXT(
'CAPP~A~20231011175026~8402825~MOD~TM01_00~ISO~FR',
'TOP_LEVEL_ASSEMBLY_PART')
);
#272=UNCERTAINTY_MEASURE_WITH_UNIT(LENGTH_MEASURE(2.E-5),#278,
'DISTANCE_ACCURACY_VALUE','Maximum Tolerance applied to model');
#273=(
NAMED_UNIT(*)
SI_UNIT($,.STERADIAN.)
SOLID_ANGLE_UNIT()
);
#274=(
CONVERSION_BASED_UNIT('DEGREE',#276)
NAMED_UNIT(#275)
PLANE_ANGLE_UNIT()
);
#275=DIMENSIONAL_EXPONENTS(0.,0.,0.,0.,0.,0.,0.);
#276=PLANE_ANGLE_MEASURE_WITH_UNIT(PLANE_ANGLE_MEASURE(0.0174532925),#277);
#277=(
NAMED_UNIT(*)
PLANE_ANGLE_UNIT()
SI_UNIT($,.RADIAN.)
);
#278=(
LENGTH_UNIT()
NAMED_UNIT(*)
SI_UNIT(.MILLI.,.METRE.)
);
ENDSEC;
END-ISO-10303-21;
