  0
SECTION
  2
HEADER
  9
$ACADVER
  1
AC1009
  9
$INSBASE
 10
0.0
 20
0.0
 30
0.0
  9
$EXTMIN
 10
-341.253221432675673
 20
-54.2748879040415417
 30
0.0
  9
$EXTMAX
 10
29.4074162456590784
 20
75.9966130786439464
 30
0.0
  9
$LIMMIN
 10
0.0
 20
0.0
  9
$LIMMAX
 10
420.0
 20
297.0
  9
$ORTHOMODE
 70
     1
  9
$REGENMODE
 70
     1
  9
$FILLMODE
 70
     1
  9
$QTEXTMODE
 70
     0
  9
$MIRRTEXT
 70
     0
  9
$DRAGMODE
 70
     2
  9
$LTSCALE
 40
10.0
  9
$OSMODE
 70
  4095
  9
$ATTMODE
 70
     1
  9
$TEXTSIZE
 40
2.5
  9
$TRACEWID
 40
1.0
  9
$TEXTSTYLE
  7
STANDARD
  9
$CLAYER
  8
0
  9
$CELTYPE
  6
BYLAYER
  9
$CECOLOR
 62
   256
  9
$DIMSCALE
 40
1.0
  9
$DIMASZ
 40
2.5
  9
$DIMEXO
 40
1.0
  9
$DIMDLI
 40
1.0
  9
$DIMRND
 40
0.0
  9
$DIMDLE
 40
0.0
  9
$DIMEXE
 40
1.0
  9
$DIMTP
 40
0.0
  9
$DIMTM
 40
0.0
  9
$DIMTXT
 40
2.5
  9
$DIMCEN
 40
2.5
  9
$DIMTSZ
 40
0.0
  9
$DIMTOL
 70
     0
  9
$DIMLIM
 70
     0
  9
$DIMTIH
 70
     0
  9
$DIMTOH
 70
     0
  9
$DIMSE1
 70
     0
  9
$DIMSE2
 70
     0
  9
$DIMTAD
 70
     1
  9
$DIMZIN
 70
    10
  9
$DIMBLK
  1

  9
$DIMASO
 70
     0
  9
$DIMSHO
 70
     1
  9
$DIMPOST
  1

  9
$DIMAPOST
  1

  9
$DIMALT
 70
     0
  9
$DIMALTD
 70
     3
  9
$DIMALTF
 40
0.03937007874016
  9
$DIMLFAC
 40
1.0
  9
$DIMTOFL
 70
     1
  9
$DIMTVP
 40
0.0
  9
$DIMTIX
 70
     0
  9
$DIMSOXD
 70
     0
  9
$DIMSAH
 70
     0
  9
$DIMBLK1
  1

  9
$DIMBLK2
  1

  9
$DIMSTYLE
  2
ISO-25
  9
$DIMCLRD
 70
     0
  9
$DIMCLRE
 70
     0
  9
$DIMCLRT
 70
     0
  9
$DIMTFAC
 40
1.0
  9
$DIMGAP
 40
0.625
  9
$LUNITS
 70
     2
  9
$LUPREC
 70
     4
  9
$SKETCHINC
 40
1.0
  9
$FILLETRAD
 40
0.0
  9
$AUNITS
 70
     0
  9
$AUPREC
 70
     0
  9
$MENU
  1
.
  9
$ELEVATION
 40
0.0
  9
$PELEVATION
 40
0.0
  9
$THICKNESS
 40
0.0
  9
$LIMCHECK
 70
     0
  9
$BLIPMODE
 70
     0
  9
$CHAMFERA
 40
0.5
  9
$CHAMFERB
 40
0.5
  9
$SKPOLY
 70
     0
  9
$TDCREATE
 40
2457332.5054629631340504
  9
$TDUPDATE
 40
2460007.577314815018326
  9
$TDINDWG
 40
1.3988922685
  9
$TDUSRTIMER
 40
1.3988850116
  9
$USRTIMER
 70
     1
  9
$ANGBASE
 50
0.0
  9
$ANGDIR
 70
     0
  9
$PDMODE
 70
     0
  9
$PDSIZE
 40
0.0
  9
$PLINEWID
 40
0.0
  9
$COORDS
 70
     1
  9
$SPLFRAME
 70
     0
  9
$SPLINETYPE
 70
     6
  9
$SPLINESEGS
 70
     8
  9
$ATTDIA
 70
     1
  9
$ATTREQ
 70
     1
  9
$HANDLING
 70
     1
  9
$HANDSEED
  5
9312
  9
$SURFTAB1
 70
     6
  9
$SURFTAB2
 70
     6
  9
$SURFTYPE
 70
     6
  9
$SURFU
 70
     6
  9
$SURFV
 70
     6
  9
$UCSNAME
  2

  9
$UCSORG
 10
0.0
 20
0.0
 30
0.0
  9
$UCSXDIR
 10
1.0
 20
0.0
 30
0.0
  9
$UCSYDIR
 10
0.0
 20
1.0
 30
0.0
  9
$PUCSNAME
  2

  9
$PUCSORG
 10
0.0
 20
0.0
 30
0.0
  9
$PUCSXDIR
 10
1.0
 20
0.0
 30
0.0
  9
$PUCSYDIR
 10
0.0
 20
1.0
 30
0.0
  9
$USERI1
 70
     0
  9
$USERI2
 70
     0
  9
$USERI3
 70
     0
  9
$USERI4
 70
     0
  9
$USERI5
 70
     0
  9
$USERR1
 40
0.0
  9
$USERR2
 40
0.0
  9
$USERR3
 40
0.0
  9
$USERR4
 40
0.0
  9
$USERR5
 40
0.0
  9
$WORLDVIEW
 70
     1
  9
$SHADEDGE
 70
     3
  9
$SHADEDIF
 70
    70
  9
$TILEMODE
 70
     1
  9
$MAXACTVP
 70
    64
  9
$PLIMCHECK
 70
     0
  9
$PEXTMIN
 10
25.6999999999999886
 20
19.5
 30
0.0
  9
$PEXTMAX
 10
231.3000000000000114
 20
175.5
 30
0.0
  9
$PLIMMIN
 10
-20.0
 20
-7.5
  9
$PLIMMAX
 10
277.0
 20
202.5
  9
$UNITMODE
 70
     0
  9
$VISRETAIN
 70
     1
  9
$PLINEGEN
 70
     0
  9
$PSLTSCALE
 70
     1
  0
ENDSEC
  0
SECTION
  2
TABLES
  0
TABLE
  2
VPORT
 70
     1
  0
VPORT
  2
*ACTIVE
 70
     0
 10
0.0
 20
0.0
 11
1.0
 21
1.0
 12
-122.4166256319578991
 22
21.7216005699293113
 13
0.0
 23
0.0
 14
10.0
 24
10.0
 15
10.0
 25
10.0
 16
0.0
 26
0.0
 36
1.0
 17
0.0
 27
0.0
 37
0.0
 40
240.0215707684077131
 41
2.2927120669056151
 42
50.0
 43
0.0
 44
0.0
 50
0.0
 51
0.0
 71
     0
 72
 20000
 73
     1
 74
     2
 75
     0
 76
     0
 77
     0
 78
     0
  0
ENDTAB
  0
TABLE
  2
LTYPE
 70
     1
  0
LTYPE
  2
CONTINUOUS
 70
     0
  3
Solid line
 72
    65
 73
     0
 40
0.0
  0
ENDTAB
  0
TABLE
  2
LAYER
 70
    10
  0
LAYER
  2
0
 70
     0
 62
     7
  6
CONTINUOUS
  0
LAYER
  2
DEFPOINTS
 70
     0
 62
     7
  6
CONTINUOUS
  0
LAYER
  2
COS
 70
     0
 62
     4
  6
CONTINUOUS
  0
LAYER
  2
CAP
 70
     0
 62
     4
  6
CONTINUOUS
  0
LAYER
  2
COTES
 70
     0
 62
     2
  6
CONTINUOUS
  0
LAYER
  2
REFER\U+00C8NCIA
 70
     0
 62
     5
  6
CONTINUOUS
  0
LAYER
  2
MAQUINA
 70
     1
 62
     7
  6
CONTINUOUS
  0
LAYER
  2
RESERVA
 70
     0
 62
     7
  6
CONTINUOUS
  0
LAYER
  2
CAIXETI
 70
     0
 62
     7
  6
CONTINUOUS
  0
LAYER
  2
ARISTAS_VISIBLES_ISO_
 70
     0
 62
     7
  6
CONTINUOUS
  0
ENDTAB
  0
TABLE
  2
STYLE
 70
     3
  0
STYLE
  2
STANDARD
 70
     0
 40
0.0
 41
1.0
 50
0.0
 71
     0
 42
2.5
  3
SIMPLEX.SHX
  4

  0
STYLE
  2
STYLE1
 70
     0
 40
0.0
 41
1.0
 50
0.0
 71
     0
 42
6.0
  3
txt
  4

  0
STYLE
  2
SIMPLEX
 70
     0
 40
0.0
 41
1.0
 50
0.0
 71
     0
 42
3.0
  3
SIMPLEX.SHX
  4

  0
ENDTAB
  0
TABLE
  2
VIEW
 70
     0
  0
ENDTAB
  0
TABLE
  2
UCS
 70
     0
  0
ENDTAB
  0
TABLE
  2
APPID
 70
    10
  0
APPID
  2
ACAD
 70
     0
  0
APPID
  2
ACAD_PSEXT
 70
     0
  0
APPID
  2
ACADANNOPO
 70
     0
  0
APPID
  2
ACADANNOTATIVE
 70
     0
  0
APPID
  2
ACAD_DSTYLE_DIMJAG
 70
     0
  0
APPID
  2
ACAD_DSTYLE_DIMTALN
 70
     0
  0
APPID
  2
ACAD_MLEADERVER
 70
     0
  0
APPID
  2
ACAECLAYERSTANDARD
 70
     0
  0
APPID
  2
ACAD_EXEMPT_FROM_CAD_STANDARDS
 70
     0
  0
APPID
  2
ACAD_NAV_VCDISPLAY
 70
     0
  0
ENDTAB
  0
TABLE
  2
DIMSTYLE
 70
     2
  0
DIMSTYLE
  2
ISO-25
 70
     0
  3

  4

  5

  6

  7

 40
1.0
 41
2.5
 42
0.625
 43
3.75
 44
1.25
 45
0.0
 46
0.0
 47
0.0
 48
0.0
140
2.5
141
2.5
142
0.0
143
0.03937007874016
144
1.0
145
0.0
146
1.0
147
0.625
 71
     0
 72
     0
 73
     0
 74
     0
 75
     0
 76
     0
 77
     1
 78
     8
170
     0
171
     3
172
     1
173
     0
174
     0
175
     0
176
     0
177
     0
178
     0
  0
DIMSTYLE
  2
STANDARD
 70
     0
  3

  4

  5

  6

  7

 40
1.0
 41
0.18
 42
0.0625
 43
0.38
 44
0.18
 45
0.0
 46
0.0
 47
0.0
 48
0.0
140
0.18
141
0.09
142
0.0
143
25.3999999999999986
144
1.0
145
0.0
146
1.0
147
0.09
 71
     0
 72
     0
 73
     1
 74
     1
 75
     0
 76
     0
 77
     0
 78
     0
170
     0
171
     2
172
     0
173
     0
174
     0
175
     0
176
     0
177
     0
178
     0
  0
ENDTAB
  0
ENDSEC
  0
SECTION
  2
BLOCKS
  0
BLOCK
  8
0
  2
$MODEL_SPACE
 70
     0
 10
0.0
 20
0.0
 30
0.0
  3
$MODEL_SPACE
  1

  0
ENDBLK
  5
21
  8
0
  0
BLOCK
 67
     1
  8
0
  2
$PAPER_SPACE
 70
     0
 10
0.0
 20
0.0
 30
0.0
  3
$PAPER_SPACE
  1

  0
ENDBLK
  5
D9
 67
     1
  8
0
  0
BLOCK
  8
0
  2
*U1
 70
     1
 10
0.0
 20
0.0
 30
0.0
  3
*U1
  1

  0
TEXT
  5
8E59
  8
COTES
 10
-338.753221432675673
 20
48.972803554834293
 30
0.0
 40
2.5
  1
50
 50
90.0000000000000284
  0
ENDBLK
  5
8E5B
  8
0
  0
BLOCK
  8
0
  2
*U2
 70
     1
 10
0.0
 20
0.0
 30
0.0
  3
*U2
  1

  0
TEXT
  5
8E5D
  8
COTES
 10
-162.2950544536462871
 20
-15.7122215176233908
 30
0.0
 40
2.5
  1
300
  0
ENDBLK
  5
8E5F
  8
0
  0
BLOCK
  8
0
  2
*U3
 70
     1
 10
0.0
 20
0.0
 30
0.0
  3
*U3
  1

  0
TEXT
  5
8E61
  8
COTES
 10
27.2561376592898306
 20
43.917413127025057
 30
0.0
 40
2.5
  1
60
 50
90.0000000000000284
  0
ENDBLK
  5
8E63
  8
0
  0
BLOCK
  8
0
  2
*U4
 70
     1
 10
0.0
 20
0.0
 30
0.0
  3
*U4
  1

  0
TEXT
  5
8E65
  8
COTES
 10
15.3098436988138999
 20
28.9426696966095207
 30
0.0
 40
2.5
  1
45°
 50
292.6565070726136923
  0
ENDBLK
  5
8E67
  8
0
  0
ENDSEC
  0
SECTION
  2
ENTITIES
  0
TEXT
  5
8505
  8
REFER\U+00C8NCIA
 10
-192.3907520232280888
 20
-54.2748879040415204
 30
0.0
 40
5.0
  1
PSSNL5050T2509
  7
SIMPLEX
 72
     1
 11
-160.1288472613233012
 21
-54.2748879040415204
 31
0.0
  0
LINE
  5
8D73
  8
COS
 10
-23.9020063347236409
 20
62.9573030207673483
 30
0.0
 11
-37.0845712625368833
 21
75.9966130786439038
 31
0.0
  0
LINE
  5
8D74
  8
COS
 10
-41.0187825072276766
 20
75.9966130786439038
 30
0.0
 11
-41.0187825072276766
 21
45.7462428598788478
 31
0.0
  0
LINE
  5
8D75
  8
COS
 10
-37.0845712625368833
 20
75.9966130786439038
 30
0.0
 11
-41.0187825072276766
 21
75.9966130786439038
 31
0.0
  0
LINE
  5
8D76
  8
COS
 10
-41.0187825072276766
 20
45.7462428598788478
 30
0.0
 11
-41.6710177020626702
 21
21.9307879642525201
 31
0.0
  0
LINE
  5
8D77
  8
COS
 10
-41.6710177020626702
 20
21.9307879642525201
 30
0.0
 11
-40.65421722927681
 21
18.1360369386555895
 31
0.0
  0
LINE
  5
8D78
  8
COS
 10
-42.7604522580299999
 20
25.9966130786438008
 30
0.0
 11
-41.6710177020626702
 21
21.9307879642525201
 31
0.0
  0
LINE
  5
8D79
  8
COS
 10
-42.7604522580299999
 20
25.9966130786438008
 30
0.0
 11
-42.7604522580299999
 21
75.9966130786439038
 31
0.0
  0
LINE
  5
8D7A
  8
COS
 10
-42.7604522580299999
 20
75.9966130786439038
 30
0.0
 11
-41.0187825072276766
 21
75.9966130786439038
 31
0.0
  0
LINE
  5
8D7B
  8
COS
 10
-23.9020063347236409
 20
62.9573030207673483
 30
0.0
 11
-11.3425452296040703
 21
50.5358249806337696
 31
0.0
  0
LINE
  5
8D7C
  8
COS
 10
-13.1326846412668505
 20
16.9960566639059003
 30
0.0
 11
-40.65421722927681
 21
18.1360369386555895
 31
0.0
  0
LINE
  5
8D7D
  8
COS
 10
-37.0520401446485721
 20
75.9966130786439038
 30
0.0
 11
-37.0845712625368833
 21
75.9966130786439038
 31
0.0
  0
LINE
  5
8D7E
  8
COS
 10
-11.5135540185945597
 20
50.7356535590129809
 30
0.0
 11
-37.0520401446485721
 21
75.9966130786439038
 31
0.0
  0
LINE
  5
8D7F
  8
COS
 10
-11.3425452296040703
 20
50.5358249806337696
 30
0.0
 11
-11.3425452296040703
 21
49.9773786900090968
 31
0.0
  0
LINE
  5
8D80
  8
COS
 10
-11.3425452296040703
 20
49.9773786900090968
 30
0.0
 11
-26.318088433409681
 21
34.8373084150338599
 31
0.0
  0
POLYLINE
  5
8D81
  8
COS
 10
-25.0424461870831365
 20
29.0642013853381336
 30
0.0
 66
     1
 70
     8
  0
VERTEX
  8
COS
  5
8E80
 10
-25.0424
 20
29.0642
 30
0.00000
  70
    32
  0
VERTEX
  8
COS
  5
8E81
 10
-25.1099
 20
29.0575
 30
0.00000
  70
    32
  0
VERTEX
  8
COS
  5
8E82
 10
-25.1775
 20
29.0523
 30
0.00000
  70
    32
  0
VERTEX
  8
COS
  5
8E83
 10
-25.2452
 20
29.0487
 30
0.00000
  70
    32
  0
VERTEX
  8
COS
  5
8E84
 10
-25.3130
 20
29.0466
 30
0.00000
  70
    32
  0
VERTEX
  8
COS
  5
8E85
 10
-25.3807
 20
29.0460
 30
0.00000
  70
    32
  0
VERTEX
  8
COS
  5
8E86
 10
-25.4485
 20
29.0470
 30
0.00000
  70
    32
  0
VERTEX
  8
COS
  5
8E87
 10
-25.5161
 20
29.0495
 30
0.00000
  70
    32
  0
VERTEX
  8
COS
  5
8E88
 10
-25.5837
 20
29.0535
 30
0.00000
  70
    32
  0
VERTEX
  8
COS
  5
8E89
 10
-25.6512
 20
29.0591
 30
0.00000
  70
    32
  0
VERTEX
  8
COS
  5
8E8A
 10
-25.7185
 20
29.0662
 30
0.00000
  70
    32
  0
VERTEX
  8
COS
  5
8E8B
 10
-25.7856
 20
29.0749
 30
0.00000
  70
    32
  0
VERTEX
  8
COS
  5
8E8C
 10
-25.8524
 20
29.0851
 30
0.00000
  70
    32
  0
VERTEX
  8
COS
  5
8E8D
 10
-25.9190
 20
29.0967
 30
0.00000
  70
    32
  0
VERTEX
  8
COS
  5
8E8E
 10
-25.9853
 20
29.1099
 30
0.00000
  70
    32
  0
VERTEX
  8
COS
  5
8E8F
 10
-26.0513
 20
29.1246
 30
0.00000
  70
    32
  0
VERTEX
  8
COS
  5
8E90
 10
-26.1169
 20
29.1408
 30
0.00000
  70
    32
  0
VERTEX
  8
COS
  5
8E91
 10
-26.1821
 20
29.1585
 30
0.00000
  70
    32
  0
VERTEX
  8
COS
  5
8E92
 10
-26.2469
 20
29.1777
 30
0.00000
  70
    32
  0
VERTEX
  8
COS
  5
8E93
 10
-26.3112
 20
29.1983
 30
0.00000
  70
    32
  0
VERTEX
  8
COS
  5
8E94
 10
-26.3750
 20
29.2205
 30
0.00000
  70
    32
  0
VERTEX
  8
COS
  5
8E95
 10
-26.4383
 20
29.2440
 30
0.00000
  70
    32
  0
VERTEX
  8
COS
  5
8E96
 10
-26.5010
 20
29.2690
 30
0.00000
  70
    32
  0
VERTEX
  8
COS
  5
8E97
 10
-26.5631
 20
29.2954
 30
0.00000
  70
    32
  0
VERTEX
  8
COS
  5
8E98
 10
-26.6245
 20
29.3232
 30
0.00000
  70
    32
  0
VERTEX
  8
COS
  5
8E99
 10
-26.6853
 20
29.3524
 30
0.00000
  70
    32
  0
VERTEX
  8
COS
  5
8E9A
 10
-26.7454
 20
29.3830
 30
0.00000
  70
    32
  0
VERTEX
  8
COS
  5
8E9B
 10
-26.8048
 20
29.4150
 30
0.00000
  70
    32
  0
VERTEX
  8
COS
  5
8E9C
 10
-26.8635
 20
29.4483
 30
0.00000
  70
    32
  0
VERTEX
  8
COS
  5
8E9D
 10
-26.9213
 20
29.4830
 30
0.00000
  70
    32
  0
VERTEX
  8
COS
  5
8E9E
 10
-26.9783
 20
29.5189
 30
0.00000
  70
    32
  0
VERTEX
  8
COS
  5
8E9F
 10
-27.0345
 20
29.5562
 30
0.00000
  70
    32
  0
VERTEX
  8
COS
  5
8EA0
 10
-27.0898
 20
29.5947
 30
0.00000
  70
    32
  0
VERTEX
  8
COS
  5
8EA1
 10
-27.1442
 20
29.6345
 30
0.00000
  70
    32
  0
VERTEX
  8
COS
  5
8EA2
 10
-27.1977
 20
29.6755
 30
0.00000
  70
    32
  0
VERTEX
  8
COS
  5
8EA3
 10
-27.2502
 20
29.7177
 30
0.00000
  70
    32
  0
VERTEX
  8
COS
  5
8EA4
 10
-27.3017
 20
29.7611
 30
0.00000
  70
    32
  0
VERTEX
  8
COS
  5
8EA5
 10
-27.3523
 20
29.8057
 30
0.00000
  70
    32
  0
VERTEX
  8
COS
  5
8EA6
 10
-27.4017
 20
29.8515
 30
0.00000
  70
    32
  0
VERTEX
  8
COS
  5
8EA7
 10
-27.4502
 20
29.8983
 30
0.00000
  70
    32
  0
VERTEX
  8
COS
  5
8EA8
 10
-27.4975
 20
29.9463
 30
0.00000
  70
    32
  0
VERTEX
  8
COS
  5
8EA9
 10
-27.5437
 20
29.9953
 30
0.00000
  70
    32
  0
VERTEX
  8
COS
  5
8EAA
 10
-27.5888
 20
30.0454
 30
0.00000
  70
    32
  0
VERTEX
  8
COS
  5
8EAB
 10
-27.6327
 20
30.0965
 30
0.00000
  70
    32
  0
VERTEX
  8
COS
  5
8EAC
 10
-27.6754
 20
30.1487
 30
0.00000
  70
    32
  0
VERTEX
  8
COS
  5
8EAD
 10
-27.7170
 20
30.2017
 30
0.00000
  70
    32
  0
VERTEX
  8
COS
  5
8EAE
 10
-27.7573
 20
30.2557
 30
0.00000
  70
    32
  0
VERTEX
  8
COS
  5
8EAF
 10
-27.7963
 20
30.3107
 30
0.00000
  70
    32
  0
VERTEX
  8
COS
  5
8EB0
 10
-27.8341
 20
30.3665
 30
0.00000
  70
    32
  0
VERTEX
  8
COS
  5
8EB1
 10
-27.8706
 20
30.4232
 30
0.00000
  70
    32
  0
VERTEX
  8
COS
  5
8EB2
 10
-27.9058
 20
30.4807
 30
0.00000
  70
    32
  0
VERTEX
  8
COS
  5
8EB3
 10
-27.9397
 20
30.5390
 30
0.00000
  70
    32
  0
VERTEX
  8
COS
  5
8EB4
 10
-27.9722
 20
30.5981
 30
0.00000
  70
    32
  0
VERTEX
  8
COS
  5
8EB5
 10
-28.0034
 20
30.6579
 30
0.00000
  70
    32
  0
VERTEX
  8
COS
  5
8EB6
 10
-28.0332
 20
30.7184
 30
0.00000
  70
    32
  0
VERTEX
  8
COS
  5
8EB7
 10
-28.0616
 20
30.7796
 30
0.00000
  70
    32
  0
VERTEX
  8
COS
  5
8EB8
 10
-28.0886
 20
30.8414
 30
0.00000
  70
    32
  0
VERTEX
  8
COS
  5
8EB9
 10
-28.1142
 20
30.9039
 30
0.00000
  70
    32
  0
VERTEX
  8
COS
  5
8EBA
 10
-28.1383
 20
30.9669
 30
0.00000
  70
    32
  0
VERTEX
  8
COS
  5
8EBB
 10
-28.1610
 20
31.0305
 30
0.00000
  70
    32
  0
VERTEX
  8
COS
  5
8EBC
 10
-28.1823
 20
31.0946
 30
0.00000
  70
    32
  0
VERTEX
  8
COS
  5
8EBD
 10
-28.2021
 20
31.1592
 30
0.00000
  70
    32
  0
VERTEX
  8
COS
  5
8EBE
 10
-28.2204
 20
31.2242
 30
0.00000
  70
    32
  0
VERTEX
  8
COS
  5
8EBF
 10
-28.2372
 20
31.2897
 30
0.00000
  70
    32
  0
VERTEX
  8
COS
  5
8EC0
 10
-28.2526
 20
31.3555
 30
0.00000
  70
    32
  0
VERTEX
  8
COS
  5
8EC1
 10
-28.2664
 20
31.4217
 30
0.00000
  70
    32
  0
VERTEX
  8
COS
  5
8EC2
 10
-28.2787
 20
31.4881
 30
0.00000
  70
    32
  0
VERTEX
  8
COS
  5
8EC3
 10
-28.2895
 20
31.5549
 30
0.00000
  70
    32
  0
VERTEX
  8
COS
  5
8EC4
 10
-28.2988
 20
31.6219
 30
0.00000
  70
    32
  0
VERTEX
  8
COS
  5
8EC5
 10
-28.3066
 20
31.6891
 30
0.00000
  70
    32
  0
VERTEX
  8
COS
  5
8EC6
 10
-28.3128
 20
31.7565
 30
0.00000
  70
    32
  0
VERTEX
  8
COS
  5
8EC7
 10
-28.3175
 20
31.8241
 30
0.00000
  70
    32
  0
VERTEX
  8
COS
  5
8EC8
 10
-28.3207
 20
31.8917
 30
0.00000
  70
    32
  0
VERTEX
  8
COS
  5
8EC9
 10
-28.3223
 20
31.9594
 30
0.00000
  70
    32
  0
VERTEX
  8
COS
  5
8ECA
 10
-28.3224
 20
32.0272
 30
0.00000
  70
    32
  0
VERTEX
  8
COS
  5
8ECB
 10
-28.3209
 20
32.0949
 30
0.00000
  70
    32
  0
VERTEX
  8
COS
  5
8ECC
 10
-28.3179
 20
32.1627
 30
0.00000
  70
    32
  0
VERTEX
  8
COS
  5
8ECD
 10
-28.3134
 20
32.2303
 30
0.00000
  70
    32
  0
VERTEX
  8
COS
  5
8ECE
 10
-28.3073
 20
32.2979
 30
0.00000
  70
    32
  0
VERTEX
  8
COS
  5
8ECF
 10
-28.2997
 20
32.3653
 30
0.00000
  70
    32
  0
VERTEX
  8
COS
  5
8ED0
 10
-28.2906
 20
32.4325
 30
0.00000
  70
    32
  0
VERTEX
  8
COS
  5
8ED1
 10
-28.2800
 20
32.4995
 30
0.00000
  70
    32
  0
VERTEX
  8
COS
  5
8ED2
 10
-28.2678
 20
32.5663
 30
0.00000
  70
    32
  0
VERTEX
  8
COS
  5
8ED3
 10
-28.2541
 20
32.6328
 30
0.00000
  70
    32
  0
VERTEX
  8
COS
  5
8ED4
 10
-28.2390
 20
32.6990
 30
0.00000
  70
    32
  0
VERTEX
  8
COS
  5
8ED5
 10
-28.2223
 20
32.7649
 30
0.00000
  70
    32
  0
VERTEX
  8
COS
  5
8ED6
 10
-28.2041
 20
32.8304
 30
0.00000
  70
    32
  0
VERTEX
  8
COS
  5
8ED7
 10
-28.1845
 20
32.8954
 30
0.00000
  70
    32
  0
VERTEX
  8
COS
  5
8ED8
 10
-28.1634
 20
32.9600
 30
0.00000
  70
    32
  0
VERTEX
  8
COS
  5
8ED9
 10
-28.1408
 20
33.0242
 30
0.00000
  70
    32
  0
VERTEX
  8
COS
  5
8EDA
 10
-28.1168
 20
33.0878
 30
0.00000
  70
    32
  0
VERTEX
  8
COS
  5
8EDB
 10
-28.0914
 20
33.1509
 30
0.00000
  70
    32
  0
VERTEX
  8
COS
  5
8EDC
 10
-28.0646
 20
33.2134
 30
0.00000
  70
    32
  0
VERTEX
  8
COS
  5
8EDD
 10
-28.0363
 20
33.2753
 30
0.00000
  70
    32
  0
VERTEX
  8
COS
  5
8EDE
 10
-28.0066
 20
33.3365
 30
0.00000
  70
    32
  0
VERTEX
  8
COS
  5
8EDF
 10
-27.9756
 20
33.3971
 30
0.00000
  70
    32
  0
VERTEX
  8
COS
  5
8EE0
 10
-27.9432
 20
33.4569
 30
0.00000
  70
    32
  0
VERTEX
  8
COS
  5
8EE1
 10
-27.9095
 20
33.5161
 30
0.00000
  70
    32
  0
VERTEX
  8
COS
  5
8EE2
 10
-27.8745
 20
33.5744
 30
0.00000
  70
    32
  0
VERTEX
  8
COS
  5
8EE3
 10
-27.8381
 20
33.6320
 30
0.00000
  70
    32
  0
VERTEX
  8
COS
  5
8EE4
 10
-27.8004
 20
33.6887
 30
0.00000
  70
    32
  0
VERTEX
  8
COS
  5
8EE5
 10
-27.7615
 20
33.7446
 30
0.00000
  70
    32
  0
VERTEX
  8
COS
  5
8EE6
 10
-27.7213
 20
33.7996
 30
0.00000
  70
    32
  0
VERTEX
  8
COS
  5
8EE7
 10
-27.6800
 20
33.8537
 30
0.00000
  70
    32
  0
VERTEX
  8
COS
  5
8EE8
 10
-27.6373
 20
33.9069
 30
0.00000
  70
    32
  0
VERTEX
  8
COS
  5
8EE9
 10
-27.5936
 20
33.9591
 30
0.00000
  70
    32
  0
VERTEX
  8
COS
  5
8EEA
 10
-27.5486
 20
34.0102
 30
0.00000
  70
    32
  0
VERTEX
  8
COS
  5
8EEB
 10
-27.5025
 20
34.0604
 30
0.00000
  70
    32
  0
VERTEX
  8
COS
  5
8EEC
 10
-27.4553
 20
34.1095
 30
0.00000
  70
    32
  0
VERTEX
  8
COS
  5
8EED
 10
-27.4070
 20
34.1576
 30
0.00000
  70
    32
  0
VERTEX
  8
COS
  5
8EEE
 10
-27.3576
 20
34.2045
 30
0.00000
  70
    32
  0
VERTEX
  8
COS
  5
8EEF
 10
-27.3072
 20
34.2503
 30
0.00000
  70
    32
  0
VERTEX
  8
COS
  5
8EF0
 10
-27.2558
 20
34.2950
 30
0.00000
  70
    32
  0
VERTEX
  8
COS
  5
8EF1
 10
-27.2034
 20
34.3385
 30
0.00000
  70
    32
  0
VERTEX
  8
COS
  5
8EF2
 10
-27.1500
 20
34.3809
 30
0.00000
  70
    32
  0
VERTEX
  8
COS
  5
8EF3
 10
-27.0957
 20
34.4220
 30
0.00000
  70
    32
  0
VERTEX
  8
COS
  5
8EF4
 10
-27.0405
 20
34.4618
 30
0.00000
  70
    32
  0
VERTEX
  8
COS
  5
8EF5
 10
-26.9844
 20
34.5005
 30
0.00000
  70
    32
  0
VERTEX
  8
COS
  5
8EF6
 10
-26.9275
 20
34.5378
 30
0.00000
  70
    32
  0
VERTEX
  8
COS
  5
8EF7
 10
-26.8697
 20
34.5739
 30
0.00000
  70
    32
  0
VERTEX
  8
COS
  5
8EF8
 10
-26.8112
 20
34.6086
 30
0.00000
  70
    32
  0
VERTEX
  8
COS
  5
8EF9
 10
-26.7519
 20
34.6420
 30
0.00000
  70
    32
  0
VERTEX
  8
COS
  5
8EFA
 10
-26.6918
 20
34.6741
 30
0.00000
  70
    32
  0
VERTEX
  8
COS
  5
8EFB
 10
-26.6311
 20
34.7048
 30
0.00000
  70
    32
  0
VERTEX
  8
COS
  5
8EFC
 10
-26.5697
 20
34.7341
 30
0.00000
  70
    32
  0
VERTEX
  8
COS
  5
8EFD
 10
-26.5077
 20
34.7620
 30
0.00000
  70
    32
  0
VERTEX
  8
COS
  5
8EFE
 10
-26.4450
 20
34.7886
 30
0.00000
  70
    32
  0
VERTEX
  8
COS
  5
8EFF
 10
-26.3818
 20
34.8136
 30
0.00000
  70
    32
  0
VERTEX
  8
COS
  5
8F00
 10
-26.3181
 20
34.8373
 30
0.00000
  70
    32
  0
SEQEND
  8
COS
  5
8F01
  0
LINE
  5
8D82
  8
COS
 10
-25.0424461870833994
 20
29.0642013853381798
 30
0.0
 11
-13.1326846412668505
 21
17.2852850555377984
 31
0.0
  0
LINE
  5
8D83
  8
COS
 10
-13.1326846412668505
 20
17.2852850555377984
 30
0.0
 11
-13.1326846412668505
 21
16.9960566639059003
 31
0.0
  0
LINE
  5
8D84
  8
COS
 10
-12.5041509939775306
 20
51.6938063994051333
 30
0.0
 11
-11.5403769217236292
 21
50.7406207193863779
 31
0.0
  0
LINE
  5
8D85
  8
COS
 10
-11.8826204838564404
 20
51.0756806984502703
 30
0.0
 11
-12.5041509939775306
 21
51.6938063994051333
 31
0.0
  0
LINE
  5
8D86
  8
COS
 10
-12.3794675852191194
 20
51.5670669670898789
 30
0.0
 11
-11.9353327610102102
 21
51.1278115786941783
 31
0.0
  0
LINE
  5
8D87
  8
COS
 10
-11.3425452296040703
 20
50.5358249806337696
 30
0.0
 11
-12.3794675852191194
 21
51.5670669670898789
 31
0.0
  0
LINE
  5
8D89
  8
COS
 10
-13.1954017192274495
 20
17.3476585627831206
 30
0.0
 11
-13.1954017192274495
 21
17.9098996405868114
 31
0.0
  0
POLYLINE
  5
8D92
  8
COS
 10
-26.1146041761092818
 20
45.414517114064374
 30
0.0
 66
     1
 70
     8
  0
VERTEX
  8
COS
  5
8F02
 10
-26.1146
 20
45.4145
 30
0.00000
  70
    32
  0
VERTEX
  8
COS
  5
8F03
 10
-25.9116
 20
45.2023
 30
0.00000
  70
    32
  0
VERTEX
  8
COS
  5
8F04
 10
-25.7193
 20
44.9803
 30
0.00000
  70
    32
  0
VERTEX
  8
COS
  5
8F05
 10
-25.5382
 20
44.7489
 30
0.00000
  70
    32
  0
VERTEX
  8
COS
  5
8F06
 10
-25.3688
 20
44.5089
 30
0.00000
  70
    32
  0
VERTEX
  8
COS
  5
8F07
 10
-25.2115
 20
44.2607
 30
0.00000
  70
    32
  0
VERTEX
  8
COS
  5
8F08
 10
-25.0667
 20
44.0049
 30
0.00000
  70
    32
  0
VERTEX
  8
COS
  5
8F09
 10
-24.9346
 20
43.7422
 30
0.00000
  70
    32
  0
VERTEX
  8
COS
  5
8F0A
 10
-24.8157
 20
43.4732
 30
0.00000
  70
    32
  0
VERTEX
  8
COS
  5
8F0B
 10
-24.7102
 20
43.1985
 30
0.00000
  70
    32
  0
VERTEX
  8
COS
  5
8F0C
 10
-24.6183
 20
42.9189
 30
0.00000
  70
    32
  0
VERTEX
  8
COS
  5
8F0D
 10
-24.5403
 20
42.6349
 30
0.00000
  70
    32
  0
VERTEX
  8
COS
  5
8F0E
 10
-24.4764
 20
42.3473
 30
0.00000
  70
    32
  0
VERTEX
  8
COS
  5
8F0F
 10
-24.4267
 20
42.0567
 30
0.00000
  70
    32
  0
VERTEX
  8
COS
  5
8F10
 10
-24.3914
 20
41.7639
 30
0.00000
  70
    32
  0
VERTEX
  8
COS
  5
8F11
 10
-24.3704
 20
41.4695
 30
0.00000
  70
    32
  0
VERTEX
  8
COS
  5
8F12
 10
-24.3640
 20
41.1744
 30
0.00000
  70
    32
  0
VERTEX
  8
COS
  5
8F13
 10
-24.3721
 20
40.8791
 30
0.00000
  70
    32
  0
VERTEX
  8
COS
  5
8F14
 10
-24.3946
 20
40.5844
 30
0.00000
  70
    32
  0
VERTEX
  8
COS
  5
8F15
 10
-24.4315
 20
40.2909
 30
0.00000
  70
    32
  0
VERTEX
  8
COS
  5
8F16
 10
-24.4828
 20
39.9996
 30
0.00000
  70
    32
  0
VERTEX
  8
COS
  5
8F17
 10
-24.5483
 20
39.7109
 30
0.00000
  70
    32
  0
VERTEX
  8
COS
  5
8F18
 10
-24.6279
 20
39.4256
 30
0.00000
  70
    32
  0
VERTEX
  8
COS
  5
8F19
 10
-24.7213
 20
39.1444
 30
0.00000
  70
    32
  0
VERTEX
  8
COS
  5
8F1A
 10
-24.8283
 20
38.8680
 30
0.00000
  70
    32
  0
VERTEX
  8
COS
  5
8F1B
 10
-24.9487
 20
38.5970
 30
0.00000
  70
    32
  0
VERTEX
  8
COS
  5
8F1C
 10
-25.0822
 20
38.3321
 30
0.00000
  70
    32
  0
VERTEX
  8
COS
  5
8F1D
 10
-25.2285
 20
38.0739
 30
0.00000
  70
    32
  0
VERTEX
  8
COS
  5
8F1E
 10
-25.3872
 20
37.8231
 30
0.00000
  70
    32
  0
VERTEX
  8
COS
  5
8F1F
 10
-25.5579
 20
37.5803
 30
0.00000
  70
    32
  0
VERTEX
  8
COS
  5
8F20
 10
-25.7402
 20
37.3460
 30
0.00000
  70
    32
  0
VERTEX
  8
COS
  5
8F21
 10
-25.9338
 20
37.1207
 30
0.00000
  70
    32
  0
VERTEX
  8
COS
  5
8F22
 10
-26.1380
 20
36.9052
 30
0.00000
  70
    32
  0
VERTEX
  8
COS
  5
8F23
 10
-26.3524
 20
36.6998
 30
0.00000
  70
    32
  0
VERTEX
  8
COS
  5
8F24
 10
-26.5766
 20
36.5050
 30
0.00000
  70
    32
  0
VERTEX
  8
COS
  5
8F25
 10
-26.8099
 20
36.3214
 30
0.00000
  70
    32
  0
VERTEX
  8
COS
  5
8F26
 10
-27.0518
 20
36.1494
 30
0.00000
  70
    32
  0
VERTEX
  8
COS
  5
8F27
 10
-27.3017
 20
35.9893
 30
0.00000
  70
    32
  0
VERTEX
  8
COS
  5
8F28
 10
-27.5591
 20
35.8416
 30
0.00000
  70
    32
  0
VERTEX
  8
COS
  5
8F29
 10
-27.8232
 20
35.7067
 30
0.00000
  70
    32
  0
VERTEX
  8
COS
  5
8F2A
 10
-28.0936
 20
35.5848
 30
0.00000
  70
    32
  0
VERTEX
  8
COS
  5
8F2B
 10
-28.3694
 20
35.4762
 30
0.00000
  70
    32
  0
VERTEX
  8
COS
  5
8F2C
 10
-28.6501
 20
35.3813
 30
0.00000
  70
    32
  0
VERTEX
  8
COS
  5
8F2D
 10
-28.9349
 20
35.3001
 30
0.00000
  70
    32
  0
VERTEX
  8
COS
  5
8F2E
 10
-29.2232
 20
35.2331
 30
0.00000
  70
    32
  0
VERTEX
  8
COS
  5
8F2F
 10
-29.5143
 20
35.1802
 30
0.00000
  70
    32
  0
VERTEX
  8
COS
  5
8F30
 10
-29.8075
 20
35.1416
 30
0.00000
  70
    32
  0
VERTEX
  8
COS
  5
8F31
 10
-30.1021
 20
35.1175
 30
0.00000
  70
    32
  0
VERTEX
  8
COS
  5
8F32
 10
-30.3974
 20
35.1078
 30
0.00000
  70
    32
  0
VERTEX
  8
COS
  5
8F33
 10
-30.6926
 20
35.1126
 30
0.00000
  70
    32
  0
VERTEX
  8
COS
  5
8F34
 10
-30.9870
 20
35.1319
 30
0.00000
  70
    32
  0
VERTEX
  8
COS
  5
8F35
 10
-31.2800
 20
35.1656
 30
0.00000
  70
    32
  0
VERTEX
  8
COS
  5
8F36
 10
-31.5709
 20
35.2137
 30
0.00000
  70
    32
  0
VERTEX
  8
COS
  5
8F37
 10
-31.8588
 20
35.2760
 30
0.00000
  70
    32
  0
VERTEX
  8
COS
  5
8F38
 10
-32.1432
 20
35.3525
 30
0.00000
  70
    32
  0
VERTEX
  8
COS
  5
8F39
 10
-32.4234
 20
35.4428
 30
0.00000
  70
    32
  0
VERTEX
  8
COS
  5
8F3A
 10
-32.6986
 20
35.5468
 30
0.00000
  70
    32
  0
VERTEX
  8
COS
  5
8F3B
 10
-32.9683
 20
35.6643
 30
0.00000
  70
    32
  0
VERTEX
  8
COS
  5
8F3C
 10
-33.2317
 20
35.7949
 30
0.00000
  70
    32
  0
VERTEX
  8
COS
  5
8F3D
 10
-33.4883
 20
35.9383
 30
0.00000
  70
    32
  0
VERTEX
  8
COS
  5
8F3E
 10
-33.7373
 20
36.0943
 30
0.00000
  70
    32
  0
VERTEX
  8
COS
  5
8F3F
 10
-33.9783
 20
36.2623
 30
0.00000
  70
    32
  0
VERTEX
  8
COS
  5
8F40
 10
-34.2106
 20
36.4421
 30
0.00000
  70
    32
  0
VERTEX
  8
COS
  5
8F41
 10
-34.4337
 20
36.6332
 30
0.00000
  70
    32
  0
VERTEX
  8
COS
  5
8F42
 10
-34.6471
 20
36.8351
 30
0.00000
  70
    32
  0
VERTEX
  8
COS
  5
8F43
 10
-34.8501
 20
37.0473
 30
0.00000
  70
    32
  0
VERTEX
  8
COS
  5
8F44
 10
-35.0424
 20
37.2693
 30
0.00000
  70
    32
  0
VERTEX
  8
COS
  5
8F45
 10
-35.2234
 20
37.5006
 30
0.00000
  70
    32
  0
VERTEX
  8
COS
  5
8F46
 10
-35.3928
 20
37.7407
 30
0.00000
  70
    32
  0
VERTEX
  8
COS
  5
8F47
 10
-35.5501
 20
37.9889
 30
0.00000
  70
    32
  0
VERTEX
  8
COS
  5
8F48
 10
-35.6950
 20
38.2447
 30
0.00000
  70
    32
  0
VERTEX
  8
COS
  5
8F49
 10
-35.8271
 20
38.5074
 30
0.00000
  70
    32
  0
VERTEX
  8
COS
  5
8F4A
 10
-35.9460
 20
38.7764
 30
0.00000
  70
    32
  0
VERTEX
  8
COS
  5
8F4B
 10
-36.0515
 20
39.0510
 30
0.00000
  70
    32
  0
VERTEX
  8
COS
  5
8F4C
 10
-36.1434
 20
39.3307
 30
0.00000
  70
    32
  0
VERTEX
  8
COS
  5
8F4D
 10
-36.2214
 20
39.6147
 30
0.00000
  70
    32
  0
VERTEX
  8
COS
  5
8F4E
 10
-36.2853
 20
39.9023
 30
0.00000
  70
    32
  0
VERTEX
  8
COS
  5
8F4F
 10
-36.3350
 20
40.1929
 30
0.00000
  70
    32
  0
VERTEX
  8
COS
  5
8F50
 10
-36.3703
 20
40.4857
 30
0.00000
  70
    32
  0
VERTEX
  8
COS
  5
8F51
 10
-36.3912
 20
40.7800
 30
0.00000
  70
    32
  0
VERTEX
  8
COS
  5
8F52
 10
-36.3977
 20
41.0752
 30
0.00000
  70
    32
  0
VERTEX
  8
COS
  5
8F53
 10
-36.3896
 20
41.3705
 30
0.00000
  70
    32
  0
VERTEX
  8
COS
  5
8F54
 10
-36.3671
 20
41.6652
 30
0.00000
  70
    32
  0
VERTEX
  8
COS
  5
8F55
 10
-36.3301
 20
41.9586
 30
0.00000
  70
    32
  0
VERTEX
  8
COS
  5
8F56
 10
-36.2788
 20
42.2500
 30
0.00000
  70
    32
  0
VERTEX
  8
COS
  5
8F57
 10
-36.2133
 20
42.5387
 30
0.00000
  70
    32
  0
VERTEX
  8
COS
  5
8F58
 10
-36.1338
 20
42.8240
 30
0.00000
  70
    32
  0
VERTEX
  8
COS
  5
8F59
 10
-36.0404
 20
43.1052
 30
0.00000
  70
    32
  0
VERTEX
  8
COS
  5
8F5A
 10
-35.9333
 20
43.3816
 30
0.00000
  70
    32
  0
VERTEX
  8
COS
  5
8F5B
 10
-35.8129
 20
43.6526
 30
0.00000
  70
    32
  0
VERTEX
  8
COS
  5
8F5C
 10
-35.6794
 20
43.9175
 30
0.00000
  70
    32
  0
VERTEX
  8
COS
  5
8F5D
 10
-35.5331
 20
44.1756
 30
0.00000
  70
    32
  0
VERTEX
  8
COS
  5
8F5E
 10
-35.3745
 20
44.4264
 30
0.00000
  70
    32
  0
VERTEX
  8
COS
  5
8F5F
 10
-35.2038
 20
44.6693
 30
0.00000
  70
    32
  0
VERTEX
  8
COS
  5
8F60
 10
-35.0214
 20
44.9036
 30
0.00000
  70
    32
  0
VERTEX
  8
COS
  5
8F61
 10
-34.8279
 20
45.1288
 30
0.00000
  70
    32
  0
VERTEX
  8
COS
  5
8F62
 10
-34.6237
 20
45.3444
 30
0.00000
  70
    32
  0
VERTEX
  8
COS
  5
8F63
 10
-34.4092
 20
45.5498
 30
0.00000
  70
    32
  0
VERTEX
  8
COS
  5
8F64
 10
-34.1851
 20
45.7446
 30
0.00000
  70
    32
  0
VERTEX
  8
COS
  5
8F65
 10
-33.9518
 20
45.9282
 30
0.00000
  70
    32
  0
VERTEX
  8
COS
  5
8F66
 10
-33.7099
 20
46.1002
 30
0.00000
  70
    32
  0
VERTEX
  8
COS
  5
8F67
 10
-33.4599
 20
46.2603
 30
0.00000
  70
    32
  0
VERTEX
  8
COS
  5
8F68
 10
-33.2026
 20
46.4080
 30
0.00000
  70
    32
  0
VERTEX
  8
COS
  5
8F69
 10
-32.9384
 20
46.5429
 30
0.00000
  70
    32
  0
VERTEX
  8
COS
  5
8F6A
 10
-32.6681
 20
46.6648
 30
0.00000
  70
    32
  0
VERTEX
  8
COS
  5
8F6B
 10
-32.3923
 20
46.7734
 30
0.00000
  70
    32
  0
VERTEX
  8
COS
  5
8F6C
 10
-32.1116
 20
46.8683
 30
0.00000
  70
    32
  0
VERTEX
  8
COS
  5
8F6D
 10
-31.8268
 20
46.9494
 30
0.00000
  70
    32
  0
VERTEX
  8
COS
  5
8F6E
 10
-31.5385
 20
47.0165
 30
0.00000
  70
    32
  0
VERTEX
  8
COS
  5
8F6F
 10
-31.2473
 20
47.0694
 30
0.00000
  70
    32
  0
VERTEX
  8
COS
  5
8F70
 10
-30.9541
 20
47.1080
 30
0.00000
  70
    32
  0
VERTEX
  8
COS
  5
8F71
 10
-30.6596
 20
47.1321
 30
0.00000
  70
    32
  0
VERTEX
  8
COS
  5
8F72
 10
-30.3643
 20
47.1418
 30
0.00000
  70
    32
  0
VERTEX
  8
COS
  5
8F73
 10
-30.0691
 20
47.1370
 30
0.00000
  70
    32
  0
VERTEX
  8
COS
  5
8F74
 10
-29.7746
 20
47.1177
 30
0.00000
  70
    32
  0
VERTEX
  8
COS
  5
8F75
 10
-29.4816
 20
47.0840
 30
0.00000
  70
    32
  0
VERTEX
  8
COS
  5
8F76
 10
-29.1908
 20
47.0359
 30
0.00000
  70
    32
  0
VERTEX
  8
COS
  5
8F77
 10
-28.9028
 20
46.9735
 30
0.00000
  70
    32
  0
VERTEX
  8
COS
  5
8F78
 10
-28.6184
 20
46.8971
 30
0.00000
  70
    32
  0
VERTEX
  8
COS
  5
8F79
 10
-28.3383
 20
46.8068
 30
0.00000
  70
    32
  0
VERTEX
  8
COS
  5
8F7A
 10
-28.0630
 20
46.7028
 30
0.00000
  70
    32
  0
VERTEX
  8
COS
  5
8F7B
 10
-27.7934
 20
46.5853
 30
0.00000
  70
    32
  0
VERTEX
  8
COS
  5
8F7C
 10
-27.5299
 20
46.4547
 30
0.00000
  70
    32
  0
VERTEX
  8
COS
  5
8F7D
 10
-27.2734
 20
46.3112
 30
0.00000
  70
    32
  0
VERTEX
  8
COS
  5
8F7E
 10
-27.0243
 20
46.1553
 30
0.00000
  70
    32
  0
VERTEX
  8
COS
  5
8F7F
 10
-26.7833
 20
45.9872
 30
0.00000
  70
    32
  0
VERTEX
  8
COS
  5
8F80
 10
-26.5510
 20
45.8075
 30
0.00000
  70
    32
  0
VERTEX
  8
COS
  5
8F81
 10
-26.3279
 20
45.6164
 30
0.00000
  70
    32
  0
VERTEX
  8
COS
  5
8F82
 10
-26.1146
 20
45.4145
 30
0.00000
  70
    32
  0
SEQEND
  8
COS
  5
8F83
  0
LINE
  5
8D94
  8
COS
 10
-11.9353327610102102
 20
51.1278115786941783
 30
0.0
 11
-11.8826204838564404
 21
51.0756806984502703
 31
0.0
  0
LINE
  5
8D95
  8
COS
 10
-11.8826311523058603
 20
51.072952256140951
 30
0.0
 11
-11.8826204838564404
 21
51.0756806984502703
 31
0.0
  0
LINE
  5
8D96
  8
COS
 10
-11.9353327610102102
 20
51.1278115786941783
 30
0.0
 11
-11.9365526107612805
 21
51.1265783272050385
 31
0.0
  0
LINE
  5
8D97
  8
COS
 10
-309.2604522580299999
 20
75.9966130786438896
 30
0.0
 11
-42.7604522580299999
 21
75.9966130786439038
 31
0.0
  0
LINE
  5
8D98
  8
COS
 10
-309.2604522580299999
 20
25.996613078643751
 30
0.0
 11
-309.2604522580299999
 21
75.9966130786438896
 31
0.0
  0
LINE
  5
8D99
  8
COS
 10
-309.2604522580299999
 20
25.996613078643751
 30
0.0
 11
-42.7604522580299999
 21
25.9966130786438008
 31
0.0
  0
POLYLINE
  5
8DA1
  8
COS
 10
-6.5880508582202602
 20
36.3398906417343994
 30
0.0
 66
     1
 70
     8
  0
VERTEX
  8
COS
  5
8F84
 10
-6.58805
 20
36.3399
 30
0.00000
  70
    32
  0
VERTEX
  8
COS
  5
8F85
 10
-6.41856
 20
36.1628
 30
0.00000
  70
    32
  0
VERTEX
  8
COS
  5
8F86
 10
-6.25806
 20
35.9774
 30
0.00000
  70
    32
  0
VERTEX
  8
COS
  5
8F87
 10
-6.10694
 20
35.7843
 30
0.00000
  70
    32
  0
VERTEX
  8
COS
  5
8F88
 10
-5.96555
 20
35.5839
 30
0.00000
  70
    32
  0
VERTEX
  8
COS
  5
8F89
 10
-5.83424
 20
35.3768
 30
0.00000
  70
    32
  0
VERTEX
  8
COS
  5
8F8A
 10
-5.71333
 20
35.1633
 30
0.00000
  70
    32
  0
VERTEX
  8
COS
  5
8F8B
 10
-5.60310
 20
34.9440
 30
0.00000
  70
    32
  0
VERTEX
  8
COS
  5
8F8C
 10
-5.50382
 20
34.7195
 30
0.00000
  70
    32
  0
VERTEX
  8
COS
  5
8F8D
 10
-5.41574
 20
34.4902
 30
0.00000
  70
    32
  0
VERTEX
  8
COS
  5
8F8E
 10
-5.33906
 20
34.2568
 30
0.00000
  70
    32
  0
VERTEX
  8
COS
  5
8F8F
 10
-5.27396
 20
34.0197
 30
0.00000
  70
    32
  0
VERTEX
  8
COS
  5
8F90
 10
-5.22061
 20
33.7796
 30
0.00000
  70
    32
  0
VERTEX
  8
COS
  5
8F91
 10
-5.17914
 20
33.5371
 30
0.00000
  70
    32
  0
VERTEX
  8
COS
  5
8F92
 10
-5.14963
 20
33.2927
 30
0.00000
  70
    32
  0
VERTEX
  8
COS
  5
8F93
 10
-5.13218
 20
33.0470
 30
0.00000
  70
    32
  0
VERTEX
  8
COS
  5
8F94
 10
-5.12680
 20
32.8006
 30
0.00000
  70
    32
  0
VERTEX
  8
COS
  5
8F95
 10
-5.13353
 20
32.5541
 30
0.00000
  70
    32
  0
VERTEX
  8
COS
  5
8F96
 10
-5.15234
 20
32.3081
 30
0.00000
  70
    32
  0
VERTEX
  8
COS
  5
8F97
 10
-5.18319
 20
32.0632
 30
0.00000
  70
    32
  0
VERTEX
  8
COS
  5
8F98
 10
-5.22600
 20
31.8200
 30
0.00000
  70
    32
  0
VERTEX
  8
COS
  5
8F99
 10
-5.28067
 20
31.5790
 30
0.00000
  70
    32
  0
VERTEX
  8
COS
  5
8F9A
 10
-5.34707
 20
31.3409
 30
0.00000
  70
    32
  0
VERTEX
  8
COS
  5
8F9B
 10
-5.42503
 20
31.1062
 30
0.00000
  70
    32
  0
VERTEX
  8
COS
  5
8F9C
 10
-5.51438
 20
30.8754
 30
0.00000
  70
    32
  0
VERTEX
  8
COS
  5
8F9D
 10
-5.61490
 20
30.6492
 30
0.00000
  70
    32
  0
VERTEX
  8
COS
  5
8F9E
 10
-5.72633
 20
30.4281
 30
0.00000
  70
    32
  0
VERTEX
  8
COS
  5
8F9F
 10
-5.84843
 20
30.2126
 30
0.00000
  70
    32
  0
VERTEX
  8
COS
  5
8FA0
 10
-5.98088
 20
30.0033
 30
0.00000
  70
    32
  0
VERTEX
  8
COS
  5
8FA1
 10
-6.12337
 20
29.8006
 30
0.00000
  70
    32
  0
VERTEX
  8
COS
  5
8FA2
 10
-6.27557
 20
29.6050
 30
0.00000
  70
    32
  0
VERTEX
  8
COS
  5
8FA3
 10
-6.43709
 20
29.4170
 30
0.00000
  70
    32
  0
VERTEX
  8
COS
  5
8FA4
 10
-6.60756
 20
29.2370
 30
0.00000
  70
    32
  0
VERTEX
  8
COS
  5
8FA5
 10
-6.78656
 20
29.0656
 30
0.00000
  70
    32
  0
VERTEX
  8
COS
  5
8FA6
 10
-6.97366
 20
28.9030
 30
0.00000
  70
    32
  0
VERTEX
  8
COS
  5
8FA7
 10
-7.16841
 20
28.7498
 30
0.00000
  70
    32
  0
VERTEX
  8
COS
  5
8FA8
 10
-7.37034
 20
28.6062
 30
0.00000
  70
    32
  0
VERTEX
  8
COS
  5
8FA9
 10
-7.57896
 20
28.4726
 30
0.00000
  70
    32
  0
VERTEX
  8
COS
  5
8FAA
 10
-7.79378
 20
28.3493
 30
0.00000
  70
    32
  0
VERTEX
  8
COS
  5
8FAB
 10
-8.01427
 20
28.2366
 30
0.00000
  70
    32
  0
VERTEX
  8
COS
  5
8FAC
 10
-8.23991
 20
28.1349
 30
0.00000
  70
    32
  0
VERTEX
  8
COS
  5
8FAD
 10
-8.47014
 20
28.0443
 30
0.00000
  70
    32
  0
VERTEX
  8
COS
  5
8FAE
 10
-8.70442
 20
27.9650
 30
0.00000
  70
    32
  0
VERTEX
  8
COS
  5
8FAF
 10
-8.94218
 20
27.8973
 30
0.00000
  70
    32
  0
VERTEX
  8
COS
  5
8FB0
 10
-9.18284
 20
27.8413
 30
0.00000
  70
    32
  0
VERTEX
  8
COS
  5
8FB1
 10
-9.42584
 20
27.7972
 30
0.00000
  70
    32
  0
VERTEX
  8
COS
  5
8FB2
 10
-9.67057
 20
27.7650
 30
0.00000
  70
    32
  0
VERTEX
  8
COS
  5
8FB3
 10
-9.91646
 20
27.7448
 30
0.00000
  70
    32
  0
VERTEX
  8
COS
  5
8FB4
 10
-10.1629
 20
27.7367
 30
0.00000
  70
    32
  0
VERTEX
  8
COS
  5
8FB5
 10
-10.4093
 20
27.7408
 30
0.00000
  70
    32
  0
VERTEX
  8
COS
  5
8FB6
 10
-10.6551
 20
27.7569
 30
0.00000
  70
    32
  0
VERTEX
  8
COS
  5
8FB7
 10
-10.8997
 20
27.7850
 30
0.00000
  70
    32
  0
VERTEX
  8
COS
  5
8FB8
 10
-11.1425
 20
27.8252
 30
0.00000
  70
    32
  0
VERTEX
  8
COS
  5
8FB9
 10
-11.3828
 20
27.8772
 30
0.00000
  70
    32
  0
VERTEX
  8
COS
  5
8FBA
 10
-11.6202
 20
27.9410
 30
0.00000
  70
    32
  0
VERTEX
  8
COS
  5
8FBB
 10
-11.8541
 20
28.0164
 30
0.00000
  70
    32
  0
VERTEX
  8
COS
  5
8FBC
 10
-12.0838
 20
28.1032
 30
0.00000
  70
    32
  0
VERTEX
  8
COS
  5
8FBD
 10
-12.3089
 20
28.2013
 30
0.00000
  70
    32
  0
VERTEX
  8
COS
  5
8FBE
 10
-12.5288
 20
28.3103
 30
0.00000
  70
    32
  0
VERTEX
  8
COS
  5
8FBF
 10
-12.7429
 20
28.4300
 30
0.00000
  70
    32
  0
VERTEX
  8
COS
  5
8FC0
 10
-12.9508
 20
28.5602
 30
0.00000
  70
    32
  0
VERTEX
  8
COS
  5
8FC1
 10
-13.1520
 20
28.7005
 30
0.00000
  70
    32
  0
VERTEX
  8
COS
  5
8FC2
 10
-13.3459
 20
28.8505
 30
0.00000
  70
    32
  0
VERTEX
  8
COS
  5
8FC3
 10
-13.5321
 20
29.0100
 30
0.00000
  70
    32
  0
VERTEX
  8
COS
  5
8FC4
 10
-13.7102
 20
29.1785
 30
0.00000
  70
    32
  0
VERTEX
  8
COS
  5
8FC5
 10
-13.8797
 20
29.3557
 30
0.00000
  70
    32
  0
VERTEX
  8
COS
  5
8FC6
 10
-14.0402
 20
29.5410
 30
0.00000
  70
    32
  0
VERTEX
  8
COS
  5
8FC7
 10
-14.1913
 20
29.7341
 30
0.00000
  70
    32
  0
VERTEX
  8
COS
  5
8FC8
 10
-14.3327
 20
29.9345
 30
0.00000
  70
    32
  0
VERTEX
  8
COS
  5
8FC9
 10
-14.4640
 20
30.1416
 30
0.00000
  70
    32
  0
VERTEX
  8
COS
  5
8FCA
 10
-14.5849
 20
30.3551
 30
0.00000
  70
    32
  0
VERTEX
  8
COS
  5
8FCB
 10
-14.6951
 20
30.5744
 30
0.00000
  70
    32
  0
VERTEX
  8
COS
  5
8FCC
 10
-14.7944
 20
30.7990
 30
0.00000
  70
    32
  0
VERTEX
  8
COS
  5
8FCD
 10
-14.8825
 20
31.0282
 30
0.00000
  70
    32
  0
VERTEX
  8
COS
  5
8FCE
 10
-14.9592
 20
31.2617
 30
0.00000
  70
    32
  0
VERTEX
  8
COS
  5
8FCF
 10
-15.0243
 20
31.4987
 30
0.00000
  70
    32
  0
VERTEX
  8
COS
  5
8FD0
 10
-15.0776
 20
31.7388
 30
0.00000
  70
    32
  0
VERTEX
  8
COS
  5
8FD1
 10
-15.1191
 20
31.9813
 30
0.00000
  70
    32
  0
VERTEX
  8
COS
  5
8FD2
 10
-15.1486
 20
32.2257
 30
0.00000
  70
    32
  0
VERTEX
  8
COS
  5
8FD3
 10
-15.1661
 20
32.4714
 30
0.00000
  70
    32
  0
VERTEX
  8
COS
  5
8FD4
 10
-15.1714
 20
32.7178
 30
0.00000
  70
    32
  0
VERTEX
  8
COS
  5
8FD5
 10
-15.1647
 20
32.9643
 30
0.00000
  70
    32
  0
VERTEX
  8
COS
  5
8FD6
 10
-15.1459
 20
33.2103
 30
0.00000
  70
    32
  0
VERTEX
  8
COS
  5
8FD7
 10
-15.1151
 20
33.4552
 30
0.00000
  70
    32
  0
VERTEX
  8
COS
  5
8FD8
 10
-15.0722
 20
33.6985
 30
0.00000
  70
    32
  0
VERTEX
  8
COS
  5
8FD9
 10
-15.0176
 20
33.9394
 30
0.00000
  70
    32
  0
VERTEX
  8
COS
  5
8FDA
 10
-14.9512
 20
34.1776
 30
0.00000
  70
    32
  0
VERTEX
  8
COS
  5
8FDB
 10
-14.8732
 20
34.4123
 30
0.00000
  70
    32
  0
VERTEX
  8
COS
  5
8FDC
 10
-14.7839
 20
34.6430
 30
0.00000
  70
    32
  0
VERTEX
  8
COS
  5
8FDD
 10
-14.6833
 20
34.8692
 30
0.00000
  70
    32
  0
VERTEX
  8
COS
  5
8FDE
 10
-14.5719
 20
35.0903
 30
0.00000
  70
    32
  0
VERTEX
  8
COS
  5
8FDF
 10
-14.4498
 20
35.3058
 30
0.00000
  70
    32
  0
VERTEX
  8
COS
  5
8FE0
 10
-14.3174
 20
35.5151
 30
0.00000
  70
    32
  0
VERTEX
  8
COS
  5
8FE1
 10
-14.1749
 20
35.7178
 30
0.00000
  70
    32
  0
VERTEX
  8
COS
  5
8FE2
 10
-14.0227
 20
35.9134
 30
0.00000
  70
    32
  0
VERTEX
  8
COS
  5
8FE3
 10
-13.8611
 20
36.1014
 30
0.00000
  70
    32
  0
VERTEX
  8
COS
  5
8FE4
 10
-13.6907
 20
36.2814
 30
0.00000
  70
    32
  0
VERTEX
  8
COS
  5
8FE5
 10
-13.5117
 20
36.4528
 30
0.00000
  70
    32
  0
VERTEX
  8
COS
  5
8FE6
 10
-13.3246
 20
36.6154
 30
0.00000
  70
    32
  0
VERTEX
  8
COS
  5
8FE7
 10
-13.1298
 20
36.7686
 30
0.00000
  70
    32
  0
VERTEX
  8
COS
  5
8FE8
 10
-12.9279
 20
36.9122
 30
0.00000
  70
    32
  0
VERTEX
  8
COS
  5
8FE9
 10
-12.7193
 20
37.0458
 30
0.00000
  70
    32
  0
VERTEX
  8
COS
  5
8FEA
 10
-12.5045
 20
37.1691
 30
0.00000
  70
    32
  0
VERTEX
  8
COS
  5
8FEB
 10
-12.2840
 20
37.2818
 30
0.00000
  70
    32
  0
VERTEX
  8
COS
  5
8FEC
 10
-12.0583
 20
37.3835
 30
0.00000
  70
    32
  0
VERTEX
  8
COS
  5
8FED
 10
-11.8281
 20
37.4741
 30
0.00000
  70
    32
  0
VERTEX
  8
COS
  5
8FEE
 10
-11.5938
 20
37.5534
 30
0.00000
  70
    32
  0
VERTEX
  8
COS
  5
8FEF
 10
-11.3561
 20
37.6211
 30
0.00000
  70
    32
  0
VERTEX
  8
COS
  5
8FF0
 10
-11.1154
 20
37.6771
 30
0.00000
  70
    32
  0
VERTEX
  8
COS
  5
8FF1
 10
-10.8724
 20
37.7212
 30
0.00000
  70
    32
  0
VERTEX
  8
COS
  5
8FF2
 10
-10.6277
 20
37.7534
 30
0.00000
  70
    32
  0
VERTEX
  8
COS
  5
8FF3
 10
-10.3818
 20
37.7736
 30
0.00000
  70
    32
  0
VERTEX
  8
COS
  5
8FF4
 10
-10.1353
 20
37.7817
 30
0.00000
  70
    32
  0
VERTEX
  8
COS
  5
8FF5
 10
-9.88891
 20
37.7777
 30
0.00000
  70
    32
  0
VERTEX
  8
COS
  5
8FF6
 10
-9.64312
 20
37.7615
 30
0.00000
  70
    32
  0
VERTEX
  8
COS
  5
8FF7
 10
-9.39855
 20
37.7334
 30
0.00000
  70
    32
  0
VERTEX
  8
COS
  5
8FF8
 10
-9.15578
 20
37.6932
 30
0.00000
  70
    32
  0
VERTEX
  8
COS
  5
8FF9
 10
-8.91541
 20
37.6412
 30
0.00000
  70
    32
  0
VERTEX
  8
COS
  5
8FFA
 10
-8.67802
 20
37.5774
 30
0.00000
  70
    32
  0
VERTEX
  8
COS
  5
8FFB
 10
-8.44416
 20
37.5020
 30
0.00000
  70
    32
  0
VERTEX
  8
COS
  5
8FFC
 10
-8.21442
 20
37.4152
 30
0.00000
  70
    32
  0
VERTEX
  8
COS
  5
8FFD
 10
-7.98933
 20
37.3172
 30
0.00000
  70
    32
  0
VERTEX
  8
COS
  5
8FFE
 10
-7.76945
 20
37.2081
 30
0.00000
  70
    32
  0
VERTEX
  8
COS
  5
8FFF
 10
-7.55530
 20
37.0884
 30
0.00000
  70
    32
  0
VERTEX
  8
COS
  5
9000
 10
-7.34740
 20
36.9582
 30
0.00000
  70
    32
  0
VERTEX
  8
COS
  5
9001
 10
-7.14625
 20
36.8179
 30
0.00000
  70
    32
  0
VERTEX
  8
COS
  5
9002
 10
-6.95233
 20
36.6679
 30
0.00000
  70
    32
  0
VERTEX
  8
COS
  5
9003
 10
-6.76612
 20
36.5084
 30
0.00000
  70
    32
  0
VERTEX
  8
COS
  5
9004
 10
-6.58805
 20
36.3399
 30
0.00000
  70
    32
  0
SEQEND
  8
COS
  5
9005
  0
LINE
  5
8DA2
  8
COS
 10
-9.4564703024619803
 20
49.9417722639394412
 30
0.0
 11
5.0301331283577611
 21
35.6143242240948865
 31
0.0
  0
POLYLINE
  5
8DA3
  8
COS
 10
-11.4114761756898151
 20
50.604378315784281
 30
0.0
 66
     1
 70
     8
  0
VERTEX
  8
COS
  5
9006
 10
-11.4115
 20
50.6044
 30
0.00000
  70
    32
  0
VERTEX
  8
COS
  5
9007
 10
-11.3948
 20
50.6064
 30
0.00000
  70
    32
  0
VERTEX
  8
COS
  5
9008
 10
-11.3782
 20
50.6083
 30
0.00000
  70
    32
  0
VERTEX
  8
COS
  5
9009
 10
-11.3615
 20
50.6100
 30
0.00000
  70
    32
  0
VERTEX
  8
COS
  5
900A
 10
-11.3448
 20
50.6117
 30
0.00000
  70
    32
  0
VERTEX
  8
COS
  5
900B
 10
-11.3282
 20
50.6132
 30
0.00000
  70
    32
  0
VERTEX
  8
COS
  5
900C
 10
-11.3115
 20
50.6146
 30
0.00000
  70
    32
  0
VERTEX
  8
COS
  5
900D
 10
-11.2948
 20
50.6159
 30
0.00000
  70
    32
  0
VERTEX
  8
COS
  5
900E
 10
-11.2781
 20
50.6171
 30
0.00000
  70
    32
  0
VERTEX
  8
COS
  5
900F
 10
-11.2614
 20
50.6182
 30
0.00000
  70
    32
  0
VERTEX
  8
COS
  5
9010
 10
-11.2446
 20
50.6191
 30
0.00000
  70
    32
  0
VERTEX
  8
COS
  5
9011
 10
-11.2279
 20
50.6199
 30
0.00000
  70
    32
  0
VERTEX
  8
COS
  5
9012
 10
-11.2112
 20
50.6206
 30
0.00000
  70
    32
  0
VERTEX
  8
COS
  5
9013
 10
-11.1944
 20
50.6212
 30
0.00000
  70
    32
  0
VERTEX
  8
COS
  5
9014
 10
-11.1777
 20
50.6217
 30
0.00000
  70
    32
  0
VERTEX
  8
COS
  5
9015
 10
-11.1610
 20
50.6221
 30
0.00000
  70
    32
  0
VERTEX
  8
COS
  5
9016
 10
-11.1442
 20
50.6223
 30
0.00000
  70
    32
  0
VERTEX
  8
COS
  5
9017
 10
-11.1275
 20
50.6224
 30
0.00000
  70
    32
  0
VERTEX
  8
COS
  5
9018
 10
-11.1108
 20
50.6225
 30
0.00000
  70
    32
  0
VERTEX
  8
COS
  5
9019
 10
-11.0940
 20
50.6223
 30
0.00000
  70
    32
  0
VERTEX
  8
COS
  5
901A
 10
-11.0773
 20
50.6221
 30
0.00000
  70
    32
  0
VERTEX
  8
COS
  5
901B
 10
-11.0606
 20
50.6218
 30
0.00000
  70
    32
  0
VERTEX
  8
COS
  5
901C
 10
-11.0438
 20
50.6213
 30
0.00000
  70
    32
  0
VERTEX
  8
COS
  5
901D
 10
-11.0271
 20
50.6207
 30
0.00000
  70
    32
  0
VERTEX
  8
COS
  5
901E
 10
-11.0104
 20
50.6200
 30
0.00000
  70
    32
  0
VERTEX
  8
COS
  5
901F
 10
-10.9937
 20
50.6192
 30
0.00000
  70
    32
  0
VERTEX
  8
COS
  5
9020
 10
-10.9770
 20
50.6183
 30
0.00000
  70
    32
  0
VERTEX
  8
COS
  5
9021
 10
-10.9603
 20
50.6172
 30
0.00000
  70
    32
  0
VERTEX
  8
COS
  5
9022
 10
-10.9436
 20
50.6161
 30
0.00000
  70
    32
  0
VERTEX
  8
COS
  5
9023
 10
-10.9269
 20
50.6148
 30
0.00000
  70
    32
  0
VERTEX
  8
COS
  5
9024
 10
-10.9103
 20
50.6134
 30
0.00000
  70
    32
  0
VERTEX
  8
COS
  5
9025
 10
-10.8936
 20
50.6119
 30
0.00000
  70
    32
  0
VERTEX
  8
COS
  5
9026
 10
-10.8770
 20
50.6103
 30
0.00000
  70
    32
  0
VERTEX
  8
COS
  5
9027
 10
-10.8604
 20
50.6085
 30
0.00000
  70
    32
  0
VERTEX
  8
COS
  5
9028
 10
-10.8438
 20
50.6066
 30
0.00000
  70
    32
  0
VERTEX
  8
COS
  5
9029
 10
-10.8272
 20
50.6047
 30
0.00000
  70
    32
  0
VERTEX
  8
COS
  5
902A
 10
-10.8106
 20
50.6026
 30
0.00000
  70
    32
  0
VERTEX
  8
COS
  5
902B
 10
-10.7940
 20
50.6003
 30
0.00000
  70
    32
  0
VERTEX
  8
COS
  5
902C
 10
-10.7775
 20
50.5980
 30
0.00000
  70
    32
  0
VERTEX
  8
COS
  5
902D
 10
-10.7609
 20
50.5956
 30
0.00000
  70
    32
  0
VERTEX
  8
COS
  5
902E
 10
-10.7444
 20
50.5930
 30
0.00000
  70
    32
  0
VERTEX
  8
COS
  5
902F
 10
-10.7279
 20
50.5903
 30
0.00000
  70
    32
  0
VERTEX
  8
COS
  5
9030
 10
-10.7115
 20
50.5875
 30
0.00000
  70
    32
  0
VERTEX
  8
COS
  5
9031
 10
-10.6950
 20
50.5846
 30
0.00000
  70
    32
  0
VERTEX
  8
COS
  5
9032
 10
-10.6786
 20
50.5816
 30
0.00000
  70
    32
  0
VERTEX
  8
COS
  5
9033
 10
-10.6622
 20
50.5784
 30
0.00000
  70
    32
  0
VERTEX
  8
COS
  5
9034
 10
-10.6458
 20
50.5752
 30
0.00000
  70
    32
  0
VERTEX
  8
COS
  5
9035
 10
-10.6294
 20
50.5718
 30
0.00000
  70
    32
  0
VERTEX
  8
COS
  5
9036
 10
-10.6131
 20
50.5683
 30
0.00000
  70
    32
  0
VERTEX
  8
COS
  5
9037
 10
-10.5968
 20
50.5647
 30
0.00000
  70
    32
  0
VERTEX
  8
COS
  5
9038
 10
-10.5805
 20
50.5610
 30
0.00000
  70
    32
  0
VERTEX
  8
COS
  5
9039
 10
-10.5643
 20
50.5572
 30
0.00000
  70
    32
  0
VERTEX
  8
COS
  5
903A
 10
-10.5481
 20
50.5532
 30
0.00000
  70
    32
  0
VERTEX
  8
COS
  5
903B
 10
-10.5319
 20
50.5492
 30
0.00000
  70
    32
  0
VERTEX
  8
COS
  5
903C
 10
-10.5157
 20
50.5450
 30
0.00000
  70
    32
  0
VERTEX
  8
COS
  5
903D
 10
-10.4996
 20
50.5407
 30
0.00000
  70
    32
  0
VERTEX
  8
COS
  5
903E
 10
-10.4835
 20
50.5363
 30
0.00000
  70
    32
  0
VERTEX
  8
COS
  5
903F
 10
-10.4674
 20
50.5318
 30
0.00000
  70
    32
  0
VERTEX
  8
COS
  5
9040
 10
-10.4514
 20
50.5272
 30
0.00000
  70
    32
  0
VERTEX
  8
COS
  5
9041
 10
-10.4354
 20
50.5224
 30
0.00000
  70
    32
  0
VERTEX
  8
COS
  5
9042
 10
-10.4194
 20
50.5176
 30
0.00000
  70
    32
  0
VERTEX
  8
COS
  5
9043
 10
-10.4035
 20
50.5126
 30
0.00000
  70
    32
  0
VERTEX
  8
COS
  5
9044
 10
-10.3876
 20
50.5075
 30
0.00000
  70
    32
  0
VERTEX
  8
COS
  5
9045
 10
-10.3717
 20
50.5023
 30
0.00000
  70
    32
  0
VERTEX
  8
COS
  5
9046
 10
-10.3559
 20
50.4970
 30
0.00000
  70
    32
  0
VERTEX
  8
COS
  5
9047
 10
-10.3401
 20
50.4916
 30
0.00000
  70
    32
  0
VERTEX
  8
COS
  5
9048
 10
-10.3244
 20
50.4861
 30
0.00000
  70
    32
  0
VERTEX
  8
COS
  5
9049
 10
-10.3087
 20
50.4805
 30
0.00000
  70
    32
  0
VERTEX
  8
COS
  5
904A
 10
-10.2930
 20
50.4747
 30
0.00000
  70
    32
  0
VERTEX
  8
COS
  5
904B
 10
-10.2774
 20
50.4689
 30
0.00000
  70
    32
  0
VERTEX
  8
COS
  5
904C
 10
-10.2618
 20
50.4629
 30
0.00000
  70
    32
  0
VERTEX
  8
COS
  5
904D
 10
-10.2463
 20
50.4569
 30
0.00000
  70
    32
  0
VERTEX
  8
COS
  5
904E
 10
-10.2308
 20
50.4507
 30
0.00000
  70
    32
  0
VERTEX
  8
COS
  5
904F
 10
-10.2154
 20
50.4444
 30
0.00000
  70
    32
  0
VERTEX
  8
COS
  5
9050
 10
-10.2000
 20
50.4380
 30
0.00000
  70
    32
  0
VERTEX
  8
COS
  5
9051
 10
-10.1846
 20
50.4315
 30
0.00000
  70
    32
  0
VERTEX
  8
COS
  5
9052
 10
-10.1693
 20
50.4249
 30
0.00000
  70
    32
  0
VERTEX
  8
COS
  5
9053
 10
-10.1541
 20
50.4181
 30
0.00000
  70
    32
  0
VERTEX
  8
COS
  5
9054
 10
-10.1389
 20
50.4113
 30
0.00000
  70
    32
  0
VERTEX
  8
COS
  5
9055
 10
-10.1237
 20
50.4044
 30
0.00000
  70
    32
  0
VERTEX
  8
COS
  5
9056
 10
-10.1086
 20
50.3973
 30
0.00000
  70
    32
  0
VERTEX
  8
COS
  5
9057
 10
-10.0936
 20
50.3902
 30
0.00000
  70
    32
  0
VERTEX
  8
COS
  5
9058
 10
-10.0786
 20
50.3829
 30
0.00000
  70
    32
  0
VERTEX
  8
COS
  5
9059
 10
-10.0636
 20
50.3756
 30
0.00000
  70
    32
  0
VERTEX
  8
COS
  5
905A
 10
-10.0487
 20
50.3681
 30
0.00000
  70
    32
  0
VERTEX
  8
COS
  5
905B
 10
-10.0339
 20
50.3605
 30
0.00000
  70
    32
  0
VERTEX
  8
COS
  5
905C
 10
-10.0191
 20
50.3528
 30
0.00000
  70
    32
  0
VERTEX
  8
COS
  5
905D
 10
-10.0043
 20
50.3451
 30
0.00000
  70
    32
  0
VERTEX
  8
COS
  5
905E
 10
-9.98967
 20
50.3372
 30
0.00000
  70
    32
  0
VERTEX
  8
COS
  5
905F
 10
-9.97504
 20
50.3292
 30
0.00000
  70
    32
  0
VERTEX
  8
COS
  5
9060
 10
-9.96048
 20
50.3211
 30
0.00000
  70
    32
  0
VERTEX
  8
COS
  5
9061
 10
-9.94598
 20
50.3129
 30
0.00000
  70
    32
  0
VERTEX
  8
COS
  5
9062
 10
-9.93153
 20
50.3046
 30
0.00000
  70
    32
  0
VERTEX
  8
COS
  5
9063
 10
-9.91714
 20
50.2962
 30
0.00000
  70
    32
  0
VERTEX
  8
COS
  5
9064
 10
-9.90282
 20
50.2877
 30
0.00000
  70
    32
  0
VERTEX
  8
COS
  5
9065
 10
-9.88855
 20
50.2791
 30
0.00000
  70
    32
  0
VERTEX
  8
COS
  5
9066
 10
-9.87435
 20
50.2704
 30
0.00000
  70
    32
  0
VERTEX
  8
COS
  5
9067
 10
-9.86021
 20
50.2616
 30
0.00000
  70
    32
  0
VERTEX
  8
COS
  5
9068
 10
-9.84613
 20
50.2527
 30
0.00000
  70
    32
  0
VERTEX
  8
COS
  5
9069
 10
-9.83212
 20
50.2437
 30
0.00000
  70
    32
  0
VERTEX
  8
COS
  5
906A
 10
-9.81817
 20
50.2346
 30
0.00000
  70
    32
  0
VERTEX
  8
COS
  5
906B
 10
-9.80428
 20
50.2254
 30
0.00000
  70
    32
  0
VERTEX
  8
COS
  5
906C
 10
-9.79046
 20
50.2161
 30
0.00000
  70
    32
  0
VERTEX
  8
COS
  5
906D
 10
-9.77671
 20
50.2068
 30
0.00000
  70
    32
  0
VERTEX
  8
COS
  5
906E
 10
-9.76303
 20
50.1973
 30
0.00000
  70
    32
  0
VERTEX
  8
COS
  5
906F
 10
-9.74941
 20
50.1877
 30
0.00000
  70
    32
  0
VERTEX
  8
COS
  5
9070
 10
-9.73586
 20
50.1780
 30
0.00000
  70
    32
  0
VERTEX
  8
COS
  5
9071
 10
-9.72238
 20
50.1682
 30
0.00000
  70
    32
  0
VERTEX
  8
COS
  5
9072
 10
-9.70898
 20
50.1584
 30
0.00000
  70
    32
  0
VERTEX
  8
COS
  5
9073
 10
-9.69564
 20
50.1484
 30
0.00000
  70
    32
  0
VERTEX
  8
COS
  5
9074
 10
-9.68237
 20
50.1383
 30
0.00000
  70
    32
  0
VERTEX
  8
COS
  5
9075
 10
-9.66917
 20
50.1282
 30
0.00000
  70
    32
  0
VERTEX
  8
COS
  5
9076
 10
-9.65605
 20
50.1179
 30
0.00000
  70
    32
  0
VERTEX
  8
COS
  5
9077
 10
-9.64300
 20
50.1076
 30
0.00000
  70
    32
  0
VERTEX
  8
COS
  5
9078
 10
-9.63003
 20
50.0972
 30
0.00000
  70
    32
  0
VERTEX
  8
COS
  5
9079
 10
-9.61713
 20
50.0866
 30
0.00000
  70
    32
  0
VERTEX
  8
COS
  5
907A
 10
-9.60430
 20
50.0760
 30
0.00000
  70
    32
  0
VERTEX
  8
COS
  5
907B
 10
-9.59155
 20
50.0653
 30
0.00000
  70
    32
  0
VERTEX
  8
COS
  5
907C
 10
-9.57888
 20
50.0545
 30
0.00000
  70
    32
  0
VERTEX
  8
COS
  5
907D
 10
-9.56628
 20
50.0437
 30
0.00000
  70
    32
  0
VERTEX
  8
COS
  5
907E
 10
-9.55376
 20
50.0327
 30
0.00000
  70
    32
  0
VERTEX
  8
COS
  5
907F
 10
-9.54132
 20
50.0216
 30
0.00000
  70
    32
  0
VERTEX
  8
COS
  5
9080
 10
-9.52896
 20
50.0105
 30
0.00000
  70
    32
  0
VERTEX
  8
COS
  5
9081
 10
-9.51667
 20
49.9992
 30
0.00000
  70
    32
  0
VERTEX
  8
COS
  5
9082
 10
-9.50447
 20
49.9879
 30
0.00000
  70
    32
  0
VERTEX
  8
COS
  5
9083
 10
-9.49235
 20
49.9765
 30
0.00000
  70
    32
  0
VERTEX
  8
COS
  5
9084
 10
-9.48031
 20
49.9650
 30
0.00000
  70
    32
  0
VERTEX
  8
COS
  5
9085
 10
-9.46835
 20
49.9534
 30
0.00000
  70
    32
  0
VERTEX
  8
COS
  5
9086
 10
-9.45647
 20
49.9418
 30
0.00000
  70
    32
  0
SEQEND
  8
COS
  5
9087
  0
LINE
  5
8DA5
  8
COS
 10
6.0252440986658371
 20
34.6246645758023419
 30
0.0
 11
-8.4613593321539611
 21
48.9521126156468966
 31
0.0
  0
POLYLINE
  5
8DA6
  8
COS
 10
6.0252440986658025
 20
34.624664575802349
 30
0.0
 66
     1
 70
     8
  0
VERTEX
  8
COS
  5
9088
 10
6.02524
 20
34.6247
 30
0.00000
  70
    32
  0
VERTEX
  8
COS
  5
9089
 10
6.04583
 20
34.6041
 30
0.00000
  70
    32
  0
VERTEX
  8
COS
  5
908A
 10
6.06616
 20
34.5832
 30
0.00000
  70
    32
  0
VERTEX
  8
COS
  5
908B
 10
6.08622
 20
34.5621
 30
0.00000
  70
    32
  0
VERTEX
  8
COS
  5
908C
 10
6.10603
 20
34.5407
 30
0.00000
  70
    32
  0
VERTEX
  8
COS
  5
908D
 10
6.12556
 20
34.5191
 30
0.00000
  70
    32
  0
VERTEX
  8
COS
  5
908E
 10
6.14483
 20
34.4972
 30
0.00000
  70
    32
  0
VERTEX
  8
COS
  5
908F
 10
6.16383
 20
34.4752
 30
0.00000
  70
    32
  0
VERTEX
  8
COS
  5
9090
 10
6.18255
 20
34.4528
 30
0.00000
  70
    32
  0
VERTEX
  8
COS
  5
9091
 10
6.20099
 20
34.4303
 30
0.00000
  70
    32
  0
VERTEX
  8
COS
  5
9092
 10
6.21915
 20
34.4075
 30
0.00000
  70
    32
  0
VERTEX
  8
COS
  5
9093
 10
6.23703
 20
34.3845
 30
0.00000
  70
    32
  0
VERTEX
  8
COS
  5
9094
 10
6.25462
 20
34.3613
 30
0.00000
  70
    32
  0
VERTEX
  8
COS
  5
9095
 10
6.27193
 20
34.3378
 30
0.00000
  70
    32
  0
VERTEX
  8
COS
  5
9096
 10
6.28894
 20
34.3142
 30
0.00000
  70
    32
  0
VERTEX
  8
COS
  5
9097
 10
6.30566
 20
34.2903
 30
0.00000
  70
    32
  0
VERTEX
  8
COS
  5
9098
 10
6.32208
 20
34.2662
 30
0.00000
  70
    32
  0
VERTEX
  8
COS
  5
9099
 10
6.33820
 20
34.2420
 30
0.00000
  70
    32
  0
VERTEX
  8
COS
  5
909A
 10
6.35403
 20
34.2175
 30
0.00000
  70
    32
  0
VERTEX
  8
COS
  5
909B
 10
6.36954
 20
34.1928
 30
0.00000
  70
    32
  0
VERTEX
  8
COS
  5
909C
 10
6.38476
 20
34.1679
 30
0.00000
  70
    32
  0
VERTEX
  8
COS
  5
909D
 10
6.39966
 20
34.1429
 30
0.00000
  70
    32
  0
VERTEX
  8
COS
  5
909E
 10
6.41425
 20
34.1177
 30
0.00000
  70
    32
  0
VERTEX
  8
COS
  5
909F
 10
6.42853
 20
34.0922
 30
0.00000
  70
    32
  0
VERTEX
  8
COS
  5
90A0
 10
6.44250
 20
34.0666
 30
0.00000
  70
    32
  0
VERTEX
  8
COS
  5
90A1
 10
6.45615
 20
34.0409
 30
0.00000
  70
    32
  0
VERTEX
  8
COS
  5
90A2
 10
6.46948
 20
34.0149
 30
0.00000
  70
    32
  0
VERTEX
  8
COS
  5
90A3
 10
6.48249
 20
33.9888
 30
0.00000
  70
    32
  0
VERTEX
  8
COS
  5
90A4
 10
6.49517
 20
33.9626
 30
0.00000
  70
    32
  0
VERTEX
  8
COS
  5
90A5
 10
6.50753
 20
33.9362
 30
0.00000
  70
    32
  0
VERTEX
  8
COS
  5
90A6
 10
6.51957
 20
33.9096
 30
0.00000
  70
    32
  0
VERTEX
  8
COS
  5
90A7
 10
6.53127
 20
33.8829
 30
0.00000
  70
    32
  0
VERTEX
  8
COS
  5
90A8
 10
6.54265
 20
33.8560
 30
0.00000
  70
    32
  0
VERTEX
  8
COS
  5
90A9
 10
6.55369
 20
33.8290
 30
0.00000
  70
    32
  0
VERTEX
  8
COS
  5
90AA
 10
6.56440
 20
33.8018
 30
0.00000
  70
    32
  0
VERTEX
  8
COS
  5
90AB
 10
6.57477
 20
33.7746
 30
0.00000
  70
    32
  0
VERTEX
  8
COS
  5
90AC
 10
6.58481
 20
33.7472
 30
0.00000
  70
    32
  0
VERTEX
  8
COS
  5
90AD
 10
6.59451
 20
33.7196
 30
0.00000
  70
    32
  0
VERTEX
  8
COS
  5
90AE
 10
6.60387
 20
33.6920
 30
0.00000
  70
    32
  0
VERTEX
  8
COS
  5
90AF
 10
6.61289
 20
33.6642
 30
0.00000
  70
    32
  0
VERTEX
  8
COS
  5
90B0
 10
6.62156
 20
33.6363
 30
0.00000
  70
    32
  0
VERTEX
  8
COS
  5
90B1
 10
6.62989
 20
33.6083
 30
0.00000
  70
    32
  0
VERTEX
  8
COS
  5
90B2
 10
6.63788
 20
33.5802
 30
0.00000
  70
    32
  0
VERTEX
  8
COS
  5
90B3
 10
6.64551
 20
33.5520
 30
0.00000
  70
    32
  0
VERTEX
  8
COS
  5
90B4
 10
6.65281
 20
33.5238
 30
0.00000
  70
    32
  0
VERTEX
  8
COS
  5
90B5
 10
6.65975
 20
33.4954
 30
0.00000
  70
    32
  0
VERTEX
  8
COS
  5
90B6
 10
6.66634
 20
33.4669
 30
0.00000
  70
    32
  0
VERTEX
  8
COS
  5
90B7
 10
6.67258
 20
33.4384
 30
0.00000
  70
    32
  0
VERTEX
  8
COS
  5
90B8
 10
6.67847
 20
33.4097
 30
0.00000
  70
    32
  0
VERTEX
  8
COS
  5
90B9
 10
6.68401
 20
33.3810
 30
0.00000
  70
    32
  0
VERTEX
  8
COS
  5
90BA
 10
6.68920
 20
33.3523
 30
0.00000
  70
    32
  0
VERTEX
  8
COS
  5
90BB
 10
6.69403
 20
33.3234
 30
0.00000
  70
    32
  0
VERTEX
  8
COS
  5
90BC
 10
6.69850
 20
33.2945
 30
0.00000
  70
    32
  0
VERTEX
  8
COS
  5
90BD
 10
6.70262
 20
33.2656
 30
0.00000
  70
    32
  0
VERTEX
  8
COS
  5
90BE
 10
6.70639
 20
33.2366
 30
0.00000
  70
    32
  0
VERTEX
  8
COS
  5
90BF
 10
6.70979
 20
33.2075
 30
0.00000
  70
    32
  0
VERTEX
  8
COS
  5
90C0
 10
6.71284
 20
33.1784
 30
0.00000
  70
    32
  0
VERTEX
  8
COS
  5
90C1
 10
6.71554
 20
33.1493
 30
0.00000
  70
    32
  0
VERTEX
  8
COS
  5
90C2
 10
6.71787
 20
33.1201
 30
0.00000
  70
    32
  0
VERTEX
  8
COS
  5
90C3
 10
6.71985
 20
33.0909
 30
0.00000
  70
    32
  0
VERTEX
  8
COS
  5
90C4
 10
6.72146
 20
33.0617
 30
0.00000
  70
    32
  0
VERTEX
  8
COS
  5
90C5
 10
6.72272
 20
33.0324
 30
0.00000
  70
    32
  0
VERTEX
  8
COS
  5
90C6
 10
6.72362
 20
33.0032
 30
0.00000
  70
    32
  0
VERTEX
  8
COS
  5
90C7
 10
6.72416
 20
32.9739
 30
0.00000
  70
    32
  0
VERTEX
  8
COS
  5
90C8
 10
6.72434
 20
32.9446
 30
0.00000
  70
    32
  0
VERTEX
  8
COS
  5
90C9
 10
6.72416
 20
32.9153
 30
0.00000
  70
    32
  0
VERTEX
  8
COS
  5
90CA
 10
6.72362
 20
32.8860
 30
0.00000
  70
    32
  0
VERTEX
  8
COS
  5
90CB
 10
6.72272
 20
32.8567
 30
0.00000
  70
    32
  0
VERTEX
  8
COS
  5
90CC
 10
6.72146
 20
32.8274
 30
0.00000
  70
    32
  0
VERTEX
  8
COS
  5
90CD
 10
6.71985
 20
32.7982
 30
0.00000
  70
    32
  0
VERTEX
  8
COS
  5
90CE
 10
6.71787
 20
32.7689
 30
0.00000
  70
    32
  0
VERTEX
  8
COS
  5
90CF
 10
6.71554
 20
32.7397
 30
0.00000
  70
    32
  0
VERTEX
  8
COS
  5
90D0
 10
6.71284
 20
32.7105
 30
0.00000
  70
    32
  0
VERTEX
  8
COS
  5
90D1
 10
6.70979
 20
32.6813
 30
0.00000
  70
    32
  0
VERTEX
  8
COS
  5
90D2
 10
6.70639
 20
32.6522
 30
0.00000
  70
    32
  0
VERTEX
  8
COS
  5
90D3
 10
6.70262
 20
32.6231
 30
0.00000
  70
    32
  0
VERTEX
  8
COS
  5
90D4
 10
6.69850
 20
32.5941
 30
0.00000
  70
    32
  0
VERTEX
  8
COS
  5
90D5
 10
6.69403
 20
32.5651
 30
0.00000
  70
    32
  0
VERTEX
  8
COS
  5
90D6
 10
6.68920
 20
32.5361
 30
0.00000
  70
    32
  0
VERTEX
  8
COS
  5
90D7
 10
6.68401
 20
32.5073
 30
0.00000
  70
    32
  0
VERTEX
  8
COS
  5
90D8
 10
6.67847
 20
32.4784
 30
0.00000
  70
    32
  0
VERTEX
  8
COS
  5
90D9
 10
6.67258
 20
32.4497
 30
0.00000
  70
    32
  0
VERTEX
  8
COS
  5
90DA
 10
6.66634
 20
32.4210
 30
0.00000
  70
    32
  0
VERTEX
  8
COS
  5
90DB
 10
6.65975
 20
32.3924
 30
0.00000
  70
    32
  0
VERTEX
  8
COS
  5
90DC
 10
6.65281
 20
32.3638
 30
0.00000
  70
    32
  0
VERTEX
  8
COS
  5
90DD
 10
6.64551
 20
32.3354
 30
0.00000
  70
    32
  0
VERTEX
  8
COS
  5
90DE
 10
6.63788
 20
32.3070
 30
0.00000
  70
    32
  0
VERTEX
  8
COS
  5
90DF
 10
6.62989
 20
32.2788
 30
0.00000
  70
    32
  0
VERTEX
  8
COS
  5
90E0
 10
6.62156
 20
32.2506
 30
0.00000
  70
    32
  0
VERTEX
  8
COS
  5
90E1
 10
6.61289
 20
32.2225
 30
0.00000
  70
    32
  0
VERTEX
  8
COS
  5
90E2
 10
6.60387
 20
32.1945
 30
0.00000
  70
    32
  0
VERTEX
  8
COS
  5
90E3
 10
6.59451
 20
32.1667
 30
0.00000
  70
    32
  0
VERTEX
  8
COS
  5
90E4
 10
6.58481
 20
32.1389
 30
0.00000
  70
    32
  0
VERTEX
  8
COS
  5
90E5
 10
6.57477
 20
32.1113
 30
0.00000
  70
    32
  0
VERTEX
  8
COS
  5
90E6
 10
6.56440
 20
32.0838
 30
0.00000
  70
    32
  0
VERTEX
  8
COS
  5
90E7
 10
6.55369
 20
32.0564
 30
0.00000
  70
    32
  0
VERTEX
  8
COS
  5
90E8
 10
6.54265
 20
32.0292
 30
0.00000
  70
    32
  0
VERTEX
  8
COS
  5
90E9
 10
6.53127
 20
32.0021
 30
0.00000
  70
    32
  0
VERTEX
  8
COS
  5
90EA
 10
6.51957
 20
31.9751
 30
0.00000
  70
    32
  0
VERTEX
  8
COS
  5
90EB
 10
6.50753
 20
31.9482
 30
0.00000
  70
    32
  0
VERTEX
  8
COS
  5
90EC
 10
6.49517
 20
31.9216
 30
0.00000
  70
    32
  0
VERTEX
  8
COS
  5
90ED
 10
6.48249
 20
31.8950
 30
0.00000
  70
    32
  0
VERTEX
  8
COS
  5
90EE
 10
6.46948
 20
31.8686
 30
0.00000
  70
    32
  0
VERTEX
  8
COS
  5
90EF
 10
6.45615
 20
31.8424
 30
0.00000
  70
    32
  0
VERTEX
  8
COS
  5
90F0
 10
6.44250
 20
31.8163
 30
0.00000
  70
    32
  0
VERTEX
  8
COS
  5
90F1
 10
6.42853
 20
31.7904
 30
0.00000
  70
    32
  0
VERTEX
  8
COS
  5
90F2
 10
6.41425
 20
31.7647
 30
0.00000
  70
    32
  0
VERTEX
  8
COS
  5
90F3
 10
6.39966
 20
31.7391
 30
0.00000
  70
    32
  0
VERTEX
  8
COS
  5
90F4
 10
6.38476
 20
31.7138
 30
0.00000
  70
    32
  0
VERTEX
  8
COS
  5
90F5
 10
6.36954
 20
31.6886
 30
0.00000
  70
    32
  0
VERTEX
  8
COS
  5
90F6
 10
6.35403
 20
31.6636
 30
0.00000
  70
    32
  0
VERTEX
  8
COS
  5
90F7
 10
6.33820
 20
31.6387
 30
0.00000
  70
    32
  0
VERTEX
  8
COS
  5
90F8
 10
6.32208
 20
31.6141
 30
0.00000
  70
    32
  0
VERTEX
  8
COS
  5
90F9
 10
6.30566
 20
31.5897
 30
0.00000
  70
    32
  0
VERTEX
  8
COS
  5
90FA
 10
6.28894
 20
31.5654
 30
0.00000
  70
    32
  0
VERTEX
  8
COS
  5
90FB
 10
6.27193
 20
31.5414
 30
0.00000
  70
    32
  0
VERTEX
  8
COS
  5
90FC
 10
6.25462
 20
31.5176
 30
0.00000
  70
    32
  0
VERTEX
  8
COS
  5
90FD
 10
6.23703
 20
31.4940
 30
0.00000
  70
    32
  0
VERTEX
  8
COS
  5
90FE
 10
6.21915
 20
31.4706
 30
0.00000
  70
    32
  0
VERTEX
  8
COS
  5
90FF
 10
6.20099
 20
31.4474
 30
0.00000
  70
    32
  0
VERTEX
  8
COS
  5
9100
 10
6.18255
 20
31.4244
 30
0.00000
  70
    32
  0
VERTEX
  8
COS
  5
9101
 10
6.16383
 20
31.4017
 30
0.00000
  70
    32
  0
VERTEX
  8
COS
  5
9102
 10
6.14483
 20
31.3792
 30
0.00000
  70
    32
  0
VERTEX
  8
COS
  5
9103
 10
6.12556
 20
31.3569
 30
0.00000
  70
    32
  0
VERTEX
  8
COS
  5
9104
 10
6.10603
 20
31.3349
 30
0.00000
  70
    32
  0
VERTEX
  8
COS
  5
9105
 10
6.08622
 20
31.3131
 30
0.00000
  70
    32
  0
VERTEX
  8
COS
  5
9106
 10
6.06616
 20
31.2915
 30
0.00000
  70
    32
  0
VERTEX
  8
COS
  5
9107
 10
6.04583
 20
31.2702
 30
0.00000
  70
    32
  0
VERTEX
  8
COS
  5
9108
 10
6.02524
 20
31.2491
 30
0.00000
  70
    32
  0
SEQEND
  8
COS
  5
9109
  0
LINE
  5
8DA7
  8
COS
 10
-8.4613593321539611
 20
16.6033865079912211
 30
0.0
 11
6.0252440986657803
 21
31.2491453297860993
 31
0.0
  0
POLYLINE
  5
8DA8
  8
COS
 10
-8.4613593321539842
 20
16.6033865079912246
 30
0.0
 66
     1
 70
     8
  0
VERTEX
  8
COS
  5
910A
 10
-8.46136
 20
16.6034
 30
0.00000
  70
    32
  0
VERTEX
  8
COS
  5
910B
 10
-8.48220
 20
16.5826
 30
0.00000
  70
    32
  0
VERTEX
  8
COS
  5
910C
 10
-8.50329
 20
16.5620
 30
0.00000
  70
    32
  0
VERTEX
  8
COS
  5
910D
 10
-8.52462
 20
16.5417
 30
0.00000
  70
    32
  0
VERTEX
  8
COS
  5
910E
 10
-8.54621
 20
16.5217
 30
0.00000
  70
    32
  0
VERTEX
  8
COS
  5
910F
 10
-8.56803
 20
16.5019
 30
0.00000
  70
    32
  0
VERTEX
  8
COS
  5
9110
 10
-8.59009
 20
16.4824
 30
0.00000
  70
    32
  0
VERTEX
  8
COS
  5
9111
 10
-8.61239
 20
16.4631
 30
0.00000
  70
    32
  0
VERTEX
  8
COS
  5
9112
 10
-8.63492
 20
16.4442
 30
0.00000
  70
    32
  0
VERTEX
  8
COS
  5
9113
 10
-8.65767
 20
16.4255
 30
0.00000
  70
    32
  0
VERTEX
  8
COS
  5
9114
 10
-8.68065
 20
16.4071
 30
0.00000
  70
    32
  0
VERTEX
  8
COS
  5
9115
 10
-8.70385
 20
16.3889
 30
0.00000
  70
    32
  0
VERTEX
  8
COS
  5
9116
 10
-8.72727
 20
16.3711
 30
0.00000
  70
    32
  0
VERTEX
  8
COS
  5
9117
 10
-8.75091
 20
16.3535
 30
0.00000
  70
    32
  0
VERTEX
  8
COS
  5
9118
 10
-8.77475
 20
16.3362
 30
0.00000
  70
    32
  0
VERTEX
  8
COS
  5
9119
 10
-8.79880
 20
16.3193
 30
0.00000
  70
    32
  0
VERTEX
  8
COS
  5
911A
 10
-8.82305
 20
16.3026
 30
0.00000
  70
    32
  0
VERTEX
  8
COS
  5
911B
 10
-8.84751
 20
16.2862
 30
0.00000
  70
    32
  0
VERTEX
  8
COS
  5
911C
 10
-8.87216
 20
16.2701
 30
0.00000
  70
    32
  0
VERTEX
  8
COS
  5
911D
 10
-8.89700
 20
16.2543
 30
0.00000
  70
    32
  0
VERTEX
  8
COS
  5
911E
 10
-8.92203
 20
16.2388
 30
0.00000
  70
    32
  0
VERTEX
  8
COS
  5
911F
 10
-8.94725
 20
16.2236
 30
0.00000
  70
    32
  0
VERTEX
  8
COS
  5
9120
 10
-8.97264
 20
16.2088
 30
0.00000
  70
    32
  0
VERTEX
  8
COS
  5
9121
 10
-8.99822
 20
16.1942
 30
0.00000
  70
    32
  0
VERTEX
  8
COS
  5
9122
 10
-9.02396
 20
16.1799
 30
0.00000
  70
    32
  0
VERTEX
  8
COS
  5
9123
 10
-9.04988
 20
16.1660
 30
0.00000
  70
    32
  0
VERTEX
  8
COS
  5
9124
 10
-9.07596
 20
16.1524
 30
0.00000
  70
    32
  0
VERTEX
  8
COS
  5
9125
 10
-9.10221
 20
16.1391
 30
0.00000
  70
    32
  0
VERTEX
  8
COS
  5
9126
 10
-9.12861
 20
16.1261
 30
0.00000
  70
    32
  0
VERTEX
  8
COS
  5
9127
 10
-9.15516
 20
16.1135
 30
0.00000
  70
    32
  0
VERTEX
  8
COS
  5
9128
 10
-9.18187
 20
16.1011
 30
0.00000
  70
    32
  0
VERTEX
  8
COS
  5
9129
 10
-9.20872
 20
16.0891
 30
0.00000
  70
    32
  0
VERTEX
  8
COS
  5
912A
 10
-9.23571
 20
16.0775
 30
0.00000
  70
    32
  0
VERTEX
  8
COS
  5
912B
 10
-9.26284
 20
16.0661
 30
0.00000
  70
    32
  0
VERTEX
  8
COS
  5
912C
 10
-9.29010
 20
16.0551
 30
0.00000
  70
    32
  0
VERTEX
  8
COS
  5
912D
 10
-9.31749
 20
16.0445
 30
0.00000
  70
    32
  0
VERTEX
  8
COS
  5
912E
 10
-9.34501
 20
16.0341
 30
0.00000
  70
    32
  0
VERTEX
  8
COS
  5
912F
 10
-9.37265
 20
16.0241
 30
0.00000
  70
    32
  0
VERTEX
  8
COS
  5
9130
 10
-9.40041
 20
16.0144
 30
0.00000
  70
    32
  0
VERTEX
  8
COS
  5
9131
 10
-9.42828
 20
16.0051
 30
0.00000
  70
    32
  0
VERTEX
  8
COS
  5
9132
 10
-9.45625
 20
15.9961
 30
0.00000
  70
    32
  0
VERTEX
  8
COS
  5
9133
 10
-9.48433
 20
15.9875
 30
0.00000
  70
    32
  0
VERTEX
  8
COS
  5
9134
 10
-9.51251
 20
15.9792
 30
0.00000
  70
    32
  0
VERTEX
  8
COS
  5
9135
 10
-9.54079
 20
15.9713
 30
0.00000
  70
    32
  0
VERTEX
  8
COS
  5
9136
 10
-9.56916
 20
15.9637
 30
0.00000
  70
    32
  0
VERTEX
  8
COS
  5
9137
 10
-9.59762
 20
15.9564
 30
0.00000
  70
    32
  0
VERTEX
  8
COS
  5
9138
 10
-9.62616
 20
15.9495
 30
0.00000
  70
    32
  0
VERTEX
  8
COS
  5
9139
 10
-9.65477
 20
15.9429
 30
0.00000
  70
    32
  0
VERTEX
  8
COS
  5
913A
 10
-9.68347
 20
15.9367
 30
0.00000
  70
    32
  0
VERTEX
  8
COS
  5
913B
 10
-9.71223
 20
15.9309
 30
0.00000
  70
    32
  0
VERTEX
  8
COS
  5
913C
 10
-9.74106
 20
15.9254
 30
0.00000
  70
    32
  0
VERTEX
  8
COS
  5
913D
 10
-9.76995
 20
15.9202
 30
0.00000
  70
    32
  0
VERTEX
  8
COS
  5
913E
 10
-9.79889
 20
15.9154
 30
0.00000
  70
    32
  0
VERTEX
  8
COS
  5
913F
 10
-9.82789
 20
15.9110
 30
0.00000
  70
    32
  0
VERTEX
  8
COS
  5
9140
 10
-9.85694
 20
15.9069
 30
0.00000
  70
    32
  0
VERTEX
  8
COS
  5
9141
 10
-9.88603
 20
15.9032
 30
0.00000
  70
    32
  0
VERTEX
  8
COS
  5
9142
 10
-9.91517
 20
15.8998
 30
0.00000
  70
    32
  0
VERTEX
  8
COS
  5
9143
 10
-9.94433
 20
15.8968
 30
0.00000
  70
    32
  0
VERTEX
  8
COS
  5
9144
 10
-9.97353
 20
15.8941
 30
0.00000
  70
    32
  0
VERTEX
  8
COS
  5
9145
 10
-10.0028
 20
15.8919
 30
0.00000
  70
    32
  0
VERTEX
  8
COS
  5
9146
 10
-10.0320
 20
15.8899
 30
0.00000
  70
    32
  0
VERTEX
  8
COS
  5
9147
 10
-10.0613
 20
15.8883
 30
0.00000
  70
    32
  0
VERTEX
  8
COS
  5
9148
 10
-10.0905
 20
15.8871
 30
0.00000
  70
    32
  0
VERTEX
  8
COS
  5
9149
 10
-10.1198
 20
15.8863
 30
0.00000
  70
    32
  0
VERTEX
  8
COS
  5
914A
 10
-10.1491
 20
15.8858
 30
0.00000
  70
    32
  0
VERTEX
  8
COS
  5
914B
 10
-10.1784
 20
15.8856
 30
0.00000
  70
    32
  0
VERTEX
  8
COS
  5
914C
 10
-10.2077
 20
15.8858
 30
0.00000
  70
    32
  0
VERTEX
  8
COS
  5
914D
 10
-10.2370
 20
15.8864
 30
0.00000
  70
    32
  0
VERTEX
  8
COS
  5
914E
 10
-10.2662
 20
15.8873
 30
0.00000
  70
    32
  0
VERTEX
  8
COS
  5
914F
 10
-10.2955
 20
15.8886
 30
0.00000
  70
    32
  0
VERTEX
  8
COS
  5
9150
 10
-10.3247
 20
15.8903
 30
0.00000
  70
    32
  0
VERTEX
  8
COS
  5
9151
 10
-10.3539
 20
15.8923
 30
0.00000
  70
    32
  0
VERTEX
  8
COS
  5
9152
 10
-10.3831
 20
15.8947
 30
0.00000
  70
    32
  0
VERTEX
  8
COS
  5
9153
 10
-10.4122
 20
15.8974
 30
0.00000
  70
    32
  0
VERTEX
  8
COS
  5
9154
 10
-10.4413
 20
15.9005
 30
0.00000
  70
    32
  0
VERTEX
  8
COS
  5
9155
 10
-10.4703
 20
15.9039
 30
0.00000
  70
    32
  0
VERTEX
  8
COS
  5
9156
 10
-10.4993
 20
15.9077
 30
0.00000
  70
    32
  0
VERTEX
  8
COS
  5
9157
 10
-10.5283
 20
15.9119
 30
0.00000
  70
    32
  0
VERTEX
  8
COS
  5
9158
 10
-10.5572
 20
15.9164
 30
0.00000
  70
    32
  0
VERTEX
  8
COS
  5
9159
 10
-10.5860
 20
15.9213
 30
0.00000
  70
    32
  0
VERTEX
  8
COS
  5
915A
 10
-10.6148
 20
15.9265
 30
0.00000
  70
    32
  0
VERTEX
  8
COS
  5
915B
 10
-10.6435
 20
15.9321
 30
0.00000
  70
    32
  0
VERTEX
  8
COS
  5
915C
 10
-10.6721
 20
15.9380
 30
0.00000
  70
    32
  0
VERTEX
  8
COS
  5
915D
 10
-10.7006
 20
15.9443
 30
0.00000
  70
    32
  0
VERTEX
  8
COS
  5
915E
 10
-10.7291
 20
15.9509
 30
0.00000
  70
    32
  0
VERTEX
  8
COS
  5
915F
 10
-10.7574
 20
15.9579
 30
0.00000
  70
    32
  0
VERTEX
  8
COS
  5
9160
 10
-10.7857
 20
15.9652
 30
0.00000
  70
    32
  0
VERTEX
  8
COS
  5
9161
 10
-10.8139
 20
15.9729
 30
0.00000
  70
    32
  0
VERTEX
  8
COS
  5
9162
 10
-10.8420
 20
15.9809
 30
0.00000
  70
    32
  0
VERTEX
  8
COS
  5
9163
 10
-10.8700
 20
15.9893
 30
0.00000
  70
    32
  0
VERTEX
  8
COS
  5
9164
 10
-10.8978
 20
15.9980
 30
0.00000
  70
    32
  0
VERTEX
  8
COS
  5
9165
 10
-10.9256
 20
16.0070
 30
0.00000
  70
    32
  0
VERTEX
  8
COS
  5
9166
 10
-10.9532
 20
16.0164
 30
0.00000
  70
    32
  0
VERTEX
  8
COS
  5
9167
 10
-10.9807
 20
16.0262
 30
0.00000
  70
    32
  0
VERTEX
  8
COS
  5
9168
 10
-11.0081
 20
16.0363
 30
0.00000
  70
    32
  0
VERTEX
  8
COS
  5
9169
 10
-11.0354
 20
16.0467
 30
0.00000
  70
    32
  0
VERTEX
  8
COS
  5
916A
 10
-11.0625
 20
16.0574
 30
0.00000
  70
    32
  0
VERTEX
  8
COS
  5
916B
 10
-11.0895
 20
16.0685
 30
0.00000
  70
    32
  0
VERTEX
  8
COS
  5
916C
 10
-11.1164
 20
16.0799
 30
0.00000
  70
    32
  0
VERTEX
  8
COS
  5
916D
 10
-11.1431
 20
16.0916
 30
0.00000
  70
    32
  0
VERTEX
  8
COS
  5
916E
 10
-11.1696
 20
16.1037
 30
0.00000
  70
    32
  0
VERTEX
  8
COS
  5
916F
 10
-11.1960
 20
16.1161
 30
0.00000
  70
    32
  0
VERTEX
  8
COS
  5
9170
 10
-11.2223
 20
16.1288
 30
0.00000
  70
    32
  0
VERTEX
  8
COS
  5
9171
 10
-11.2484
 20
16.1419
 30
0.00000
  70
    32
  0
VERTEX
  8
COS
  5
9172
 10
-11.2743
 20
16.1552
 30
0.00000
  70
    32
  0
VERTEX
  8
COS
  5
9173
 10
-11.3000
 20
16.1689
 30
0.00000
  70
    32
  0
VERTEX
  8
COS
  5
9174
 10
-11.3256
 20
16.1829
 30
0.00000
  70
    32
  0
VERTEX
  8
COS
  5
9175
 10
-11.3510
 20
16.1972
 30
0.00000
  70
    32
  0
VERTEX
  8
COS
  5
9176
 10
-11.3762
 20
16.2119
 30
0.00000
  70
    32
  0
VERTEX
  8
COS
  5
9177
 10
-11.4012
 20
16.2268
 30
0.00000
  70
    32
  0
VERTEX
  8
COS
  5
9178
 10
-11.4261
 20
16.2420
 30
0.00000
  70
    32
  0
VERTEX
  8
COS
  5
9179
 10
-11.4507
 20
16.2576
 30
0.00000
  70
    32
  0
VERTEX
  8
COS
  5
917A
 10
-11.4752
 20
16.2734
 30
0.00000
  70
    32
  0
VERTEX
  8
COS
  5
917B
 10
-11.4994
 20
16.2896
 30
0.00000
  70
    32
  0
VERTEX
  8
COS
  5
917C
 10
-11.5235
 20
16.3061
 30
0.00000
  70
    32
  0
VERTEX
  8
COS
  5
917D
 10
-11.5473
 20
16.3228
 30
0.00000
  70
    32
  0
VERTEX
  8
COS
  5
917E
 10
-11.5710
 20
16.3398
 30
0.00000
  70
    32
  0
VERTEX
  8
COS
  5
917F
 10
-11.5944
 20
16.3572
 30
0.00000
  70
    32
  0
VERTEX
  8
COS
  5
9180
 10
-11.6176
 20
16.3748
 30
0.00000
  70
    32
  0
VERTEX
  8
COS
  5
9181
 10
-11.6406
 20
16.3927
 30
0.00000
  70
    32
  0
VERTEX
  8
COS
  5
9182
 10
-11.6633
 20
16.4109
 30
0.00000
  70
    32
  0
VERTEX
  8
COS
  5
9183
 10
-11.6858
 20
16.4294
 30
0.00000
  70
    32
  0
VERTEX
  8
COS
  5
9184
 10
-11.7081
 20
16.4481
 30
0.00000
  70
    32
  0
VERTEX
  8
COS
  5
9185
 10
-11.7302
 20
16.4672
 30
0.00000
  70
    32
  0
VERTEX
  8
COS
  5
9186
 10
-11.7520
 20
16.4865
 30
0.00000
  70
    32
  0
VERTEX
  8
COS
  5
9187
 10
-11.7736
 20
16.5060
 30
0.00000
  70
    32
  0
VERTEX
  8
COS
  5
9188
 10
-11.7950
 20
16.5259
 30
0.00000
  70
    32
  0
VERTEX
  8
COS
  5
9189
 10
-11.8160
 20
16.5459
 30
0.00000
  70
    32
  0
VERTEX
  8
COS
  5
918A
 10
-11.8369
 20
16.5663
 30
0.00000
  70
    32
  0
SEQEND
  8
COS
  5
918B
  0
LINE
  5
8DA9
  8
COS
 10
-26.3234820089900303
 20
30.8937497965406216
 30
0.0
 11
-11.8368785781702801
 21
16.5663017566960491
 31
0.0
  0
POLYLINE
  5
8DAA
  8
COS
 10
-26.3234820089900019
 20
30.8937497965406038
 30
0.0
 66
     1
 70
     8
  0
VERTEX
  8
COS
  5
918C
 10
-26.3235
 20
30.8937
 30
0.00000
  70
    32
  0
VERTEX
  8
COS
  5
918D
 10
-26.3441
 20
30.9144
 30
0.00000
  70
    32
  0
VERTEX
  8
COS
  5
918E
 10
-26.3644
 20
30.9352
 30
0.00000
  70
    32
  0
VERTEX
  8
COS
  5
918F
 10
-26.3845
 20
30.9563
 30
0.00000
  70
    32
  0
VERTEX
  8
COS
  5
9190
 10
-26.4043
 20
30.9777
 30
0.00000
  70
    32
  0
VERTEX
  8
COS
  5
9191
 10
-26.4238
 20
30.9993
 30
0.00000
  70
    32
  0
VERTEX
  8
COS
  5
9192
 10
-26.4431
 20
31.0212
 30
0.00000
  70
    32
  0
VERTEX
  8
COS
  5
9193
 10
-26.4621
 20
31.0433
 30
0.00000
  70
    32
  0
VERTEX
  8
COS
  5
9194
 10
-26.4808
 20
31.0656
 30
0.00000
  70
    32
  0
VERTEX
  8
COS
  5
9195
 10
-26.4992
 20
31.0881
 30
0.00000
  70
    32
  0
VERTEX
  8
COS
  5
9196
 10
-26.5174
 20
31.1109
 30
0.00000
  70
    32
  0
VERTEX
  8
COS
  5
9197
 10
-26.5353
 20
31.1339
 30
0.00000
  70
    32
  0
VERTEX
  8
COS
  5
9198
 10
-26.5529
 20
31.1571
 30
0.00000
  70
    32
  0
VERTEX
  8
COS
  5
9199
 10
-26.5702
 20
31.1806
 30
0.00000
  70
    32
  0
VERTEX
  8
COS
  5
919A
 10
-26.5872
 20
31.2042
 30
0.00000
  70
    32
  0
VERTEX
  8
COS
  5
919B
 10
-26.6039
 20
31.2281
 30
0.00000
  70
    32
  0
VERTEX
  8
COS
  5
919C
 10
-26.6203
 20
31.2522
 30
0.00000
  70
    32
  0
VERTEX
  8
COS
  5
919D
 10
-26.6364
 20
31.2765
 30
0.00000
  70
    32
  0
VERTEX
  8
COS
  5
919E
 10
-26.6523
 20
31.3009
 30
0.00000
  70
    32
  0
VERTEX
  8
COS
  5
919F
 10
-26.6678
 20
31.3256
 30
0.00000
  70
    32
  0
VERTEX
  8
COS
  5
91A0
 10
-26.6830
 20
31.3505
 30
0.00000
  70
    32
  0
VERTEX
  8
COS
  5
91A1
 10
-26.6979
 20
31.3755
 30
0.00000
  70
    32
  0
VERTEX
  8
COS
  5
91A2
 10
-26.7125
 20
31.4008
 30
0.00000
  70
    32
  0
VERTEX
  8
COS
  5
91A3
 10
-26.7268
 20
31.4262
 30
0.00000
  70
    32
  0
VERTEX
  8
COS
  5
91A4
 10
-26.7407
 20
31.4518
 30
0.00000
  70
    32
  0
VERTEX
  8
COS
  5
91A5
 10
-26.7544
 20
31.4775
 30
0.00000
  70
    32
  0
VERTEX
  8
COS
  5
91A6
 10
-26.7677
 20
31.5035
 30
0.00000
  70
    32
  0
VERTEX
  8
COS
  5
91A7
 10
-26.7807
 20
31.5296
 30
0.00000
  70
    32
  0
VERTEX
  8
COS
  5
91A8
 10
-26.7934
 20
31.5558
 30
0.00000
  70
    32
  0
VERTEX
  8
COS
  5
91A9
 10
-26.8058
 20
31.5823
 30
0.00000
  70
    32
  0
VERTEX
  8
COS
  5
91AA
 10
-26.8178
 20
31.6088
 30
0.00000
  70
    32
  0
VERTEX
  8
COS
  5
91AB
 10
-26.8295
 20
31.6355
 30
0.00000
  70
    32
  0
VERTEX
  8
COS
  5
91AC
 10
-26.8409
 20
31.6624
 30
0.00000
  70
    32
  0
VERTEX
  8
COS
  5
91AD
 10
-26.8519
 20
31.6894
 30
0.00000
  70
    32
  0
VERTEX
  8
COS
  5
91AE
 10
-26.8626
 20
31.7166
 30
0.00000
  70
    32
  0
VERTEX
  8
COS
  5
91AF
 10
-26.8730
 20
31.7438
 30
0.00000
  70
    32
  0
VERTEX
  8
COS
  5
91B0
 10
-26.8830
 20
31.7713
 30
0.00000
  70
    32
  0
VERTEX
  8
COS
  5
91B1
 10
-26.8927
 20
31.7988
 30
0.00000
  70
    32
  0
VERTEX
  8
COS
  5
91B2
 10
-26.9021
 20
31.8264
 30
0.00000
  70
    32
  0
VERTEX
  8
COS
  5
91B3
 10
-26.9111
 20
31.8542
 30
0.00000
  70
    32
  0
VERTEX
  8
COS
  5
91B4
 10
-26.9198
 20
31.8821
 30
0.00000
  70
    32
  0
VERTEX
  8
COS
  5
91B5
 10
-26.9281
 20
31.9101
 30
0.00000
  70
    32
  0
VERTEX
  8
COS
  5
91B6
 10
-26.9361
 20
31.9382
 30
0.00000
  70
    32
  0
VERTEX
  8
COS
  5
91B7
 10
-26.9438
 20
31.9664
 30
0.00000
  70
    32
  0
VERTEX
  8
COS
  5
91B8
 10
-26.9510
 20
31.9947
 30
0.00000
  70
    32
  0
VERTEX
  8
COS
  5
91B9
 10
-26.9580
 20
32.0230
 30
0.00000
  70
    32
  0
VERTEX
  8
COS
  5
91BA
 10
-26.9646
 20
32.0515
 30
0.00000
  70
    32
  0
VERTEX
  8
COS
  5
91BB
 10
-26.9708
 20
32.0801
 30
0.00000
  70
    32
  0
VERTEX
  8
COS
  5
91BC
 10
-26.9767
 20
32.1087
 30
0.00000
  70
    32
  0
VERTEX
  8
COS
  5
91BD
 10
-26.9823
 20
32.1374
 30
0.00000
  70
    32
  0
VERTEX
  8
COS
  5
91BE
 10
-26.9874
 20
32.1662
 30
0.00000
  70
    32
  0
VERTEX
  8
COS
  5
91BF
 10
-26.9923
 20
32.1950
 30
0.00000
  70
    32
  0
VERTEX
  8
COS
  5
91C0
 10
-26.9967
 20
32.2239
 30
0.00000
  70
    32
  0
VERTEX
  8
COS
  5
91C1
 10
-27.0009
 20
32.2528
 30
0.00000
  70
    32
  0
VERTEX
  8
COS
  5
91C2
 10
-27.0046
 20
32.2818
 30
0.00000
  70
    32
  0
VERTEX
  8
COS
  5
91C3
 10
-27.0080
 20
32.3109
 30
0.00000
  70
    32
  0
VERTEX
  8
COS
  5
91C4
 10
-27.0111
 20
32.3400
 30
0.00000
  70
    32
  0
VERTEX
  8
COS
  5
91C5
 10
-27.0138
 20
32.3691
 30
0.00000
  70
    32
  0
VERTEX
  8
COS
  5
91C6
 10
-27.0161
 20
32.3983
 30
0.00000
  70
    32
  0
VERTEX
  8
COS
  5
91C7
 10
-27.0181
 20
32.4275
 30
0.00000
  70
    32
  0
VERTEX
  8
COS
  5
91C8
 10
-27.0197
 20
32.4567
 30
0.00000
  70
    32
  0
VERTEX
  8
COS
  5
91C9
 10
-27.0210
 20
32.4860
 30
0.00000
  70
    32
  0
VERTEX
  8
COS
  5
91CA
 10
-27.0219
 20
32.5153
 30
0.00000
  70
    32
  0
VERTEX
  8
COS
  5
91CB
 10
-27.0224
 20
32.5445
 30
0.00000
  70
    32
  0
VERTEX
  8
COS
  5
91CC
 10
-27.0226
 20
32.5738
 30
0.00000
  70
    32
  0
VERTEX
  8
COS
  5
91CD
 10
-27.0224
 20
32.6031
 30
0.00000
  70
    32
  0
VERTEX
  8
COS
  5
91CE
 10
-27.0219
 20
32.6324
 30
0.00000
  70
    32
  0
VERTEX
  8
COS
  5
91CF
 10
-27.0210
 20
32.6617
 30
0.00000
  70
    32
  0
VERTEX
  8
COS
  5
91D0
 10
-27.0197
 20
32.6910
 30
0.00000
  70
    32
  0
VERTEX
  8
COS
  5
91D1
 10
-27.0181
 20
32.7202
 30
0.00000
  70
    32
  0
VERTEX
  8
COS
  5
91D2
 10
-27.0161
 20
32.7495
 30
0.00000
  70
    32
  0
VERTEX
  8
COS
  5
91D3
 10
-27.0138
 20
32.7787
 30
0.00000
  70
    32
  0
VERTEX
  8
COS
  5
91D4
 10
-27.0111
 20
32.8079
 30
0.00000
  70
    32
  0
VERTEX
  8
COS
  5
91D5
 10
-27.0080
 20
32.8371
 30
0.00000
  70
    32
  0
VERTEX
  8
COS
  5
91D6
 10
-27.0046
 20
32.8662
 30
0.00000
  70
    32
  0
VERTEX
  8
COS
  5
91D7
 10
-27.0009
 20
32.8953
 30
0.00000
  70
    32
  0
VERTEX
  8
COS
  5
91D8
 10
-26.9967
 20
32.9243
 30
0.00000
  70
    32
  0
VERTEX
  8
COS
  5
91D9
 10
-26.9923
 20
32.9533
 30
0.00000
  70
    32
  0
VERTEX
  8
COS
  5
91DA
 10
-26.9874
 20
32.9823
 30
0.00000
  70
    32
  0
VERTEX
  8
COS
  5
91DB
 10
-26.9823
 20
33.0112
 30
0.00000
  70
    32
  0
VERTEX
  8
COS
  5
91DC
 10
-26.9767
 20
33.0400
 30
0.00000
  70
    32
  0
VERTEX
  8
COS
  5
91DD
 10
-26.9708
 20
33.0687
 30
0.00000
  70
    32
  0
VERTEX
  8
COS
  5
91DE
 10
-26.9646
 20
33.0974
 30
0.00000
  70
    32
  0
VERTEX
  8
COS
  5
91DF
 10
-26.9580
 20
33.1260
 30
0.00000
  70
    32
  0
VERTEX
  8
COS
  5
91E0
 10
-26.9510
 20
33.1546
 30
0.00000
  70
    32
  0
VERTEX
  8
COS
  5
91E1
 10
-26.9438
 20
33.1830
 30
0.00000
  70
    32
  0
VERTEX
  8
COS
  5
91E2
 10
-26.9361
 20
33.2114
 30
0.00000
  70
    32
  0
VERTEX
  8
COS
  5
91E3
 10
-26.9281
 20
33.2397
 30
0.00000
  70
    32
  0
VERTEX
  8
COS
  5
91E4
 10
-26.9198
 20
33.2678
 30
0.00000
  70
    32
  0
VERTEX
  8
COS
  5
91E5
 10
-26.9111
 20
33.2959
 30
0.00000
  70
    32
  0
VERTEX
  8
COS
  5
91E6
 10
-26.9021
 20
33.3239
 30
0.00000
  70
    32
  0
VERTEX
  8
COS
  5
91E7
 10
-26.8927
 20
33.3517
 30
0.00000
  70
    32
  0
VERTEX
  8
COS
  5
91E8
 10
-26.8830
 20
33.3795
 30
0.00000
  70
    32
  0
VERTEX
  8
COS
  5
91E9
 10
-26.8730
 20
33.4071
 30
0.00000
  70
    32
  0
VERTEX
  8
COS
  5
91EA
 10
-26.8626
 20
33.4346
 30
0.00000
  70
    32
  0
VERTEX
  8
COS
  5
91EB
 10
-26.8519
 20
33.4620
 30
0.00000
  70
    32
  0
VERTEX
  8
COS
  5
91EC
 10
-26.8409
 20
33.4892
 30
0.00000
  70
    32
  0
VERTEX
  8
COS
  5
91ED
 10
-26.8295
 20
33.5164
 30
0.00000
  70
    32
  0
VERTEX
  8
COS
  5
91EE
 10
-26.8178
 20
33.5433
 30
0.00000
  70
    32
  0
VERTEX
  8
COS
  5
91EF
 10
-26.8058
 20
33.5702
 30
0.00000
  70
    32
  0
VERTEX
  8
COS
  5
91F0
 10
-26.7934
 20
33.5969
 30
0.00000
  70
    32
  0
VERTEX
  8
COS
  5
91F1
 10
-26.7807
 20
33.6234
 30
0.00000
  70
    32
  0
VERTEX
  8
COS
  5
91F2
 10
-26.7677
 20
33.6498
 30
0.00000
  70
    32
  0
VERTEX
  8
COS
  5
91F3
 10
-26.7544
 20
33.6760
 30
0.00000
  70
    32
  0
VERTEX
  8
COS
  5
91F4
 10
-26.7407
 20
33.7021
 30
0.00000
  70
    32
  0
VERTEX
  8
COS
  5
91F5
 10
-26.7268
 20
33.7280
 30
0.00000
  70
    32
  0
VERTEX
  8
COS
  5
91F6
 10
-26.7125
 20
33.7537
 30
0.00000
  70
    32
  0
VERTEX
  8
COS
  5
91F7
 10
-26.6979
 20
33.7793
 30
0.00000
  70
    32
  0
VERTEX
  8
COS
  5
91F8
 10
-26.6830
 20
33.8046
 30
0.00000
  70
    32
  0
VERTEX
  8
COS
  5
91F9
 10
-26.6678
 20
33.8298
 30
0.00000
  70
    32
  0
VERTEX
  8
COS
  5
91FA
 10
-26.6523
 20
33.8549
 30
0.00000
  70
    32
  0
VERTEX
  8
COS
  5
91FB
 10
-26.6364
 20
33.8797
 30
0.00000
  70
    32
  0
VERTEX
  8
COS
  5
91FC
 10
-26.6203
 20
33.9043
 30
0.00000
  70
    32
  0
VERTEX
  8
COS
  5
91FD
 10
-26.6039
 20
33.9287
 30
0.00000
  70
    32
  0
VERTEX
  8
COS
  5
91FE
 10
-26.5872
 20
33.9530
 30
0.00000
  70
    32
  0
VERTEX
  8
COS
  5
91FF
 10
-26.5702
 20
33.9770
 30
0.00000
  70
    32
  0
VERTEX
  8
COS
  5
9200
 10
-26.5529
 20
34.0008
 30
0.00000
  70
    32
  0
VERTEX
  8
COS
  5
9201
 10
-26.5353
 20
34.0244
 30
0.00000
  70
    32
  0
VERTEX
  8
COS
  5
9202
 10
-26.5174
 20
34.0478
 30
0.00000
  70
    32
  0
VERTEX
  8
COS
  5
9203
 10
-26.4992
 20
34.0710
 30
0.00000
  70
    32
  0
VERTEX
  8
COS
  5
9204
 10
-26.4808
 20
34.0940
 30
0.00000
  70
    32
  0
VERTEX
  8
COS
  5
9205
 10
-26.4621
 20
34.1167
 30
0.00000
  70
    32
  0
VERTEX
  8
COS
  5
9206
 10
-26.4431
 20
34.1392
 30
0.00000
  70
    32
  0
VERTEX
  8
COS
  5
9207
 10
-26.4238
 20
34.1615
 30
0.00000
  70
    32
  0
VERTEX
  8
COS
  5
9208
 10
-26.4043
 20
34.1835
 30
0.00000
  70
    32
  0
VERTEX
  8
COS
  5
9209
 10
-26.3845
 20
34.2053
 30
0.00000
  70
    32
  0
VERTEX
  8
COS
  5
920A
 10
-26.3644
 20
34.2269
 30
0.00000
  70
    32
  0
VERTEX
  8
COS
  5
920B
 10
-26.3441
 20
34.2482
 30
0.00000
  70
    32
  0
VERTEX
  8
COS
  5
920C
 10
-26.3235
 20
34.2693
 30
0.00000
  70
    32
  0
SEQEND
  8
COS
  5
920D
  0
LINE
  5
8DAB
  8
COS
 10
-11.8368785781702304
 20
48.9150278643517211
 30
0.0
 11
-26.3234820089900303
 21
34.2692690425568571
 31
0.0
  0
POLYLINE
  5
8DAC
  8
COS
 10
-11.8368785781701877
 20
48.9150278643516572
 30
0.0
 66
     1
 70
     8
  0
VERTEX
  8
COS
  5
920E
 10
-11.8369
 20
48.9150
 30
0.00000
  70
    32
  0
VERTEX
  8
COS
  5
920F
 10
-11.8160
 20
48.9358
 30
0.00000
  70
    32
  0
VERTEX
  8
COS
  5
9210
 10
-11.7950
 20
48.9564
 30
0.00000
  70
    32
  0
VERTEX
  8
COS
  5
9211
 10
-11.7736
 20
48.9767
 30
0.00000
  70
    32
  0
VERTEX
  8
COS
  5
9212
 10
-11.7520
 20
48.9967
 30
0.00000
  70
    32
  0
VERTEX
  8
COS
  5
9213
 10
-11.7302
 20
49.0165
 30
0.00000
  70
    32
  0
VERTEX
  8
COS
  5
9214
 10
-11.7081
 20
49.0360
 30
0.00000
  70
    32
  0
VERTEX
  8
COS
  5
9215
 10
-11.6858
 20
49.0553
 30
0.00000
  70
    32
  0
VERTEX
  8
COS
  5
9216
 10
-11.6633
 20
49.0742
 30
0.00000
  70
    32
  0
VERTEX
  8
COS
  5
9217
 10
-11.6406
 20
49.0929
 30
0.00000
  70
    32
  0
VERTEX
  8
COS
  5
9218
 10
-11.6176
 20
49.1113
 30
0.00000
  70
    32
  0
VERTEX
  8
COS
  5
9219
 10
-11.5944
 20
49.1295
 30
0.00000
  70
    32
  0
VERTEX
  8
COS
  5
921A
 10
-11.5710
 20
49.1473
 30
0.00000
  70
    32
  0
VERTEX
  8
COS
  5
921B
 10
-11.5473
 20
49.1649
 30
0.00000
  70
    32
  0
VERTEX
  8
COS
  5
921C
 10
-11.5235
 20
49.1822
 30
0.00000
  70
    32
  0
VERTEX
  8
COS
  5
921D
 10
-11.4994
 20
49.1991
 30
0.00000
  70
    32
  0
VERTEX
  8
COS
  5
921E
 10
-11.4752
 20
49.2158
 30
0.00000
  70
    32
  0
VERTEX
  8
COS
  5
921F
 10
-11.4507
 20
49.2322
 30
0.00000
  70
    32
  0
VERTEX
  8
COS
  5
9220
 10
-11.4261
 20
49.2483
 30
0.00000
  70
    32
  0
VERTEX
  8
COS
  5
9221
 10
-11.4012
 20
49.2641
 30
0.00000
  70
    32
  0
VERTEX
  8
COS
  5
9222
 10
-11.3762
 20
49.2796
 30
0.00000
  70
    32
  0
VERTEX
  8
COS
  5
9223
 10
-11.3510
 20
49.2948
 30
0.00000
  70
    32
  0
VERTEX
  8
COS
  5
9224
 10
-11.3256
 20
49.3097
 30
0.00000
  70
    32
  0
VERTEX
  8
COS
  5
9225
 10
-11.3000
 20
49.3242
 30
0.00000
  70
    32
  0
VERTEX
  8
COS
  5
9226
 10
-11.2743
 20
49.3385
 30
0.00000
  70
    32
  0
VERTEX
  8
COS
  5
9227
 10
-11.2484
 20
49.3524
 30
0.00000
  70
    32
  0
VERTEX
  8
COS
  5
9228
 10
-11.2223
 20
49.3660
 30
0.00000
  70
    32
  0
VERTEX
  8
COS
  5
9229
 10
-11.1960
 20
49.3793
 30
0.00000
  70
    32
  0
VERTEX
  8
COS
  5
922A
 10
-11.1696
 20
49.3923
 30
0.00000
  70
    32
  0
VERTEX
  8
COS
  5
922B
 10
-11.1431
 20
49.4049
 30
0.00000
  70
    32
  0
VERTEX
  8
COS
  5
922C
 10
-11.1164
 20
49.4173
 30
0.00000
  70
    32
  0
VERTEX
  8
COS
  5
922D
 10
-11.0895
 20
49.4293
 30
0.00000
  70
    32
  0
VERTEX
  8
COS
  5
922E
 10
-11.0625
 20
49.4409
 30
0.00000
  70
    32
  0
VERTEX
  8
COS
  5
922F
 10
-11.0354
 20
49.4523
 30
0.00000
  70
    32
  0
VERTEX
  8
COS
  5
9230
 10
-11.0081
 20
49.4633
 30
0.00000
  70
    32
  0
VERTEX
  8
COS
  5
9231
 10
-10.9807
 20
49.4740
 30
0.00000
  70
    32
  0
VERTEX
  8
COS
  5
9232
 10
-10.9532
 20
49.4843
 30
0.00000
  70
    32
  0
VERTEX
  8
COS
  5
9233
 10
-10.9256
 20
49.4943
 30
0.00000
  70
    32
  0
VERTEX
  8
COS
  5
9234
 10
-10.8978
 20
49.5040
 30
0.00000
  70
    32
  0
VERTEX
  8
COS
  5
9235
 10
-10.8700
 20
49.5133
 30
0.00000
  70
    32
  0
VERTEX
  8
COS
  5
9236
 10
-10.8420
 20
49.5223
 30
0.00000
  70
    32
  0
VERTEX
  8
COS
  5
9237
 10
-10.8139
 20
49.5309
 30
0.00000
  70
    32
  0
VERTEX
  8
COS
  5
9238
 10
-10.7857
 20
49.5392
 30
0.00000
  70
    32
  0
VERTEX
  8
COS
  5
9239
 10
-10.7574
 20
49.5472
 30
0.00000
  70
    32
  0
VERTEX
  8
COS
  5
923A
 10
-10.7291
 20
49.5548
 30
0.00000
  70
    32
  0
VERTEX
  8
COS
  5
923B
 10
-10.7006
 20
49.5620
 30
0.00000
  70
    32
  0
VERTEX
  8
COS
  5
923C
 10
-10.6721
 20
49.5689
 30
0.00000
  70
    32
  0
VERTEX
  8
COS
  5
923D
 10
-10.6435
 20
49.5755
 30
0.00000
  70
    32
  0
VERTEX
  8
COS
  5
923E
 10
-10.6148
 20
49.5817
 30
0.00000
  70
    32
  0
VERTEX
  8
COS
  5
923F
 10
-10.5860
 20
49.5875
 30
0.00000
  70
    32
  0
VERTEX
  8
COS
  5
9240
 10
-10.5572
 20
49.5930
 30
0.00000
  70
    32
  0
VERTEX
  8
COS
  5
9241
 10
-10.5283
 20
49.5982
 30
0.00000
  70
    32
  0
VERTEX
  8
COS
  5
9242
 10
-10.4993
 20
49.6030
 30
0.00000
  70
    32
  0
VERTEX
  8
COS
  5
9243
 10
-10.4703
 20
49.6074
 30
0.00000
  70
    32
  0
VERTEX
  8
COS
  5
9244
 10
-10.4413
 20
49.6115
 30
0.00000
  70
    32
  0
VERTEX
  8
COS
  5
9245
 10
-10.4122
 20
49.6152
 30
0.00000
  70
    32
  0
VERTEX
  8
COS
  5
9246
 10
-10.3831
 20
49.6186
 30
0.00000
  70
    32
  0
VERTEX
  8
COS
  5
9247
 10
-10.3539
 20
49.6216
 30
0.00000
  70
    32
  0
VERTEX
  8
COS
  5
9248
 10
-10.3247
 20
49.6243
 30
0.00000
  70
    32
  0
VERTEX
  8
COS
  5
9249
 10
-10.2955
 20
49.6266
 30
0.00000
  70
    32
  0
VERTEX
  8
COS
  5
924A
 10
-10.2662
 20
49.6285
 30
0.00000
  70
    32
  0
VERTEX
  8
COS
  5
924B
 10
-10.2370
 20
49.6301
 30
0.00000
  70
    32
  0
VERTEX
  8
COS
  5
924C
 10
-10.2077
 20
49.6313
 30
0.00000
  70
    32
  0
VERTEX
  8
COS
  5
924D
 10
-10.1784
 20
49.6322
 30
0.00000
  70
    32
  0
VERTEX
  8
COS
  5
924E
 10
-10.1491
 20
49.6327
 30
0.00000
  70
    32
  0
VERTEX
  8
COS
  5
924F
 10
-10.1198
 20
49.6328
 30
0.00000
  70
    32
  0
VERTEX
  8
COS
  5
9250
 10
-10.0905
 20
49.6326
 30
0.00000
  70
    32
  0
VERTEX
  8
COS
  5
9251
 10
-10.0613
 20
49.6320
 30
0.00000
  70
    32
  0
VERTEX
  8
COS
  5
9252
 10
-10.0320
 20
49.6311
 30
0.00000
  70
    32
  0
VERTEX
  8
COS
  5
9253
 10
-10.0028
 20
49.6298
 30
0.00000
  70
    32
  0
VERTEX
  8
COS
  5
9254
 10
-9.97353
 20
49.6281
 30
0.00000
  70
    32
  0
VERTEX
  8
COS
  5
9255
 10
-9.94433
 20
49.6261
 30
0.00000
  70
    32
  0
VERTEX
  8
COS
  5
9256
 10
-9.91517
 20
49.6237
 30
0.00000
  70
    32
  0
VERTEX
  8
COS
  5
9257
 10
-9.88603
 20
49.6210
 30
0.00000
  70
    32
  0
VERTEX
  8
COS
  5
9258
 10
-9.85694
 20
49.6179
 30
0.00000
  70
    32
  0
VERTEX
  8
COS
  5
9259
 10
-9.82789
 20
49.6145
 30
0.00000
  70
    32
  0
VERTEX
  8
COS
  5
925A
 10
-9.79889
 20
49.6107
 30
0.00000
  70
    32
  0
VERTEX
  8
COS
  5
925B
 10
-9.76995
 20
49.6065
 30
0.00000
  70
    32
  0
VERTEX
  8
COS
  5
925C
 10
-9.74106
 20
49.6020
 30
0.00000
  70
    32
  0
VERTEX
  8
COS
  5
925D
 10
-9.71223
 20
49.5971
 30
0.00000
  70
    32
  0
VERTEX
  8
COS
  5
925E
 10
-9.68347
 20
49.5919
 30
0.00000
  70
    32
  0
VERTEX
  8
COS
  5
925F
 10
-9.65477
 20
49.5863
 30
0.00000
  70
    32
  0
VERTEX
  8
COS
  5
9260
 10
-9.62616
 20
49.5804
 30
0.00000
  70
    32
  0
VERTEX
  8
COS
  5
9261
 10
-9.59762
 20
49.5741
 30
0.00000
  70
    32
  0
VERTEX
  8
COS
  5
9262
 10
-9.56916
 20
49.5675
 30
0.00000
  70
    32
  0
VERTEX
  8
COS
  5
9263
 10
-9.54079
 20
49.5605
 30
0.00000
  70
    32
  0
VERTEX
  8
COS
  5
9264
 10
-9.51251
 20
49.5532
 30
0.00000
  70
    32
  0
VERTEX
  8
COS
  5
9265
 10
-9.48433
 20
49.5455
 30
0.00000
  70
    32
  0
VERTEX
  8
COS
  5
9266
 10
-9.45625
 20
49.5375
 30
0.00000
  70
    32
  0
VERTEX
  8
COS
  5
9267
 10
-9.42828
 20
49.5291
 30
0.00000
  70
    32
  0
VERTEX
  8
COS
  5
9268
 10
-9.40041
 20
49.5204
 30
0.00000
  70
    32
  0
VERTEX
  8
COS
  5
9269
 10
-9.37265
 20
49.5114
 30
0.00000
  70
    32
  0
VERTEX
  8
COS
  5
926A
 10
-9.34501
 20
49.5020
 30
0.00000
  70
    32
  0
VERTEX
  8
COS
  5
926B
 10
-9.31749
 20
49.4922
 30
0.00000
  70
    32
  0
VERTEX
  8
COS
  5
926C
 10
-9.29010
 20
49.4822
 30
0.00000
  70
    32
  0
VERTEX
  8
COS
  5
926D
 10
-9.26284
 20
49.4718
 30
0.00000
  70
    32
  0
VERTEX
  8
COS
  5
926E
 10
-9.23571
 20
49.4610
 30
0.00000
  70
    32
  0
VERTEX
  8
COS
  5
926F
 10
-9.20872
 20
49.4499
 30
0.00000
  70
    32
  0
VERTEX
  8
COS
  5
9270
 10
-9.18187
 20
49.4385
 30
0.00000
  70
    32
  0
VERTEX
  8
COS
  5
9271
 10
-9.15516
 20
49.4268
 30
0.00000
  70
    32
  0
VERTEX
  8
COS
  5
9272
 10
-9.12861
 20
49.4147
 30
0.00000
  70
    32
  0
VERTEX
  8
COS
  5
9273
 10
-9.10221
 20
49.4023
 30
0.00000
  70
    32
  0
VERTEX
  8
COS
  5
9274
 10
-9.07596
 20
49.3896
 30
0.00000
  70
    32
  0
VERTEX
  8
COS
  5
9275
 10
-9.04988
 20
49.3766
 30
0.00000
  70
    32
  0
VERTEX
  8
COS
  5
9276
 10
-9.02396
 20
49.3632
 30
0.00000
  70
    32
  0
VERTEX
  8
COS
  5
9277
 10
-8.99822
 20
49.3495
 30
0.00000
  70
    32
  0
VERTEX
  8
COS
  5
9278
 10
-8.97264
 20
49.3355
 30
0.00000
  70
    32
  0
VERTEX
  8
COS
  5
9279
 10
-8.94725
 20
49.3212
 30
0.00000
  70
    32
  0
VERTEX
  8
COS
  5
927A
 10
-8.92203
 20
49.3066
 30
0.00000
  70
    32
  0
VERTEX
  8
COS
  5
927B
 10
-8.89700
 20
49.2916
 30
0.00000
  70
    32
  0
VERTEX
  8
COS
  5
927C
 10
-8.87216
 20
49.2764
 30
0.00000
  70
    32
  0
VERTEX
  8
COS
  5
927D
 10
-8.84751
 20
49.2608
 30
0.00000
  70
    32
  0
VERTEX
  8
COS
  5
927E
 10
-8.82305
 20
49.2450
 30
0.00000
  70
    32
  0
VERTEX
  8
COS
  5
927F
 10
-8.79880
 20
49.2288
 30
0.00000
  70
    32
  0
VERTEX
  8
COS
  5
9280
 10
-8.77475
 20
49.2124
 30
0.00000
  70
    32
  0
VERTEX
  8
COS
  5
9281
 10
-8.75091
 20
49.1956
 30
0.00000
  70
    32
  0
VERTEX
  8
COS
  5
9282
 10
-8.72727
 20
49.1786
 30
0.00000
  70
    32
  0
VERTEX
  8
COS
  5
9283
 10
-8.70385
 20
49.1612
 30
0.00000
  70
    32
  0
VERTEX
  8
COS
  5
9284
 10
-8.68065
 20
49.1436
 30
0.00000
  70
    32
  0
VERTEX
  8
COS
  5
9285
 10
-8.65767
 20
49.1257
 30
0.00000
  70
    32
  0
VERTEX
  8
COS
  5
9286
 10
-8.63492
 20
49.1075
 30
0.00000
  70
    32
  0
VERTEX
  8
COS
  5
9287
 10
-8.61239
 20
49.0890
 30
0.00000
  70
    32
  0
VERTEX
  8
COS
  5
9288
 10
-8.59009
 20
49.0703
 30
0.00000
  70
    32
  0
VERTEX
  8
COS
  5
9289
 10
-8.56803
 20
49.0513
 30
0.00000
  70
    32
  0
VERTEX
  8
COS
  5
928A
 10
-8.54621
 20
49.0320
 30
0.00000
  70
    32
  0
VERTEX
  8
COS
  5
928B
 10
-8.52462
 20
49.0124
 30
0.00000
  70
    32
  0
VERTEX
  8
COS
  5
928C
 10
-8.50329
 20
48.9926
 30
0.00000
  70
    32
  0
VERTEX
  8
COS
  5
928D
 10
-8.48220
 20
48.9725
 30
0.00000
  70
    32
  0
VERTEX
  8
COS
  5
928E
 10
-8.46136
 20
48.9521
 30
0.00000
  70
    32
  0
SEQEND
  8
COS
  5
928F
  0
LINE
  5
8DAE
  8
COS
 10
5.0347623038959446
 20
35.6097331746180004
 30
0.0
 11
6.029873274203962
 21
34.6200735263254273
 31
0.0
  0
POLYLINE
  5
8DB0
  8
COS
 10
-11.5501736043902561
 20
50.7423159454585289
 30
0.0
 66
     1
 70
     8
  0
VERTEX
  8
COS
  5
9290
 10
-11.5502
 20
50.7423
 30
0.00000
  70
    32
  0
VERTEX
  8
COS
  5
9291
 10
-11.5470
 20
50.7418
 30
0.00000
  70
    32
  0
VERTEX
  8
COS
  5
9292
 10
-11.5438
 20
50.7412
 30
0.00000
  70
    32
  0
VERTEX
  8
COS
  5
9293
 10
-11.5407
 20
50.7407
 30
0.00000
  70
    32
  0
VERTEX
  8
COS
  5
9294
 10
-11.5375
 20
50.7401
 30
0.00000
  70
    32
  0
VERTEX
  8
COS
  5
9295
 10
-11.5344
 20
50.7395
 30
0.00000
  70
    32
  0
VERTEX
  8
COS
  5
9296
 10
-11.5312
 20
50.7390
 30
0.00000
  70
    32
  0
VERTEX
  8
COS
  5
9297
 10
-11.5281
 20
50.7384
 30
0.00000
  70
    32
  0
VERTEX
  8
COS
  5
9298
 10
-11.5249
 20
50.7378
 30
0.00000
  70
    32
  0
VERTEX
  8
COS
  5
9299
 10
-11.5217
 20
50.7372
 30
0.00000
  70
    32
  0
VERTEX
  8
COS
  5
929A
 10
-11.5186
 20
50.7366
 30
0.00000
  70
    32
  0
VERTEX
  8
COS
  5
929B
 10
-11.5154
 20
50.7360
 30
0.00000
  70
    32
  0
VERTEX
  8
COS
  5
929C
 10
-11.5123
 20
50.7354
 30
0.00000
  70
    32
  0
VERTEX
  8
COS
  5
929D
 10
-11.5091
 20
50.7348
 30
0.00000
  70
    32
  0
VERTEX
  8
COS
  5
929E
 10
-11.5060
 20
50.7342
 30
0.00000
  70
    32
  0
VERTEX
  8
COS
  5
929F
 10
-11.5028
 20
50.7335
 30
0.00000
  70
    32
  0
VERTEX
  8
COS
  5
92A0
 10
-11.4997
 20
50.7329
 30
0.00000
  70
    32
  0
VERTEX
  8
COS
  5
92A1
 10
-11.4966
 20
50.7323
 30
0.00000
  70
    32
  0
VERTEX
  8
COS
  5
92A2
 10
-11.4934
 20
50.7316
 30
0.00000
  70
    32
  0
VERTEX
  8
COS
  5
92A3
 10
-11.4903
 20
50.7310
 30
0.00000
  70
    32
  0
VERTEX
  8
COS
  5
92A4
 10
-11.4871
 20
50.7303
 30
0.00000
  70
    32
  0
VERTEX
  8
COS
  5
92A5
 10
-11.4840
 20
50.7296
 30
0.00000
  70
    32
  0
VERTEX
  8
COS
  5
92A6
 10
-11.4809
 20
50.7289
 30
0.00000
  70
    32
  0
VERTEX
  8
COS
  5
92A7
 10
-11.4777
 20
50.7283
 30
0.00000
  70
    32
  0
VERTEX
  8
COS
  5
92A8
 10
-11.4746
 20
50.7276
 30
0.00000
  70
    32
  0
VERTEX
  8
COS
  5
92A9
 10
-11.4715
 20
50.7269
 30
0.00000
  70
    32
  0
VERTEX
  8
COS
  5
92AA
 10
-11.4683
 20
50.7262
 30
0.00000
  70
    32
  0
VERTEX
  8
COS
  5
92AB
 10
-11.4652
 20
50.7255
 30
0.00000
  70
    32
  0
VERTEX
  8
COS
  5
92AC
 10
-11.4621
 20
50.7248
 30
0.00000
  70
    32
  0
VERTEX
  8
COS
  5
92AD
 10
-11.4590
 20
50.7240
 30
0.00000
  70
    32
  0
VERTEX
  8
COS
  5
92AE
 10
-11.4558
 20
50.7233
 30
0.00000
  70
    32
  0
VERTEX
  8
COS
  5
92AF
 10
-11.4527
 20
50.7226
 30
0.00000
  70
    32
  0
VERTEX
  8
COS
  5
92B0
 10
-11.4496
 20
50.7219
 30
0.00000
  70
    32
  0
VERTEX
  8
COS
  5
92B1
 10
-11.4465
 20
50.7211
 30
0.00000
  70
    32
  0
VERTEX
  8
COS
  5
92B2
 10
-11.4433
 20
50.7204
 30
0.00000
  70
    32
  0
VERTEX
  8
COS
  5
92B3
 10
-11.4402
 20
50.7196
 30
0.00000
  70
    32
  0
VERTEX
  8
COS
  5
92B4
 10
-11.4371
 20
50.7188
 30
0.00000
  70
    32
  0
VERTEX
  8
COS
  5
92B5
 10
-11.4340
 20
50.7181
 30
0.00000
  70
    32
  0
VERTEX
  8
COS
  5
92B6
 10
-11.4309
 20
50.7173
 30
0.00000
  70
    32
  0
VERTEX
  8
COS
  5
92B7
 10
-11.4278
 20
50.7165
 30
0.00000
  70
    32
  0
VERTEX
  8
COS
  5
92B8
 10
-11.4247
 20
50.7157
 30
0.00000
  70
    32
  0
VERTEX
  8
COS
  5
92B9
 10
-11.4216
 20
50.7149
 30
0.00000
  70
    32
  0
VERTEX
  8
COS
  5
92BA
 10
-11.4185
 20
50.7141
 30
0.00000
  70
    32
  0
VERTEX
  8
COS
  5
92BB
 10
-11.4154
 20
50.7133
 30
0.00000
  70
    32
  0
VERTEX
  8
COS
  5
92BC
 10
-11.4123
 20
50.7125
 30
0.00000
  70
    32
  0
VERTEX
  8
COS
  5
92BD
 10
-11.4092
 20
50.7117
 30
0.00000
  70
    32
  0
VERTEX
  8
COS
  5
92BE
 10
-11.4061
 20
50.7109
 30
0.00000
  70
    32
  0
VERTEX
  8
COS
  5
92BF
 10
-11.4030
 20
50.7100
 30
0.00000
  70
    32
  0
VERTEX
  8
COS
  5
92C0
 10
-11.3999
 20
50.7092
 30
0.00000
  70
    32
  0
VERTEX
  8
COS
  5
92C1
 10
-11.3968
 20
50.7083
 30
0.00000
  70
    32
  0
VERTEX
  8
COS
  5
92C2
 10
-11.3937
 20
50.7075
 30
0.00000
  70
    32
  0
VERTEX
  8
COS
  5
92C3
 10
-11.3906
 20
50.7066
 30
0.00000
  70
    32
  0
VERTEX
  8
COS
  5
92C4
 10
-11.3875
 20
50.7058
 30
0.00000
  70
    32
  0
VERTEX
  8
COS
  5
92C5
 10
-11.3844
 20
50.7049
 30
0.00000
  70
    32
  0
VERTEX
  8
COS
  5
92C6
 10
-11.3813
 20
50.7040
 30
0.00000
  70
    32
  0
VERTEX
  8
COS
  5
92C7
 10
-11.3782
 20
50.7031
 30
0.00000
  70
    32
  0
VERTEX
  8
COS
  5
92C8
 10
-11.3752
 20
50.7023
 30
0.00000
  70
    32
  0
VERTEX
  8
COS
  5
92C9
 10
-11.3721
 20
50.7014
 30
0.00000
  70
    32
  0
VERTEX
  8
COS
  5
92CA
 10
-11.3690
 20
50.7005
 30
0.00000
  70
    32
  0
VERTEX
  8
COS
  5
92CB
 10
-11.3659
 20
50.6996
 30
0.00000
  70
    32
  0
VERTEX
  8
COS
  5
92CC
 10
-11.3629
 20
50.6986
 30
0.00000
  70
    32
  0
VERTEX
  8
COS
  5
92CD
 10
-11.3598
 20
50.6977
 30
0.00000
  70
    32
  0
VERTEX
  8
COS
  5
92CE
 10
-11.3567
 20
50.6968
 30
0.00000
  70
    32
  0
VERTEX
  8
COS
  5
92CF
 10
-11.3537
 20
50.6959
 30
0.00000
  70
    32
  0
VERTEX
  8
COS
  5
92D0
 10
-11.3506
 20
50.6949
 30
0.00000
  70
    32
  0
VERTEX
  8
COS
  5
92D1
 10
-11.3475
 20
50.6940
 30
0.00000
  70
    32
  0
VERTEX
  8
COS
  5
92D2
 10
-11.3445
 20
50.6930
 30
0.00000
  70
    32
  0
VERTEX
  8
COS
  5
92D3
 10
-11.3414
 20
50.6921
 30
0.00000
  70
    32
  0
VERTEX
  8
COS
  5
92D4
 10
-11.3384
 20
50.6911
 30
0.00000
  70
    32
  0
VERTEX
  8
COS
  5
92D5
 10
-11.3353
 20
50.6901
 30
0.00000
  70
    32
  0
VERTEX
  8
COS
  5
92D6
 10
-11.3322
 20
50.6892
 30
0.00000
  70
    32
  0
VERTEX
  8
COS
  5
92D7
 10
-11.3292
 20
50.6882
 30
0.00000
  70
    32
  0
VERTEX
  8
COS
  5
92D8
 10
-11.3261
 20
50.6872
 30
0.00000
  70
    32
  0
VERTEX
  8
COS
  5
92D9
 10
-11.3231
 20
50.6862
 30
0.00000
  70
    32
  0
VERTEX
  8
COS
  5
92DA
 10
-11.3201
 20
50.6852
 30
0.00000
  70
    32
  0
VERTEX
  8
COS
  5
92DB
 10
-11.3170
 20
50.6842
 30
0.00000
  70
    32
  0
VERTEX
  8
COS
  5
92DC
 10
-11.3140
 20
50.6832
 30
0.00000
  70
    32
  0
VERTEX
  8
COS
  5
92DD
 10
-11.3109
 20
50.6822
 30
0.00000
  70
    32
  0
VERTEX
  8
COS
  5
92DE
 10
-11.3079
 20
50.6811
 30
0.00000
  70
    32
  0
VERTEX
  8
COS
  5
92DF
 10
-11.3049
 20
50.6801
 30
0.00000
  70
    32
  0
VERTEX
  8
COS
  5
92E0
 10
-11.3018
 20
50.6791
 30
0.00000
  70
    32
  0
VERTEX
  8
COS
  5
92E1
 10
-11.2988
 20
50.6780
 30
0.00000
  70
    32
  0
VERTEX
  8
COS
  5
92E2
 10
-11.2958
 20
50.6770
 30
0.00000
  70
    32
  0
VERTEX
  8
COS
  5
92E3
 10
-11.2927
 20
50.6759
 30
0.00000
  70
    32
  0
VERTEX
  8
COS
  5
92E4
 10
-11.2897
 20
50.6749
 30
0.00000
  70
    32
  0
VERTEX
  8
COS
  5
92E5
 10
-11.2867
 20
50.6738
 30
0.00000
  70
    32
  0
VERTEX
  8
COS
  5
92E6
 10
-11.2837
 20
50.6727
 30
0.00000
  70
    32
  0
VERTEX
  8
COS
  5
92E7
 10
-11.2807
 20
50.6716
 30
0.00000
  70
    32
  0
VERTEX
  8
COS
  5
92E8
 10
-11.2777
 20
50.6705
 30
0.00000
  70
    32
  0
VERTEX
  8
COS
  5
92E9
 10
-11.2746
 20
50.6694
 30
0.00000
  70
    32
  0
VERTEX
  8
COS
  5
92EA
 10
-11.2716
 20
50.6683
 30
0.00000
  70
    32
  0
VERTEX
  8
COS
  5
92EB
 10
-11.2686
 20
50.6672
 30
0.00000
  70
    32
  0
VERTEX
  8
COS
  5
92EC
 10
-11.2656
 20
50.6661
 30
0.00000
  70
    32
  0
VERTEX
  8
COS
  5
92ED
 10
-11.2626
 20
50.6650
 30
0.00000
  70
    32
  0
VERTEX
  8
COS
  5
92EE
 10
-11.2596
 20
50.6639
 30
0.00000
  70
    32
  0
VERTEX
  8
COS
  5
92EF
 10
-11.2566
 20
50.6628
 30
0.00000
  70
    32
  0
VERTEX
  8
COS
  5
92F0
 10
-11.2536
 20
50.6616
 30
0.00000
  70
    32
  0
VERTEX
  8
COS
  5
92F1
 10
-11.2506
 20
50.6605
 30
0.00000
  70
    32
  0
VERTEX
  8
COS
  5
92F2
 10
-11.2476
 20
50.6593
 30
0.00000
  70
    32
  0
VERTEX
  8
COS
  5
92F3
 10
-11.2446
 20
50.6582
 30
0.00000
  70
    32
  0
VERTEX
  8
COS
  5
92F4
 10
-11.2417
 20
50.6570
 30
0.00000
  70
    32
  0
VERTEX
  8
COS
  5
92F5
 10
-11.2387
 20
50.6559
 30
0.00000
  70
    32
  0
VERTEX
  8
COS
  5
92F6
 10
-11.2357
 20
50.6547
 30
0.00000
  70
    32
  0
VERTEX
  8
COS
  5
92F7
 10
-11.2327
 20
50.6535
 30
0.00000
  70
    32
  0
VERTEX
  8
COS
  5
92F8
 10
-11.2297
 20
50.6523
 30
0.00000
  70
    32
  0
VERTEX
  8
COS
  5
92F9
 10
-11.2268
 20
50.6511
 30
0.00000
  70
    32
  0
VERTEX
  8
COS
  5
92FA
 10
-11.2238
 20
50.6499
 30
0.00000
  70
    32
  0
VERTEX
  8
COS
  5
92FB
 10
-11.2208
 20
50.6487
 30
0.00000
  70
    32
  0
VERTEX
  8
COS
  5
92FC
 10
-11.2179
 20
50.6475
 30
0.00000
  70
    32
  0
VERTEX
  8
COS
  5
92FD
 10
-11.2149
 20
50.6463
 30
0.00000
  70
    32
  0
VERTEX
  8
COS
  5
92FE
 10
-11.2119
 20
50.6451
 30
0.00000
  70
    32
  0
VERTEX
  8
COS
  5
92FF
 10
-11.2090
 20
50.6439
 30
0.00000
  70
    32
  0
VERTEX
  8
COS
  5
9300
 10
-11.2060
 20
50.6426
 30
0.00000
  70
    32
  0
VERTEX
  8
COS
  5
9301
 10
-11.2031
 20
50.6414
 30
0.00000
  70
    32
  0
VERTEX
  8
COS
  5
9302
 10
-11.2001
 20
50.6402
 30
0.00000
  70
    32
  0
VERTEX
  8
COS
  5
9303
 10
-11.1972
 20
50.6389
 30
0.00000
  70
    32
  0
VERTEX
  8
COS
  5
9304
 10
-11.1942
 20
50.6377
 30
0.00000
  70
    32
  0
VERTEX
  8
COS
  5
9305
 10
-11.1913
 20
50.6364
 30
0.00000
  70
    32
  0
VERTEX
  8
COS
  5
9306
 10
-11.1883
 20
50.6351
 30
0.00000
  70
    32
  0
VERTEX
  8
COS
  5
9307
 10
-11.1854
 20
50.6338
 30
0.00000
  70
    32
  0
VERTEX
  8
COS
  5
9308
 10
-11.1825
 20
50.6326
 30
0.00000
  70
    32
  0
VERTEX
  8
COS
  5
9309
 10
-11.1795
 20
50.6313
 30
0.00000
  70
    32
  0
VERTEX
  8
COS
  5
930A
 10
-11.1766
 20
50.6300
 30
0.00000
  70
    32
  0
VERTEX
  8
COS
  5
930B
 10
-11.1737
 20
50.6287
 30
0.00000
  70
    32
  0
VERTEX
  8
COS
  5
930C
 10
-11.1707
 20
50.6274
 30
0.00000
  70
    32
  0
VERTEX
  8
COS
  5
930D
 10
-11.1678
 20
50.6261
 30
0.00000
  70
    32
  0
VERTEX
  8
COS
  5
930E
 10
-11.1649
 20
50.6248
 30
0.00000
  70
    32
  0
VERTEX
  8
COS
  5
930F
 10
-11.1620
 20
50.6234
 30
0.00000
  70
    32
  0
VERTEX
  8
COS
  5
9310
 10
-11.1591
 20
50.6221
 30
0.00000
  70
    32
  0
SEQEND
  8
COS
  5
9311
  0
LINE
  5
8DC9
  8
COTES
 10
-310.2604522580299999
 20
75.9966130786438896
 30
0.0
 11
-338.6019428463063718
 21
75.9966130786438896
 31
0.0
  0
LINE
  5
8DCA
  8
COTES
 10
-310.2604522580299999
 20
25.996613078643751
 30
0.0
 11
-338.6019428463063718
 21
25.9966130786437404
 31
0.0
  0
LINE
  5
8DCB
  8
COTES
 10
-337.6019428463063718
 20
73.4966130786438896
 30
0.0
 11
-337.6019428463063718
 21
28.4966130786437404
 31
0.0
  0
SOLID
  5
8DCC
  8
COTES
 10
-337.1852761796397999
 20
73.4966130786438896
 30
0.0
 11
-338.0186095129731143
 21
73.4966130786438896
 31
0.0
 12
-337.6019428463063718
 22
75.9966130786438896
 32
0.0
 13
-337.6019428463063718
 23
75.9966130786438896
 33
0.0
  0
SOLID
  5
8DCD
  8
COTES
 10
-337.1852761796397999
 20
28.4966130786437404
 30
0.0
 11
-338.0186095129731143
 21
28.4966130786437404
 31
0.0
 12
-337.6019428463063718
 22
25.9966130786437404
 32
0.0
 13
-337.6019428463063718
 23
25.9966130786437404
 33
0.0
  0
INSERT
  5
8DCE
  8
0
  2
*U1
 10
0.0
 20
0.0
 30
0.0
  0
LINE
  5
8DCF
  8
COTES
 10
-309.2604522580299999
 20
24.996613078643751
 30
0.0
 11
-309.2604522580299999
 21
-17.3372215176233908
 31
0.0
  0
LINE
  5
8DD0
  8
COTES
 10
-8.9010852206913551
 20
15.8878471792778502
 30
0.0
 11
-8.9010852206913551
 21
-17.3372215176233908
 31
0.0
  0
LINE
  5
8DD1
  8
COTES
 10
-306.7604522580299999
 20
-16.3372215176233908
 30
0.0
 11
-11.4010852206913604
 21
-16.3372215176233908
 31
0.0
  0
SOLID
  5
8DD2
  8
COTES
 10
-306.7604522580299999
 20
-15.9205548509567194
 30
0.0
 11
-306.7604522580299999
 21
-16.7538881842900587
 31
0.0
 12
-309.2604522580299999
 22
-16.3372215176233908
 32
0.0
 13
-309.2604522580299999
 23
-16.3372215176233908
 33
0.0
  0
SOLID
  5
8DD3
  8
COTES
 10
-11.4010852206913604
 20
-15.9205548509567194
 30
0.0
 11
-11.4010852206913604
 21
-16.7538881842900587
 31
0.0
 12
-8.9010852206913551
 22
-16.3372215176233908
 32
0.0
 13
-8.9010852206913551
 23
-16.3372215176233908
 33
0.0
  0
INSERT
  5
8DD4
  8
0
  2
*U2
 10
0.0
 20
0.0
 30
0.0
  0
LINE
  5
8DD5
  8
COTES
 10
-36.0520401446485721
 20
75.9966130786439038
 30
0.0
 11
29.4074162456590784
 21
75.9966130786439464
 31
0.0
  0
LINE
  5
8DD6
  8
COTES
 10
-9.1425639688661136
 20
15.8858322230253393
 30
0.0
 11
29.4074162456590784
 21
15.8858322230253499
 31
0.0
  0
LINE
  5
8DD7
  8
COTES
 10
28.4074162456590784
 20
73.4966130786439464
 30
0.0
 11
28.4074162456590784
 21
18.3858322230253393
 31
0.0
  0
SOLID
  5
8DD8
  8
COTES
 10
28.8240829123257711
 20
73.4966130786439464
 30
0.0
 11
27.9907495789923892
 21
73.4966130786439464
 31
0.0
 12
28.4074162456590784
 22
75.9966130786439464
 32
0.0
 13
28.4074162456590784
 23
75.9966130786439464
 33
0.0
  0
SOLID
  5
8DD9
  8
COTES
 10
28.8240829123257711
 20
18.3858322230253393
 30
0.0
 11
27.9907495789923892
 21
18.3858322230253393
 31
0.0
 12
28.4074162456590784
 22
15.8858322230253499
 32
0.0
 13
28.4074162456590784
 23
15.8858322230253499
 33
0.0
  0
INSERT
  5
8DDA
  8
0
  2
*U3
 10
0.0
 20
0.0
 30
0.0
  0
LINE
  5
8DDB
  8
COTES
 10
6.7284773325651468
 20
31.9601045541719806
 30
0.0
 11
10.5168478442694795
 21
35.7900955597918511
 31
0.0
  0
ARC
  5
8DDC
  8
COTES
 10
-9.1711159581416268
 20
15.8858322230253393
 30
0.0
 40
26.9963500775440011
 50
5.3077797662303379
 51
40.0052343789964269
  0
SOLID
  5
8DDD
  8
COTES
 10
11.8141185279857801
 20
33.5229887888296787
 30
0.0
 11
11.2012866794954107
 21
32.9582927910395398
 31
0.0
 12
9.8136146103701076
 22
35.0791363354059627
 32
0.0
 13
9.8136146103701076
 23
35.0791363354059627
 33
0.0
  0
SOLID
  5
8DDE
  8
COTES
 10
17.2932579548186709
 20
18.3638581452920704
 30
0.0
 11
18.125697506071841
 21
18.4024436082777889
 31
0.0
 12
17.8252341194024098
 22
15.8858322230253393
 32
0.0
 13
17.8252341194024098
 23
15.8858322230253393
 33
0.0
  0
INSERT
  5
8DDF
  8
0
  2
*U4
 10
0.0
 20
0.0
 30
0.0
  0
VIEWPORT
  5
2F8F
 67
     1
  8
0
 10
128.5
 20
97.5
 30
0.0
 40
355.6624869109946872
 41
222.1800000000000068
 68
     1
 69
     1
1001
ACAD
1000
MVIEW
1002
{
1070
    16
1010
0.0
1020
0.0
1030
0.0
1010
0.0
1020
0.0
1030
1.0
1040
0.0
1040
222.1800000000000068
1040
128.5
1040
97.5
1040
50.0
1040
0.0
1040
0.0
1070
     0
1070
  1000
1070
     1
1070
     1
1070
     0
1070
     0
1070
     0
1070
     0
1040
0.0
1040
0.0
1040
0.0
1040
10.0
1040
10.0
1040
10.0
1040
10.0
1070
     0
1002
{
1002
}
1002
}
  0
VIEWPORT
  5
2F93
 67
     1
  8
COTES
 10
128.5
 20
97.5
 30
0.0
 40
205.5999999999999943
 41
156.0
 68
     2
 69
     2
1001
ACAD
1000
MVIEW
1002
{
1070
    16
1010
0.0
1020
0.0
1030
0.0
1010
0.0
1020
0.0
1030
1.0
1040
0.0
1040
233.4971795724864876
1040
21739.342280751629005
1040
-1809.738570137672923
1040
50.0
1040
0.0
1040
0.0
1070
     0
1070
  1000
1070
     1
1070
     3
1070
     0
1070
     0
1070
     0
1070
     0
1040
0.0
1040
0.0
1040
0.0
1040
10.0
1040
10.0
1040
10.0
1040
10.0
1070
     0
1002
{
1002
}
1002
}
  0
ENDSEC
  0
EOF
