  0
SECTION
  2
HEADER
  9
$ACADVER
  1
AC1009
  9
$INSBASE
 10
0.0
 20
0.0
 30
0.0
  9
$EXTMIN
 10
-316.3954091079792761
 20
-54.2748879040415488
 30
0.0
  9
$EXTMAX
 10
-14.4066430085799198
 20
49.5904054749944407
 30
0.0
  9
$LIMMIN
 10
0.0
 20
0.0
  9
$LIMMAX
 10
420.0
 20
297.0
  9
$ORTHOMODE
 70
     1
  9
$REGENMODE
 70
     1
  9
$FILLMODE
 70
     1
  9
$QTEXTMODE
 70
     0
  9
$MIRRTEXT
 70
     0
  9
$DRAGMODE
 70
     2
  9
$LTSCALE
 40
10.0
  9
$OSMODE
 70
  4095
  9
$ATTMODE
 70
     1
  9
$TEXTSIZE
 40
2.5
  9
$TRACEWID
 40
1.0
  9
$TEXTSTYLE
  7
STANDARD
  9
$CLAYER
  8
COTES
  9
$CELTYPE
  6
BYLAYER
  9
$CECOLOR
 62
   256
  9
$DIMSCALE
 40
1.0
  9
$DIMASZ
 40
2.5
  9
$DIMEXO
 40
1.0
  9
$DIMDLI
 40
1.0
  9
$DIMRND
 40
0.0
  9
$DIMDLE
 40
0.0
  9
$DIMEXE
 40
1.0
  9
$DIMTP
 40
0.0
  9
$DIMTM
 40
0.0
  9
$DIMTXT
 40
2.5
  9
$DIMCEN
 40
2.5
  9
$DIMTSZ
 40
0.0
  9
$DIMTOL
 70
     0
  9
$DIMLIM
 70
     0
  9
$DIMTIH
 70
     0
  9
$DIMTOH
 70
     0
  9
$DIMSE1
 70
     0
  9
$DIMSE2
 70
     0
  9
$DIMTAD
 70
     1
  9
$DIMZIN
 70
    10
  9
$DIMBLK
  1

  9
$DIMASO
 70
     0
  9
$DIMSHO
 70
     1
  9
$DIMPOST
  1

  9
$DIMAPOST
  1

  9
$DIMALT
 70
     0
  9
$DIMALTD
 70
     3
  9
$DIMALTF
 40
0.03937007874016
  9
$DIMLFAC
 40
1.0
  9
$DIMTOFL
 70
     1
  9
$DIMTVP
 40
0.0
  9
$DIMTIX
 70
     0
  9
$DIMSOXD
 70
     0
  9
$DIMSAH
 70
     0
  9
$DIMBLK1
  1

  9
$DIMBLK2
  1

  9
$DIMSTYLE
  2
ISO-25
  9
$DIMCLRD
 70
     0
  9
$DIMCLRE
 70
     0
  9
$DIMCLRT
 70
     0
  9
$DIMTFAC
 40
1.0
  9
$DIMGAP
 40
0.625
  9
$LUNITS
 70
     2
  9
$LUPREC
 70
     4
  9
$SKETCHINC
 40
1.0
  9
$FILLETRAD
 40
0.0
  9
$AUNITS
 70
     0
  9
$AUPREC
 70
     0
  9
$MENU
  1
.
  9
$ELEVATION
 40
0.0
  9
$PELEVATION
 40
0.0
  9
$THICKNESS
 40
0.0
  9
$LIMCHECK
 70
     0
  9
$BLIPMODE
 70
     0
  9
$CHAMFERA
 40
0.5
  9
$CHAMFERB
 40
0.5
  9
$SKPOLY
 70
     0
  9
$TDCREATE
 40
2457332.5054629631340504
  9
$TDUPDATE
 40
2460007.4998958338983357
  9
$TDINDWG
 40
1.3506156944000001
  9
$TDUSRTIMER
 40
1.3506084375
  9
$USRTIMER
 70
     1
  9
$ANGBASE
 50
0.0
  9
$ANGDIR
 70
     0
  9
$PDMODE
 70
     0
  9
$PDSIZE
 40
0.0
  9
$PLINEWID
 40
0.0
  9
$COORDS
 70
     1
  9
$SPLFRAME
 70
     0
  9
$SPLINETYPE
 70
     6
  9
$SPLINESEGS
 70
     8
  9
$ATTDIA
 70
     1
  9
$ATTREQ
 70
     1
  9
$HANDLING
 70
     1
  9
$HANDSEED
  5
8F51
  9
$SURFTAB1
 70
     6
  9
$SURFTAB2
 70
     6
  9
$SURFTYPE
 70
     6
  9
$SURFU
 70
     6
  9
$SURFV
 70
     6
  9
$UCSNAME
  2

  9
$UCSORG
 10
0.0
 20
0.0
 30
0.0
  9
$UCSXDIR
 10
1.0
 20
0.0
 30
0.0
  9
$UCSYDIR
 10
0.0
 20
1.0
 30
0.0
  9
$PUCSNAME
  2

  9
$PUCSORG
 10
0.0
 20
0.0
 30
0.0
  9
$PUCSXDIR
 10
1.0
 20
0.0
 30
0.0
  9
$PUCSYDIR
 10
0.0
 20
1.0
 30
0.0
  9
$USERI1
 70
     0
  9
$USERI2
 70
     0
  9
$USERI3
 70
     0
  9
$USERI4
 70
     0
  9
$USERI5
 70
     0
  9
$USERR1
 40
0.0
  9
$USERR2
 40
0.0
  9
$USERR3
 40
0.0
  9
$USERR4
 40
0.0
  9
$USERR5
 40
0.0
  9
$WORLDVIEW
 70
     1
  9
$SHADEDGE
 70
     3
  9
$SHADEDIF
 70
    70
  9
$TILEMODE
 70
     1
  9
$MAXACTVP
 70
    64
  9
$PLIMCHECK
 70
     0
  9
$PEXTMIN
 10
25.6999999999999886
 20
19.5
 30
0.0
  9
$PEXTMAX
 10
231.3000000000000114
 20
175.5
 30
0.0
  9
$PLIMMIN
 10
-20.0
 20
-7.5
  9
$PLIMMAX
 10
277.0
 20
202.5
  9
$UNITMODE
 70
     0
  9
$VISRETAIN
 70
     1
  9
$PLINEGEN
 70
     0
  9
$PSLTSCALE
 70
     1
  0
ENDSEC
  0
SECTION
  2
TABLES
  0
TABLE
  2
VPORT
 70
     1
  0
VPORT
  2
*ACTIVE
 70
     0
 10
0.0
 20
0.0
 11
1.0
 21
1.0
 12
-171.1605826379555992
 22
38.2138375638862513
 13
0.0
 23
0.0
 14
10.0
 24
10.0
 15
10.0
 25
10.0
 16
0.0
 26
0.0
 36
1.0
 17
0.0
 27
0.0
 37
0.0
 40
247.4764530764610129
 41
2.2927120669056151
 42
50.0
 43
0.0
 44
0.0
 50
0.0
 51
0.0
 71
     0
 72
 20000
 73
     1
 74
     2
 75
     0
 76
     0
 77
     0
 78
     0
  0
ENDTAB
  0
TABLE
  2
LTYPE
 70
     1
  0
LTYPE
  2
CONTINUOUS
 70
     0
  3
Solid line
 72
    65
 73
     0
 40
0.0
  0
ENDTAB
  0
TABLE
  2
LAYER
 70
    10
  0
LAYER
  2
0
 70
     0
 62
     7
  6
CONTINUOUS
  0
LAYER
  2
DEFPOINTS
 70
     0
 62
     7
  6
CONTINUOUS
  0
LAYER
  2
COS
 70
     0
 62
     4
  6
CONTINUOUS
  0
LAYER
  2
CAP
 70
     0
 62
     4
  6
CONTINUOUS
  0
LAYER
  2
COTES
 70
     0
 62
     2
  6
CONTINUOUS
  0
LAYER
  2
REFER\U+00C8NCIA
 70
     0
 62
     5
  6
CONTINUOUS
  0
LAYER
  2
MAQUINA
 70
     1
 62
     7
  6
CONTINUOUS
  0
LAYER
  2
RESERVA
 70
     0
 62
     7
  6
CONTINUOUS
  0
LAYER
  2
CAIXETI
 70
     0
 62
     7
  6
CONTINUOUS
  0
LAYER
  2
ARISTAS_VISIBLES_ISO_
 70
     0
 62
     7
  6
CONTINUOUS
  0
ENDTAB
  0
TABLE
  2
STYLE
 70
     3
  0
STYLE
  2
STANDARD
 70
     0
 40
0.0
 41
1.0
 50
0.0
 71
     0
 42
2.5
  3
SIMPLEX.SHX
  4

  0
STYLE
  2
STYLE1
 70
     0
 40
0.0
 41
1.0
 50
0.0
 71
     0
 42
6.0
  3
txt
  4

  0
STYLE
  2
SIMPLEX
 70
     0
 40
0.0
 41
1.0
 50
0.0
 71
     0
 42
3.0
  3
SIMPLEX.SHX
  4

  0
ENDTAB
  0
TABLE
  2
VIEW
 70
     0
  0
ENDTAB
  0
TABLE
  2
UCS
 70
     0
  0
ENDTAB
  0
TABLE
  2
APPID
 70
    10
  0
APPID
  2
ACAD
 70
     0
  0
APPID
  2
ACAD_PSEXT
 70
     0
  0
APPID
  2
ACADANNOPO
 70
     0
  0
APPID
  2
ACADANNOTATIVE
 70
     0
  0
APPID
  2
ACAD_DSTYLE_DIMJAG
 70
     0
  0
APPID
  2
ACAD_DSTYLE_DIMTALN
 70
     0
  0
APPID
  2
ACAD_MLEADERVER
 70
     0
  0
APPID
  2
ACAECLAYERSTANDARD
 70
     0
  0
APPID
  2
ACAD_EXEMPT_FROM_CAD_STANDARDS
 70
     0
  0
APPID
  2
ACAD_NAV_VCDISPLAY
 70
     0
  0
ENDTAB
  0
TABLE
  2
DIMSTYLE
 70
     2
  0
DIMSTYLE
  2
ISO-25
 70
     0
  3

  4

  5

  6

  7

 40
1.0
 41
2.5
 42
0.625
 43
3.75
 44
1.25
 45
0.0
 46
0.0
 47
0.0
 48
0.0
140
2.5
141
2.5
142
0.0
143
0.03937007874016
144
1.0
145
0.0
146
1.0
147
0.625
 71
     0
 72
     0
 73
     0
 74
     0
 75
     0
 76
     0
 77
     1
 78
     8
170
     0
171
     3
172
     1
173
     0
174
     0
175
     0
176
     0
177
     0
178
     0
  0
DIMSTYLE
  2
STANDARD
 70
     0
  3

  4

  5

  6

  7

 40
1.0
 41
0.18
 42
0.0625
 43
0.38
 44
0.18
 45
0.0
 46
0.0
 47
0.0
 48
0.0
140
0.18
141
0.09
142
0.0
143
25.3999999999999986
144
1.0
145
0.0
146
1.0
147
0.09
 71
     0
 72
     0
 73
     1
 74
     1
 75
     0
 76
     0
 77
     0
 78
     0
170
     0
171
     2
172
     0
173
     0
174
     0
175
     0
176
     0
177
     0
178
     0
  0
ENDTAB
  0
ENDSEC
  0
SECTION
  2
BLOCKS
  0
BLOCK
  8
0
  2
$MODEL_SPACE
 70
     0
 10
0.0
 20
0.0
 30
0.0
  3
$MODEL_SPACE
  1

  0
ENDBLK
  5
21
  8
0
  0
BLOCK
 67
     1
  8
0
  2
$PAPER_SPACE
 70
     0
 10
0.0
 20
0.0
 30
0.0
  3
$PAPER_SPACE
  1

  0
ENDBLK
  5
D9
 67
     1
  8
0
  0
BLOCK
  8
0
  2
*U1
 70
     1
 10
0.0
 20
0.0
 30
0.0
  3
*U1
  1

  0
TEXT
  5
8A98
  8
COTES
 10
-313.8954091079792761
 20
27.5665959511849401
 30
0.0
 40
2.5
  1
40
 50
90.0000000000000284
  0
ENDBLK
  5
8A9A
  8
0
  0
BLOCK
  8
0
  2
*U2
 70
     1
 10
0.0
 20
0.0
 30
0.0
  3
*U2
  1

  0
TEXT
  5
8A9C
  8
COTES
 10
-167.0710153701751892
 20
-23.1685161615713504
 30
0.0
 40
2.5
  1
250
  0
ENDBLK
  5
8A9E
  8
0
  0
BLOCK
  8
0
  2
*U3
 70
     1
 10
0.0
 20
0.0
 30
0.0
  3
*U3
  1

  0
TEXT
  5
8AA0
  8
COTES
 10
-16.8710529799894289
 20
29.9600335088187286
 30
0.0
 40
2.5
  1
35
 50
90.0000000000000284
  0
ENDBLK
  5
8AA2
  8
0
  0
BLOCK
  8
0
  2
*U4
 70
     1
 10
0.0
 20
0.0
 30
0.0
  3
*U4
  1

  0
TEXT
  5
8AA4
  8
COTES
 10
-56.8324971146973112
 20
-4.5848693435171892
 30
0.0
 40
2.5
  1
75°
 50
322.3398681988596195
  0
ENDBLK
  5
8AA6
  8
0
  0
ENDSEC
  0
SECTION
  2
ENTITIES
  0
TEXT
  5
8505
  8
REFER\U+00C8NCIA
 10
-192.3907520232280888
 20
-54.2748879040415204
 30
0.0
 40
5.0
  1
PSBNL4040S2512
  7
SIMPLEX
 72
     1
 11
-160.1288472613233012
 21
-54.2748879040415204
 31
0.0
  0
LINE
  5
89DE
  8
COS
 10
-76.3947710330598397
 20
49.5904054749942418
 30
0.0
 11
-84.538658804012428
 21
49.5904054749942418
 31
0.0
  0
LINE
  5
89E0
  8
COS
 10
-84.538658804012428
 20
49.5904054749942418
 30
0.0
 11
-84.538658804012428
 21
35.2556257717247092
 31
0.0
  0
LINE
  5
89E1
  8
COS
 10
-48.2170352906299513
 20
49.5904054749942134
 30
0.0
 11
-76.3947710330598397
 21
49.5904054749942418
 31
0.0
  0
LINE
  5
89E2
  8
COS
 10
-85.0041903462285404
 20
9.5904054749942826
 30
0.0
 11
-64.0085174680659748
 21
9.5904054749942702
 31
0.0
  0
LINE
  5
89E3
  8
COS
 10
-84.538658804012428
 20
35.2556257717247092
 30
0.0
 11
-85.0041903462285404
 21
9.5904054749942826
 31
0.0
  0
LINE
  5
89E4
  8
COS
 10
-48.2170352906299513
 20
49.5904054749942134
 30
0.0
 11
-45.9066949108553217
 21
40.6316065258013381
 31
0.0
  0
LINE
  5
89E5
  8
COS
 10
-45.9066949108553217
 20
40.6316065258013381
 30
0.0
 11
-46.9742006247998418
 21
38.8010361849028129
 31
0.0
  0
LINE
  5
89E6
  8
COS
 10
-63.5888973900614971
 20
10.3099745219852696
 30
0.0
 11
-64.0085174680659748
 21
9.5904054749942702
 31
0.0
  0
LINE
  5
89E7
  8
COS
 10
-46.9742006247998418
 20
38.8010361849028129
 30
0.0
 11
-63.9552850991972193
 21
34.2417837139842334
 31
0.0
  0
LINE
  5
89E8
  8
COS
 10
-67.980504436573824
 20
27.3392940707338497
 30
0.0
 11
-63.5888973900614971
 21
10.3099745219852696
 31
0.0
  0
POLYLINE
  5
89ED
  8
COS
 10
-67.9805044365739235
 20
27.3392940707338923
 30
0.0
 66
     1
 70
     8
  0
VERTEX
  8
COS
  5
8ABF
 10
-67.9805
 20
27.3393
 30
0.00000
  70
    32
  0
VERTEX
  8
COS
  5
8AC0
 10
-68.0588
 20
27.3917
 30
0.00000
  70
    32
  0
VERTEX
  8
COS
  5
8AC1
 10
-68.1358
 20
27.4459
 30
0.00000
  70
    32
  0
VERTEX
  8
COS
  5
8AC2
 10
-68.2115
 20
27.5020
 30
0.00000
  70
    32
  0
VERTEX
  8
COS
  5
8AC3
 10
-68.2858
 20
27.5598
 30
0.00000
  70
    32
  0
VERTEX
  8
COS
  5
8AC4
 10
-68.3587
 20
27.6195
 30
0.00000
  70
    32
  0
VERTEX
  8
COS
  5
8AC5
 10
-68.4302
 20
27.6809
 30
0.00000
  70
    32
  0
VERTEX
  8
COS
  5
8AC6
 10
-68.5002
 20
27.7439
 30
0.00000
  70
    32
  0
VERTEX
  8
COS
  5
8AC7
 10
-68.5686
 20
27.8087
 30
0.00000
  70
    32
  0
VERTEX
  8
COS
  5
8AC8
 10
-68.6355
 20
27.8751
 30
0.00000
  70
    32
  0
VERTEX
  8
COS
  5
8AC9
 10
-68.7008
 20
27.9431
 30
0.00000
  70
    32
  0
VERTEX
  8
COS
  5
8ACA
 10
-68.7644
 20
28.0126
 30
0.00000
  70
    32
  0
VERTEX
  8
COS
  5
8ACB
 10
-68.8264
 20
28.0836
 30
0.00000
  70
    32
  0
VERTEX
  8
COS
  5
8ACC
 10
-68.8867
 20
28.1562
 30
0.00000
  70
    32
  0
VERTEX
  8
COS
  5
8ACD
 10
-68.9452
 20
28.2301
 30
0.00000
  70
    32
  0
VERTEX
  8
COS
  5
8ACE
 10
-69.0019
 20
28.3055
 30
0.00000
  70
    32
  0
VERTEX
  8
COS
  5
8ACF
 10
-69.0568
 20
28.3822
 30
0.00000
  70
    32
  0
VERTEX
  8
COS
  5
8AD0
 10
-69.1099
 20
28.4602
 30
0.00000
  70
    32
  0
VERTEX
  8
COS
  5
8AD1
 10
-69.1611
 20
28.5394
 30
0.00000
  70
    32
  0
VERTEX
  8
COS
  5
8AD2
 10
-69.2105
 20
28.6199
 30
0.00000
  70
    32
  0
VERTEX
  8
COS
  5
8AD3
 10
-69.2578
 20
28.7016
 30
0.00000
  70
    32
  0
VERTEX
  8
COS
  5
8AD4
 10
-69.3033
 20
28.7844
 30
0.00000
  70
    32
  0
VERTEX
  8
COS
  5
8AD5
 10
-69.3467
 20
28.8682
 30
0.00000
  70
    32
  0
VERTEX
  8
COS
  5
8AD6
 10
-69.3882
 20
28.9531
 30
0.00000
  70
    32
  0
VERTEX
  8
COS
  5
8AD7
 10
-69.4276
 20
29.0390
 30
0.00000
  70
    32
  0
VERTEX
  8
COS
  5
8AD8
 10
-69.4650
 20
29.1258
 30
0.00000
  70
    32
  0
VERTEX
  8
COS
  5
8AD9
 10
-69.5003
 20
29.2135
 30
0.00000
  70
    32
  0
VERTEX
  8
COS
  5
8ADA
 10
-69.5335
 20
29.3021
 30
0.00000
  70
    32
  0
VERTEX
  8
COS
  5
8ADB
 10
-69.5646
 20
29.3914
 30
0.00000
  70
    32
  0
VERTEX
  8
COS
  5
8ADC
 10
-69.5935
 20
29.4814
 30
0.00000
  70
    32
  0
VERTEX
  8
COS
  5
8ADD
 10
-69.6203
 20
29.5722
 30
0.00000
  70
    32
  0
VERTEX
  8
COS
  5
8ADE
 10
-69.6450
 20
29.6636
 30
0.00000
  70
    32
  0
VERTEX
  8
COS
  5
8ADF
 10
-69.6675
 20
29.7555
 30
0.00000
  70
    32
  0
VERTEX
  8
COS
  5
8AE0
 10
-69.6878
 20
29.8480
 30
0.00000
  70
    32
  0
VERTEX
  8
COS
  5
8AE1
 10
-69.7059
 20
29.9410
 30
0.00000
  70
    32
  0
VERTEX
  8
COS
  5
8AE2
 10
-69.7218
 20
30.0344
 30
0.00000
  70
    32
  0
VERTEX
  8
COS
  5
8AE3
 10
-69.7355
 20
30.1281
 30
0.00000
  70
    32
  0
VERTEX
  8
COS
  5
8AE4
 10
-69.7469
 20
30.2222
 30
0.00000
  70
    32
  0
VERTEX
  8
COS
  5
8AE5
 10
-69.7561
 20
30.3166
 30
0.00000
  70
    32
  0
VERTEX
  8
COS
  5
8AE6
 10
-69.7631
 20
30.4111
 30
0.00000
  70
    32
  0
VERTEX
  8
COS
  5
8AE7
 10
-69.7679
 20
30.5059
 30
0.00000
  70
    32
  0
VERTEX
  8
COS
  5
8AE8
 10
-69.7704
 20
30.6007
 30
0.00000
  70
    32
  0
VERTEX
  8
COS
  5
8AE9
 10
-69.7706
 20
30.6956
 30
0.00000
  70
    32
  0
VERTEX
  8
COS
  5
8AEA
 10
-69.7686
 20
30.7904
 30
0.00000
  70
    32
  0
VERTEX
  8
COS
  5
8AEB
 10
-69.7644
 20
30.8853
 30
0.00000
  70
    32
  0
VERTEX
  8
COS
  5
8AEC
 10
-69.7579
 20
30.9800
 30
0.00000
  70
    32
  0
VERTEX
  8
COS
  5
8AED
 10
-69.7492
 20
31.0745
 30
0.00000
  70
    32
  0
VERTEX
  8
COS
  5
8AEE
 10
-69.7383
 20
31.1689
 30
0.00000
  70
    32
  0
VERTEX
  8
COS
  5
8AEF
 10
-69.7251
 20
31.2629
 30
0.00000
  70
    32
  0
VERTEX
  8
COS
  5
8AF0
 10
-69.7097
 20
31.3567
 30
0.00000
  70
    32
  0
VERTEX
  8
COS
  5
8AF1
 10
-69.6921
 20
31.4501
 30
0.00000
  70
    32
  0
VERTEX
  8
COS
  5
8AF2
 10
-69.6723
 20
31.5430
 30
0.00000
  70
    32
  0
VERTEX
  8
COS
  5
8AF3
 10
-69.6503
 20
31.6355
 30
0.00000
  70
    32
  0
VERTEX
  8
COS
  5
8AF4
 10
-69.6261
 20
31.7274
 30
0.00000
  70
    32
  0
VERTEX
  8
COS
  5
8AF5
 10
-69.5998
 20
31.8187
 30
0.00000
  70
    32
  0
VERTEX
  8
COS
  5
8AF6
 10
-69.5713
 20
31.9094
 30
0.00000
  70
    32
  0
VERTEX
  8
COS
  5
8AF7
 10
-69.5407
 20
31.9995
 30
0.00000
  70
    32
  0
VERTEX
  8
COS
  5
8AF8
 10
-69.5080
 20
32.0887
 30
0.00000
  70
    32
  0
VERTEX
  8
COS
  5
8AF9
 10
-69.4732
 20
32.1772
 30
0.00000
  70
    32
  0
VERTEX
  8
COS
  5
8AFA
 10
-69.4363
 20
32.2649
 30
0.00000
  70
    32
  0
VERTEX
  8
COS
  5
8AFB
 10
-69.3973
 20
32.3516
 30
0.00000
  70
    32
  0
VERTEX
  8
COS
  5
8AFC
 10
-69.3563
 20
32.4375
 30
0.00000
  70
    32
  0
VERTEX
  8
COS
  5
8AFD
 10
-69.3133
 20
32.5223
 30
0.00000
  70
    32
  0
VERTEX
  8
COS
  5
8AFE
 10
-69.2684
 20
32.6061
 30
0.00000
  70
    32
  0
VERTEX
  8
COS
  5
8AFF
 10
-69.2214
 20
32.6888
 30
0.00000
  70
    32
  0
VERTEX
  8
COS
  5
8B00
 10
-69.1725
 20
32.7704
 30
0.00000
  70
    32
  0
VERTEX
  8
COS
  5
8B01
 10
-69.1218
 20
32.8508
 30
0.00000
  70
    32
  0
VERTEX
  8
COS
  5
8B02
 10
-69.0691
 20
32.9300
 30
0.00000
  70
    32
  0
VERTEX
  8
COS
  5
8B03
 10
-69.0146
 20
33.0080
 30
0.00000
  70
    32
  0
VERTEX
  8
COS
  5
8B04
 10
-68.9583
 20
33.0846
 30
0.00000
  70
    32
  0
VERTEX
  8
COS
  5
8B05
 10
-68.9001
 20
33.1599
 30
0.00000
  70
    32
  0
VERTEX
  8
COS
  5
8B06
 10
-68.8403
 20
33.2338
 30
0.00000
  70
    32
  0
VERTEX
  8
COS
  5
8B07
 10
-68.7787
 20
33.3062
 30
0.00000
  70
    32
  0
VERTEX
  8
COS
  5
8B08
 10
-68.7154
 20
33.3772
 30
0.00000
  70
    32
  0
VERTEX
  8
COS
  5
8B09
 10
-68.6505
 20
33.4466
 30
0.00000
  70
    32
  0
VERTEX
  8
COS
  5
8B0A
 10
-68.5840
 20
33.5145
 30
0.00000
  70
    32
  0
VERTEX
  8
COS
  5
8B0B
 10
-68.5159
 20
33.5808
 30
0.00000
  70
    32
  0
VERTEX
  8
COS
  5
8B0C
 10
-68.4462
 20
33.6455
 30
0.00000
  70
    32
  0
VERTEX
  8
COS
  5
8B0D
 10
-68.3751
 20
33.7084
 30
0.00000
  70
    32
  0
VERTEX
  8
COS
  5
8B0E
 10
-68.3025
 20
33.7697
 30
0.00000
  70
    32
  0
VERTEX
  8
COS
  5
8B0F
 10
-68.2285
 20
33.8293
 30
0.00000
  70
    32
  0
VERTEX
  8
COS
  5
8B10
 10
-68.1531
 20
33.8871
 30
0.00000
  70
    32
  0
VERTEX
  8
COS
  5
8B11
 10
-68.0764
 20
33.9430
 30
0.00000
  70
    32
  0
VERTEX
  8
COS
  5
8B12
 10
-67.9984
 20
33.9971
 30
0.00000
  70
    32
  0
VERTEX
  8
COS
  5
8B13
 10
-67.9192
 20
34.0494
 30
0.00000
  70
    32
  0
VERTEX
  8
COS
  5
8B14
 10
-67.8388
 20
34.0998
 30
0.00000
  70
    32
  0
VERTEX
  8
COS
  5
8B15
 10
-67.7572
 20
34.1482
 30
0.00000
  70
    32
  0
VERTEX
  8
COS
  5
8B16
 10
-67.6745
 20
34.1947
 30
0.00000
  70
    32
  0
VERTEX
  8
COS
  5
8B17
 10
-67.5907
 20
34.2392
 30
0.00000
  70
    32
  0
VERTEX
  8
COS
  5
8B18
 10
-67.5060
 20
34.2817
 30
0.00000
  70
    32
  0
VERTEX
  8
COS
  5
8B19
 10
-67.4202
 20
34.3222
 30
0.00000
  70
    32
  0
VERTEX
  8
COS
  5
8B1A
 10
-67.3336
 20
34.3606
 30
0.00000
  70
    32
  0
VERTEX
  8
COS
  5
8B1B
 10
-67.2461
 20
34.3969
 30
0.00000
  70
    32
  0
VERTEX
  8
COS
  5
8B1C
 10
-67.1578
 20
34.4312
 30
0.00000
  70
    32
  0
VERTEX
  8
COS
  5
8B1D
 10
-67.0687
 20
34.4633
 30
0.00000
  70
    32
  0
VERTEX
  8
COS
  5
8B1E
 10
-66.9788
 20
34.4933
 30
0.00000
  70
    32
  0
VERTEX
  8
COS
  5
8B1F
 10
-66.8884
 20
34.5212
 30
0.00000
  70
    32
  0
VERTEX
  8
COS
  5
8B20
 10
-66.7973
 20
34.5469
 30
0.00000
  70
    32
  0
VERTEX
  8
COS
  5
8B21
 10
-66.7056
 20
34.5704
 30
0.00000
  70
    32
  0
VERTEX
  8
COS
  5
8B22
 10
-66.6134
 20
34.5917
 30
0.00000
  70
    32
  0
VERTEX
  8
COS
  5
8B23
 10
-66.5208
 20
34.6108
 30
0.00000
  70
    32
  0
VERTEX
  8
COS
  5
8B24
 10
-66.4278
 20
34.6277
 30
0.00000
  70
    32
  0
VERTEX
  8
COS
  5
8B25
 10
-66.3344
 20
34.6424
 30
0.00000
  70
    32
  0
VERTEX
  8
COS
  5
8B26
 10
-66.2407
 20
34.6548
 30
0.00000
  70
    32
  0
VERTEX
  8
COS
  5
8B27
 10
-66.1468
 20
34.6650
 30
0.00000
  70
    32
  0
VERTEX
  8
COS
  5
8B28
 10
-66.0526
 20
34.6730
 30
0.00000
  70
    32
  0
VERTEX
  8
COS
  5
8B29
 10
-65.9583
 20
34.6787
 30
0.00000
  70
    32
  0
VERTEX
  8
COS
  5
8B2A
 10
-65.8640
 20
34.6821
 30
0.00000
  70
    32
  0
VERTEX
  8
COS
  5
8B2B
 10
-65.7696
 20
34.6833
 30
0.00000
  70
    32
  0
VERTEX
  8
COS
  5
8B2C
 10
-65.6752
 20
34.6823
 30
0.00000
  70
    32
  0
VERTEX
  8
COS
  5
8B2D
 10
-65.5809
 20
34.6789
 30
0.00000
  70
    32
  0
VERTEX
  8
COS
  5
8B2E
 10
-65.4867
 20
34.6734
 30
0.00000
  70
    32
  0
VERTEX
  8
COS
  5
8B2F
 10
-65.3927
 20
34.6656
 30
0.00000
  70
    32
  0
VERTEX
  8
COS
  5
8B30
 10
-65.2989
 20
34.6555
 30
0.00000
  70
    32
  0
VERTEX
  8
COS
  5
8B31
 10
-65.2054
 20
34.6432
 30
0.00000
  70
    32
  0
VERTEX
  8
COS
  5
8B32
 10
-65.1122
 20
34.6286
 30
0.00000
  70
    32
  0
VERTEX
  8
COS
  5
8B33
 10
-65.0194
 20
34.6119
 30
0.00000
  70
    32
  0
VERTEX
  8
COS
  5
8B34
 10
-64.9271
 20
34.5929
 30
0.00000
  70
    32
  0
VERTEX
  8
COS
  5
8B35
 10
-64.8353
 20
34.5717
 30
0.00000
  70
    32
  0
VERTEX
  8
COS
  5
8B36
 10
-64.7440
 20
34.5483
 30
0.00000
  70
    32
  0
VERTEX
  8
COS
  5
8B37
 10
-64.6533
 20
34.5228
 30
0.00000
  70
    32
  0
VERTEX
  8
COS
  5
8B38
 10
-64.5632
 20
34.4950
 30
0.00000
  70
    32
  0
VERTEX
  8
COS
  5
8B39
 10
-64.4739
 20
34.4652
 30
0.00000
  70
    32
  0
VERTEX
  8
COS
  5
8B3A
 10
-64.3853
 20
34.4331
 30
0.00000
  70
    32
  0
VERTEX
  8
COS
  5
8B3B
 10
-64.2975
 20
34.3990
 30
0.00000
  70
    32
  0
VERTEX
  8
COS
  5
8B3C
 10
-64.2105
 20
34.3628
 30
0.00000
  70
    32
  0
VERTEX
  8
COS
  5
8B3D
 10
-64.1245
 20
34.3245
 30
0.00000
  70
    32
  0
VERTEX
  8
COS
  5
8B3E
 10
-64.0394
 20
34.2842
 30
0.00000
  70
    32
  0
VERTEX
  8
COS
  5
8B3F
 10
-63.9553
 20
34.2418
 30
0.00000
  70
    32
  0
SEQEND
  8
COS
  5
8B40
  0
POLYLINE
  5
89F2
  8
COS
 10
-73.0859826449194685
 20
42.1213198903512804
 30
0.0
 66
     1
 70
     8
  0
VERTEX
  8
COS
  5
8B41
 10
-73.0860
 20
42.1213
 30
0.00000
  70
    32
  0
VERTEX
  8
COS
  5
8B42
 10
-72.8278
 20
41.9660
 30
0.00000
  70
    32
  0
VERTEX
  8
COS
  5
8B43
 10
-72.5776
 20
41.7981
 30
0.00000
  70
    32
  0
VERTEX
  8
COS
  5
8B44
 10
-72.3359
 20
41.6180
 30
0.00000
  70
    32
  0
VERTEX
  8
COS
  5
8B45
 10
-72.1035
 20
41.4262
 30
0.00000
  70
    32
  0
VERTEX
  8
COS
  5
8B46
 10
-71.8808
 20
41.2230
 30
0.00000
  70
    32
  0
VERTEX
  8
COS
  5
8B47
 10
-71.6684
 20
41.0089
 30
0.00000
  70
    32
  0
VERTEX
  8
COS
  5
8B48
 10
-71.4668
 20
40.7846
 30
0.00000
  70
    32
  0
VERTEX
  8
COS
  5
8B49
 10
-71.2765
 20
40.5505
 30
0.00000
  70
    32
  0
VERTEX
  8
COS
  5
8B4A
 10
-71.0979
 20
40.3072
 30
0.00000
  70
    32
  0
VERTEX
  8
COS
  5
8B4B
 10
-70.9315
 20
40.0553
 30
0.00000
  70
    32
  0
VERTEX
  8
COS
  5
8B4C
 10
-70.7777
 20
39.7954
 30
0.00000
  70
    32
  0
VERTEX
  8
COS
  5
8B4D
 10
-70.6367
 20
39.5281
 30
0.00000
  70
    32
  0
VERTEX
  8
COS
  5
8B4E
 10
-70.5091
 20
39.2541
 30
0.00000
  70
    32
  0
VERTEX
  8
COS
  5
8B4F
 10
-70.3951
 20
38.9740
 30
0.00000
  70
    32
  0
VERTEX
  8
COS
  5
8B50
 10
-70.2949
 20
38.6884
 30
0.00000
  70
    32
  0
VERTEX
  8
COS
  5
8B51
 10
-70.2088
 20
38.3982
 30
0.00000
  70
    32
  0
VERTEX
  8
COS
  5
8B52
 10
-70.1370
 20
38.1039
 30
0.00000
  70
    32
  0
VERTEX
  8
COS
  5
8B53
 10
-70.0797
 20
37.8064
 30
0.00000
  70
    32
  0
VERTEX
  8
COS
  5
8B54
 10
-70.0370
 20
37.5062
 30
0.00000
  70
    32
  0
VERTEX
  8
COS
  5
8B55
 10
-70.0091
 20
37.2042
 30
0.00000
  70
    32
  0
VERTEX
  8
COS
  5
8B56
 10
-69.9959
 20
36.9010
 30
0.00000
  70
    32
  0
VERTEX
  8
COS
  5
8B57
 10
-69.9976
 20
36.5974
 30
0.00000
  70
    32
  0
VERTEX
  8
COS
  5
8B58
 10
-70.0141
 20
36.2942
 30
0.00000
  70
    32
  0
VERTEX
  8
COS
  5
8B59
 10
-70.0453
 20
35.9920
 30
0.00000
  70
    32
  0
VERTEX
  8
COS
  5
8B5A
 10
-70.0913
 20
35.6915
 30
0.00000
  70
    32
  0
VERTEX
  8
COS
  5
8B5B
 10
-70.1518
 20
35.3936
 30
0.00000
  70
    32
  0
VERTEX
  8
COS
  5
8B5C
 10
-70.2268
 20
35.0989
 30
0.00000
  70
    32
  0
VERTEX
  8
COS
  5
8B5D
 10
-70.3161
 20
34.8081
 30
0.00000
  70
    32
  0
VERTEX
  8
COS
  5
8B5E
 10
-70.4194
 20
34.5220
 30
0.00000
  70
    32
  0
VERTEX
  8
COS
  5
8B5F
 10
-70.5366
 20
34.2412
 30
0.00000
  70
    32
  0
VERTEX
  8
COS
  5
8B60
 10
-70.6672
 20
33.9663
 30
0.00000
  70
    32
  0
VERTEX
  8
COS
  5
8B61
 10
-70.8110
 20
33.6982
 30
0.00000
  70
    32
  0
VERTEX
  8
COS
  5
8B62
 10
-70.9677
 20
33.4373
 30
0.00000
  70
    32
  0
VERTEX
  8
COS
  5
8B63
 10
-71.1369
 20
33.1844
 30
0.00000
  70
    32
  0
VERTEX
  8
COS
  5
8B64
 10
-71.3182
 20
32.9400
 30
0.00000
  70
    32
  0
VERTEX
  8
COS
  5
8B65
 10
-71.5111
 20
32.7048
 30
0.00000
  70
    32
  0
VERTEX
  8
COS
  5
8B66
 10
-71.7152
 20
32.4792
 30
0.00000
  70
    32
  0
VERTEX
  8
COS
  5
8B67
 10
-71.9299
 20
32.2639
 30
0.00000
  70
    32
  0
VERTEX
  8
COS
  5
8B68
 10
-72.1548
 20
32.0593
 30
0.00000
  70
    32
  0
VERTEX
  8
COS
  5
8B69
 10
-72.3893
 20
31.8660
 30
0.00000
  70
    32
  0
VERTEX
  8
COS
  5
8B6A
 10
-72.6329
 20
31.6845
 30
0.00000
  70
    32
  0
VERTEX
  8
COS
  5
8B6B
 10
-72.8850
 20
31.5150
 30
0.00000
  70
    32
  0
VERTEX
  8
COS
  5
8B6C
 10
-73.1449
 20
31.3582
 30
0.00000
  70
    32
  0
VERTEX
  8
COS
  5
8B6D
 10
-73.4121
 20
31.2143
 30
0.00000
  70
    32
  0
VERTEX
  8
COS
  5
8B6E
 10
-73.6858
 20
31.0836
 30
0.00000
  70
    32
  0
VERTEX
  8
COS
  5
8B6F
 10
-73.9655
 20
30.9666
 30
0.00000
  70
    32
  0
VERTEX
  8
COS
  5
8B70
 10
-74.2504
 20
30.8635
 30
0.00000
  70
    32
  0
VERTEX
  8
COS
  5
8B71
 10
-74.5400
 20
30.7745
 30
0.00000
  70
    32
  0
VERTEX
  8
COS
  5
8B72
 10
-74.8334
 20
30.6998
 30
0.00000
  70
    32
  0
VERTEX
  8
COS
  5
8B73
 10
-75.1299
 20
30.6397
 30
0.00000
  70
    32
  0
VERTEX
  8
COS
  5
8B74
 10
-75.4289
 20
30.5943
 30
0.00000
  70
    32
  0
VERTEX
  8
COS
  5
8B75
 10
-75.7297
 20
30.5636
 30
0.00000
  70
    32
  0
VERTEX
  8
COS
  5
8B76
 10
-76.0314
 20
30.5478
 30
0.00000
  70
    32
  0
VERTEX
  8
COS
  5
8B77
 10
-76.3335
 20
30.5469
 30
0.00000
  70
    32
  0
VERTEX
  8
COS
  5
8B78
 10
-76.6351
 20
30.5608
 30
0.00000
  70
    32
  0
VERTEX
  8
COS
  5
8B79
 10
-76.9355
 20
30.5897
 30
0.00000
  70
    32
  0
VERTEX
  8
COS
  5
8B7A
 10
-77.2340
 20
30.6333
 30
0.00000
  70
    32
  0
VERTEX
  8
COS
  5
8B7B
 10
-77.5299
 20
30.6916
 30
0.00000
  70
    32
  0
VERTEX
  8
COS
  5
8B7C
 10
-77.8225
 20
30.7645
 30
0.00000
  70
    32
  0
VERTEX
  8
COS
  5
8B7D
 10
-78.1110
 20
30.8518
 30
0.00000
  70
    32
  0
VERTEX
  8
COS
  5
8B7E
 10
-78.3949
 20
30.9532
 30
0.00000
  70
    32
  0
VERTEX
  8
COS
  5
8B7F
 10
-78.6733
 20
31.0685
 30
0.00000
  70
    32
  0
VERTEX
  8
COS
  5
8B80
 10
-78.9456
 20
31.1975
 30
0.00000
  70
    32
  0
VERTEX
  8
COS
  5
8B81
 10
-79.2112
 20
31.3398
 30
0.00000
  70
    32
  0
VERTEX
  8
COS
  5
8B82
 10
-79.4694
 20
31.4951
 30
0.00000
  70
    32
  0
VERTEX
  8
COS
  5
8B83
 10
-79.7196
 20
31.6630
 30
0.00000
  70
    32
  0
VERTEX
  8
COS
  5
8B84
 10
-79.9612
 20
31.8431
 30
0.00000
  70
    32
  0
VERTEX
  8
COS
  5
8B85
 10
-80.1937
 20
32.0349
 30
0.00000
  70
    32
  0
VERTEX
  8
COS
  5
8B86
 10
-80.4163
 20
32.2381
 30
0.00000
  70
    32
  0
VERTEX
  8
COS
  5
8B87
 10
-80.6287
 20
32.4522
 30
0.00000
  70
    32
  0
VERTEX
  8
COS
  5
8B88
 10
-80.8303
 20
32.6765
 30
0.00000
  70
    32
  0
VERTEX
  8
COS
  5
8B89
 10
-81.0207
 20
32.9106
 30
0.00000
  70
    32
  0
VERTEX
  8
COS
  5
8B8A
 10
-81.1993
 20
33.1539
 30
0.00000
  70
    32
  0
VERTEX
  8
COS
  5
8B8B
 10
-81.3657
 20
33.4058
 30
0.00000
  70
    32
  0
VERTEX
  8
COS
  5
8B8C
 10
-81.5195
 20
33.6657
 30
0.00000
  70
    32
  0
VERTEX
  8
COS
  5
8B8D
 10
-81.6604
 20
33.9330
 30
0.00000
  70
    32
  0
VERTEX
  8
COS
  5
8B8E
 10
-81.7881
 20
34.2070
 30
0.00000
  70
    32
  0
VERTEX
  8
COS
  5
8B8F
 10
-81.9021
 20
34.4871
 30
0.00000
  70
    32
  0
VERTEX
  8
COS
  5
8B90
 10
-82.0023
 20
34.7727
 30
0.00000
  70
    32
  0
VERTEX
  8
COS
  5
8B91
 10
-82.0884
 20
35.0629
 30
0.00000
  70
    32
  0
VERTEX
  8
COS
  5
8B92
 10
-82.1602
 20
35.3572
 30
0.00000
  70
    32
  0
VERTEX
  8
COS
  5
8B93
 10
-82.2175
 20
35.6547
 30
0.00000
  70
    32
  0
VERTEX
  8
COS
  5
8B94
 10
-82.2602
 20
35.9549
 30
0.00000
  70
    32
  0
VERTEX
  8
COS
  5
8B95
 10
-82.2881
 20
36.2569
 30
0.00000
  70
    32
  0
VERTEX
  8
COS
  5
8B96
 10
-82.3013
 20
36.5601
 30
0.00000
  70
    32
  0
VERTEX
  8
COS
  5
8B97
 10
-82.2996
 20
36.8637
 30
0.00000
  70
    32
  0
VERTEX
  8
COS
  5
8B98
 10
-82.2831
 20
37.1669
 30
0.00000
  70
    32
  0
VERTEX
  8
COS
  5
8B99
 10
-82.2519
 20
37.4691
 30
0.00000
  70
    32
  0
VERTEX
  8
COS
  5
8B9A
 10
-82.2059
 20
37.7696
 30
0.00000
  70
    32
  0
VERTEX
  8
COS
  5
8B9B
 10
-82.1453
 20
38.0675
 30
0.00000
  70
    32
  0
VERTEX
  8
COS
  5
8B9C
 10
-82.0703
 20
38.3622
 30
0.00000
  70
    32
  0
VERTEX
  8
COS
  5
8B9D
 10
-81.9811
 20
38.6530
 30
0.00000
  70
    32
  0
VERTEX
  8
COS
  5
8B9E
 10
-81.8778
 20
38.9391
 30
0.00000
  70
    32
  0
VERTEX
  8
COS
  5
8B9F
 10
-81.7606
 20
39.2199
 30
0.00000
  70
    32
  0
VERTEX
  8
COS
  5
8BA0
 10
-81.6300
 20
39.4948
 30
0.00000
  70
    32
  0
VERTEX
  8
COS
  5
8BA1
 10
-81.4861
 20
39.7629
 30
0.00000
  70
    32
  0
VERTEX
  8
COS
  5
8BA2
 10
-81.3294
 20
40.0238
 30
0.00000
  70
    32
  0
VERTEX
  8
COS
  5
8BA3
 10
-81.1603
 20
40.2767
 30
0.00000
  70
    32
  0
VERTEX
  8
COS
  5
8BA4
 10
-80.9790
 20
40.5211
 30
0.00000
  70
    32
  0
VERTEX
  8
COS
  5
8BA5
 10
-80.7861
 20
40.7563
 30
0.00000
  70
    32
  0
VERTEX
  8
COS
  5
8BA6
 10
-80.5820
 20
40.9819
 30
0.00000
  70
    32
  0
VERTEX
  8
COS
  5
8BA7
 10
-80.3673
 20
41.1972
 30
0.00000
  70
    32
  0
VERTEX
  8
COS
  5
8BA8
 10
-80.1424
 20
41.4018
 30
0.00000
  70
    32
  0
VERTEX
  8
COS
  5
8BA9
 10
-79.9078
 20
41.5951
 30
0.00000
  70
    32
  0
VERTEX
  8
COS
  5
8BAA
 10
-79.6643
 20
41.7766
 30
0.00000
  70
    32
  0
VERTEX
  8
COS
  5
8BAB
 10
-79.4122
 20
41.9461
 30
0.00000
  70
    32
  0
VERTEX
  8
COS
  5
8BAC
 10
-79.1523
 20
42.1029
 30
0.00000
  70
    32
  0
VERTEX
  8
COS
  5
8BAD
 10
-78.8851
 20
42.2468
 30
0.00000
  70
    32
  0
VERTEX
  8
COS
  5
8BAE
 10
-78.6114
 20
42.3775
 30
0.00000
  70
    32
  0
VERTEX
  8
COS
  5
8BAF
 10
-78.3317
 20
42.4945
 30
0.00000
  70
    32
  0
VERTEX
  8
COS
  5
8BB0
 10
-78.0467
 20
42.5976
 30
0.00000
  70
    32
  0
VERTEX
  8
COS
  5
8BB1
 10
-77.7572
 20
42.6866
 30
0.00000
  70
    32
  0
VERTEX
  8
COS
  5
8BB2
 10
-77.4638
 20
42.7613
 30
0.00000
  70
    32
  0
VERTEX
  8
COS
  5
8BB3
 10
-77.1673
 20
42.8214
 30
0.00000
  70
    32
  0
VERTEX
  8
COS
  5
8BB4
 10
-76.8683
 20
42.8668
 30
0.00000
  70
    32
  0
VERTEX
  8
COS
  5
8BB5
 10
-76.5675
 20
42.8975
 30
0.00000
  70
    32
  0
VERTEX
  8
COS
  5
8BB6
 10
-76.2658
 20
42.9133
 30
0.00000
  70
    32
  0
VERTEX
  8
COS
  5
8BB7
 10
-75.9637
 20
42.9142
 30
0.00000
  70
    32
  0
VERTEX
  8
COS
  5
8BB8
 10
-75.6621
 20
42.9003
 30
0.00000
  70
    32
  0
VERTEX
  8
COS
  5
8BB9
 10
-75.3617
 20
42.8714
 30
0.00000
  70
    32
  0
VERTEX
  8
COS
  5
8BBA
 10
-75.0632
 20
42.8278
 30
0.00000
  70
    32
  0
VERTEX
  8
COS
  5
8BBB
 10
-74.7673
 20
42.7694
 30
0.00000
  70
    32
  0
VERTEX
  8
COS
  5
8BBC
 10
-74.4747
 20
42.6966
 30
0.00000
  70
    32
  0
VERTEX
  8
COS
  5
8BBD
 10
-74.1861
 20
42.6093
 30
0.00000
  70
    32
  0
VERTEX
  8
COS
  5
8BBE
 10
-73.9023
 20
42.5079
 30
0.00000
  70
    32
  0
VERTEX
  8
COS
  5
8BBF
 10
-73.6239
 20
42.3926
 30
0.00000
  70
    32
  0
VERTEX
  8
COS
  5
8BC0
 10
-73.3516
 20
42.2636
 30
0.00000
  70
    32
  0
VERTEX
  8
COS
  5
8BC1
 10
-73.0860
 20
42.1213
 30
0.00000
  70
    32
  0
SEQEND
  8
COS
  5
8BC2
  0
LINE
  5
89F3
  8
COS
 10
-86.4143031510302677
 20
9.5904054749942826
 30
0.0
 11
-288.9143031510300261
 21
9.5904054749944958
 31
0.0
  0
LINE
  5
89F4
  8
COS
 10
-85.0041903462285404
 20
9.5904054749942826
 30
0.0
 11
-86.4143031510302677
 21
9.5904054749942826
 31
0.0
  0
LINE
  5
89F5
  8
COS
 10
-84.538658804012428
 20
49.5904054749942418
 30
0.0
 11
-86.4143031510302677
 21
49.5904054749942418
 31
0.0
  0
LINE
  5
89F6
  8
COS
 10
-86.4143031510302677
 20
49.5904054749942418
 30
0.0
 11
-288.9143031510300261
 21
49.5904054749944407
 31
0.0
  0
LINE
  5
89F7
  8
COS
 10
-86.4143031510302677
 20
9.5904054749942826
 30
0.0
 11
-86.4143031510302677
 21
49.5904054749942418
 31
0.0
  0
LINE
  5
89F8
  8
COS
 10
-288.9143031510300261
 20
9.5904054749944958
 30
0.0
 11
-288.9143031510300261
 21
49.5904054749944407
 31
0.0
  0
POLYLINE
  5
89F9
  8
COS
 10
-68.023067304255747
 20
27.3692351724307343
 30
0.0
 66
     1
 70
     8
  0
VERTEX
  8
COS
  5
8BC3
 10
-68.0231
 20
27.3692
 30
0.00000
  70
    32
  0
VERTEX
  8
COS
  5
8BC4
 10
-68.0232
 20
27.3693
 30
0.00000
  70
    32
  0
VERTEX
  8
COS
  5
8BC5
 10
-68.0233
 20
27.3693
 30
0.00000
  70
    32
  0
VERTEX
  8
COS
  5
8BC6
 10
-68.0234
 20
27.3694
 30
0.00000
  70
    32
  0
VERTEX
  8
COS
  5
8BC7
 10
-68.0235
 20
27.3695
 30
0.00000
  70
    32
  0
VERTEX
  8
COS
  5
8BC8
 10
-68.0236
 20
27.3695
 30
0.00000
  70
    32
  0
VERTEX
  8
COS
  5
8BC9
 10
-68.0237
 20
27.3696
 30
0.00000
  70
    32
  0
VERTEX
  8
COS
  5
8BCA
 10
-68.0238
 20
27.3696
 30
0.00000
  70
    32
  0
VERTEX
  8
COS
  5
8BCB
 10
-68.0239
 20
27.3697
 30
0.00000
  70
    32
  0
VERTEX
  8
COS
  5
8BCC
 10
-68.0240
 20
27.3697
 30
0.00000
  70
    32
  0
VERTEX
  8
COS
  5
8BCD
 10
-68.0241
 20
27.3698
 30
0.00000
  70
    32
  0
VERTEX
  8
COS
  5
8BCE
 10
-68.0242
 20
27.3698
 30
0.00000
  70
    32
  0
VERTEX
  8
COS
  5
8BCF
 10
-68.0243
 20
27.3699
 30
0.00000
  70
    32
  0
VERTEX
  8
COS
  5
8BD0
 10
-68.0244
 20
27.3699
 30
0.00000
  70
    32
  0
VERTEX
  8
COS
  5
8BD1
 10
-68.0245
 20
27.3700
 30
0.00000
  70
    32
  0
VERTEX
  8
COS
  5
8BD2
 10
-68.0246
 20
27.3701
 30
0.00000
  70
    32
  0
VERTEX
  8
COS
  5
8BD3
 10
-68.0247
 20
27.3701
 30
0.00000
  70
    32
  0
VERTEX
  8
COS
  5
8BD4
 10
-68.0248
 20
27.3702
 30
0.00000
  70
    32
  0
VERTEX
  8
COS
  5
8BD5
 10
-68.0249
 20
27.3702
 30
0.00000
  70
    32
  0
VERTEX
  8
COS
  5
8BD6
 10
-68.0250
 20
27.3703
 30
0.00000
  70
    32
  0
VERTEX
  8
COS
  5
8BD7
 10
-68.0251
 20
27.3703
 30
0.00000
  70
    32
  0
VERTEX
  8
COS
  5
8BD8
 10
-68.0252
 20
27.3704
 30
0.00000
  70
    32
  0
VERTEX
  8
COS
  5
8BD9
 10
-68.0253
 20
27.3704
 30
0.00000
  70
    32
  0
VERTEX
  8
COS
  5
8BDA
 10
-68.0254
 20
27.3705
 30
0.00000
  70
    32
  0
VERTEX
  8
COS
  5
8BDB
 10
-68.0255
 20
27.3705
 30
0.00000
  70
    32
  0
VERTEX
  8
COS
  5
8BDC
 10
-68.0256
 20
27.3706
 30
0.00000
  70
    32
  0
VERTEX
  8
COS
  5
8BDD
 10
-68.0257
 20
27.3707
 30
0.00000
  70
    32
  0
VERTEX
  8
COS
  5
8BDE
 10
-68.0258
 20
27.3707
 30
0.00000
  70
    32
  0
VERTEX
  8
COS
  5
8BDF
 10
-68.0259
 20
27.3708
 30
0.00000
  70
    32
  0
VERTEX
  8
COS
  5
8BE0
 10
-68.0260
 20
27.3708
 30
0.00000
  70
    32
  0
VERTEX
  8
COS
  5
8BE1
 10
-68.0261
 20
27.3709
 30
0.00000
  70
    32
  0
VERTEX
  8
COS
  5
8BE2
 10
-68.0262
 20
27.3709
 30
0.00000
  70
    32
  0
VERTEX
  8
COS
  5
8BE3
 10
-68.0263
 20
27.3710
 30
0.00000
  70
    32
  0
VERTEX
  8
COS
  5
8BE4
 10
-68.0264
 20
27.3710
 30
0.00000
  70
    32
  0
VERTEX
  8
COS
  5
8BE5
 10
-68.0265
 20
27.3711
 30
0.00000
  70
    32
  0
VERTEX
  8
COS
  5
8BE6
 10
-68.0266
 20
27.3711
 30
0.00000
  70
    32
  0
VERTEX
  8
COS
  5
8BE7
 10
-68.0267
 20
27.3712
 30
0.00000
  70
    32
  0
VERTEX
  8
COS
  5
8BE8
 10
-68.0268
 20
27.3713
 30
0.00000
  70
    32
  0
VERTEX
  8
COS
  5
8BE9
 10
-68.0269
 20
27.3713
 30
0.00000
  70
    32
  0
VERTEX
  8
COS
  5
8BEA
 10
-68.0270
 20
27.3714
 30
0.00000
  70
    32
  0
VERTEX
  8
COS
  5
8BEB
 10
-68.0271
 20
27.3714
 30
0.00000
  70
    32
  0
VERTEX
  8
COS
  5
8BEC
 10
-68.0272
 20
27.3715
 30
0.00000
  70
    32
  0
VERTEX
  8
COS
  5
8BED
 10
-68.0273
 20
27.3715
 30
0.00000
  70
    32
  0
VERTEX
  8
COS
  5
8BEE
 10
-68.0274
 20
27.3716
 30
0.00000
  70
    32
  0
VERTEX
  8
COS
  5
8BEF
 10
-68.0276
 20
27.3716
 30
0.00000
  70
    32
  0
VERTEX
  8
COS
  5
8BF0
 10
-68.0277
 20
27.3717
 30
0.00000
  70
    32
  0
VERTEX
  8
COS
  5
8BF1
 10
-68.0278
 20
27.3717
 30
0.00000
  70
    32
  0
VERTEX
  8
COS
  5
8BF2
 10
-68.0279
 20
27.3718
 30
0.00000
  70
    32
  0
VERTEX
  8
COS
  5
8BF3
 10
-68.0280
 20
27.3718
 30
0.00000
  70
    32
  0
VERTEX
  8
COS
  5
8BF4
 10
-68.0281
 20
27.3719
 30
0.00000
  70
    32
  0
VERTEX
  8
COS
  5
8BF5
 10
-68.0282
 20
27.3720
 30
0.00000
  70
    32
  0
VERTEX
  8
COS
  5
8BF6
 10
-68.0283
 20
27.3720
 30
0.00000
  70
    32
  0
VERTEX
  8
COS
  5
8BF7
 10
-68.0284
 20
27.3721
 30
0.00000
  70
    32
  0
VERTEX
  8
COS
  5
8BF8
 10
-68.0285
 20
27.3721
 30
0.00000
  70
    32
  0
VERTEX
  8
COS
  5
8BF9
 10
-68.0286
 20
27.3722
 30
0.00000
  70
    32
  0
VERTEX
  8
COS
  5
8BFA
 10
-68.0287
 20
27.3722
 30
0.00000
  70
    32
  0
VERTEX
  8
COS
  5
8BFB
 10
-68.0288
 20
27.3723
 30
0.00000
  70
    32
  0
VERTEX
  8
COS
  5
8BFC
 10
-68.0289
 20
27.3723
 30
0.00000
  70
    32
  0
VERTEX
  8
COS
  5
8BFD
 10
-68.0290
 20
27.3724
 30
0.00000
  70
    32
  0
VERTEX
  8
COS
  5
8BFE
 10
-68.0291
 20
27.3724
 30
0.00000
  70
    32
  0
VERTEX
  8
COS
  5
8BFF
 10
-68.0292
 20
27.3725
 30
0.00000
  70
    32
  0
VERTEX
  8
COS
  5
8C00
 10
-68.0293
 20
27.3726
 30
0.00000
  70
    32
  0
VERTEX
  8
COS
  5
8C01
 10
-68.0294
 20
27.3726
 30
0.00000
  70
    32
  0
VERTEX
  8
COS
  5
8C02
 10
-68.0295
 20
27.3727
 30
0.00000
  70
    32
  0
VERTEX
  8
COS
  5
8C03
 10
-68.0296
 20
27.3727
 30
0.00000
  70
    32
  0
VERTEX
  8
COS
  5
8C04
 10
-68.0297
 20
27.3728
 30
0.00000
  70
    32
  0
VERTEX
  8
COS
  5
8C05
 10
-68.0298
 20
27.3728
 30
0.00000
  70
    32
  0
VERTEX
  8
COS
  5
8C06
 10
-68.0299
 20
27.3729
 30
0.00000
  70
    32
  0
VERTEX
  8
COS
  5
8C07
 10
-68.0300
 20
27.3729
 30
0.00000
  70
    32
  0
VERTEX
  8
COS
  5
8C08
 10
-68.0301
 20
27.3730
 30
0.00000
  70
    32
  0
VERTEX
  8
COS
  5
8C09
 10
-68.0302
 20
27.3730
 30
0.00000
  70
    32
  0
VERTEX
  8
COS
  5
8C0A
 10
-68.0303
 20
27.3731
 30
0.00000
  70
    32
  0
VERTEX
  8
COS
  5
8C0B
 10
-68.0304
 20
27.3732
 30
0.00000
  70
    32
  0
VERTEX
  8
COS
  5
8C0C
 10
-68.0305
 20
27.3732
 30
0.00000
  70
    32
  0
VERTEX
  8
COS
  5
8C0D
 10
-68.0306
 20
27.3733
 30
0.00000
  70
    32
  0
VERTEX
  8
COS
  5
8C0E
 10
-68.0307
 20
27.3733
 30
0.00000
  70
    32
  0
VERTEX
  8
COS
  5
8C0F
 10
-68.0308
 20
27.3734
 30
0.00000
  70
    32
  0
VERTEX
  8
COS
  5
8C10
 10
-68.0309
 20
27.3734
 30
0.00000
  70
    32
  0
VERTEX
  8
COS
  5
8C11
 10
-68.0310
 20
27.3735
 30
0.00000
  70
    32
  0
VERTEX
  8
COS
  5
8C12
 10
-68.0311
 20
27.3735
 30
0.00000
  70
    32
  0
VERTEX
  8
COS
  5
8C13
 10
-68.0312
 20
27.3736
 30
0.00000
  70
    32
  0
VERTEX
  8
COS
  5
8C14
 10
-68.0313
 20
27.3736
 30
0.00000
  70
    32
  0
VERTEX
  8
COS
  5
8C15
 10
-68.0314
 20
27.3737
 30
0.00000
  70
    32
  0
VERTEX
  8
COS
  5
8C16
 10
-68.0315
 20
27.3738
 30
0.00000
  70
    32
  0
VERTEX
  8
COS
  5
8C17
 10
-68.0316
 20
27.3738
 30
0.00000
  70
    32
  0
VERTEX
  8
COS
  5
8C18
 10
-68.0317
 20
27.3739
 30
0.00000
  70
    32
  0
VERTEX
  8
COS
  5
8C19
 10
-68.0318
 20
27.3739
 30
0.00000
  70
    32
  0
VERTEX
  8
COS
  5
8C1A
 10
-68.0319
 20
27.3740
 30
0.00000
  70
    32
  0
VERTEX
  8
COS
  5
8C1B
 10
-68.0320
 20
27.3740
 30
0.00000
  70
    32
  0
VERTEX
  8
COS
  5
8C1C
 10
-68.0321
 20
27.3741
 30
0.00000
  70
    32
  0
VERTEX
  8
COS
  5
8C1D
 10
-68.0322
 20
27.3741
 30
0.00000
  70
    32
  0
VERTEX
  8
COS
  5
8C1E
 10
-68.0323
 20
27.3742
 30
0.00000
  70
    32
  0
VERTEX
  8
COS
  5
8C1F
 10
-68.0324
 20
27.3742
 30
0.00000
  70
    32
  0
VERTEX
  8
COS
  5
8C20
 10
-68.0325
 20
27.3743
 30
0.00000
  70
    32
  0
VERTEX
  8
COS
  5
8C21
 10
-68.0326
 20
27.3744
 30
0.00000
  70
    32
  0
VERTEX
  8
COS
  5
8C22
 10
-68.0327
 20
27.3744
 30
0.00000
  70
    32
  0
VERTEX
  8
COS
  5
8C23
 10
-68.0328
 20
27.3745
 30
0.00000
  70
    32
  0
VERTEX
  8
COS
  5
8C24
 10
-68.0329
 20
27.3745
 30
0.00000
  70
    32
  0
VERTEX
  8
COS
  5
8C25
 10
-68.0330
 20
27.3746
 30
0.00000
  70
    32
  0
VERTEX
  8
COS
  5
8C26
 10
-68.0332
 20
27.3746
 30
0.00000
  70
    32
  0
VERTEX
  8
COS
  5
8C27
 10
-68.0333
 20
27.3747
 30
0.00000
  70
    32
  0
VERTEX
  8
COS
  5
8C28
 10
-68.0334
 20
27.3747
 30
0.00000
  70
    32
  0
VERTEX
  8
COS
  5
8C29
 10
-68.0335
 20
27.3748
 30
0.00000
  70
    32
  0
VERTEX
  8
COS
  5
8C2A
 10
-68.0336
 20
27.3748
 30
0.00000
  70
    32
  0
VERTEX
  8
COS
  5
8C2B
 10
-68.0337
 20
27.3749
 30
0.00000
  70
    32
  0
VERTEX
  8
COS
  5
8C2C
 10
-68.0338
 20
27.3750
 30
0.00000
  70
    32
  0
VERTEX
  8
COS
  5
8C2D
 10
-68.0339
 20
27.3750
 30
0.00000
  70
    32
  0
VERTEX
  8
COS
  5
8C2E
 10
-68.0340
 20
27.3751
 30
0.00000
  70
    32
  0
VERTEX
  8
COS
  5
8C2F
 10
-68.0341
 20
27.3751
 30
0.00000
  70
    32
  0
VERTEX
  8
COS
  5
8C30
 10
-68.0342
 20
27.3752
 30
0.00000
  70
    32
  0
VERTEX
  8
COS
  5
8C31
 10
-68.0343
 20
27.3752
 30
0.00000
  70
    32
  0
VERTEX
  8
COS
  5
8C32
 10
-68.0344
 20
27.3753
 30
0.00000
  70
    32
  0
VERTEX
  8
COS
  5
8C33
 10
-68.0345
 20
27.3753
 30
0.00000
  70
    32
  0
VERTEX
  8
COS
  5
8C34
 10
-68.0346
 20
27.3754
 30
0.00000
  70
    32
  0
VERTEX
  8
COS
  5
8C35
 10
-68.0347
 20
27.3754
 30
0.00000
  70
    32
  0
VERTEX
  8
COS
  5
8C36
 10
-68.0348
 20
27.3755
 30
0.00000
  70
    32
  0
VERTEX
  8
COS
  5
8C37
 10
-68.0349
 20
27.3756
 30
0.00000
  70
    32
  0
VERTEX
  8
COS
  5
8C38
 10
-68.0350
 20
27.3756
 30
0.00000
  70
    32
  0
VERTEX
  8
COS
  5
8C39
 10
-68.0351
 20
27.3757
 30
0.00000
  70
    32
  0
VERTEX
  8
COS
  5
8C3A
 10
-68.0352
 20
27.3757
 30
0.00000
  70
    32
  0
VERTEX
  8
COS
  5
8C3B
 10
-68.0353
 20
27.3758
 30
0.00000
  70
    32
  0
VERTEX
  8
COS
  5
8C3C
 10
-68.0354
 20
27.3758
 30
0.00000
  70
    32
  0
VERTEX
  8
COS
  5
8C3D
 10
-68.0355
 20
27.3759
 30
0.00000
  70
    32
  0
VERTEX
  8
COS
  5
8C3E
 10
-68.0356
 20
27.3759
 30
0.00000
  70
    32
  0
VERTEX
  8
COS
  5
8C3F
 10
-68.0357
 20
27.3760
 30
0.00000
  70
    32
  0
VERTEX
  8
COS
  5
8C40
 10
-68.0358
 20
27.3760
 30
0.00000
  70
    32
  0
VERTEX
  8
COS
  5
8C41
 10
-68.0359
 20
27.3761
 30
0.00000
  70
    32
  0
VERTEX
  8
COS
  5
8C42
 10
-68.0360
 20
27.3762
 30
0.00000
  70
    32
  0
VERTEX
  8
COS
  5
8C43
 10
-68.0361
 20
27.3762
 30
0.00000
  70
    32
  0
SEQEND
  8
COS
  5
8C44
  0
LINE
  5
8A0B
  8
COS
 10
-40.5839394421034712
 20
14.0152757125302898
 30
0.0
 11
-60.3022479672943135
 21
8.7211057788403252
 31
0.0
  0
POLYLINE
  5
8A0C
  8
COS
 10
-60.3022479672942495
 20
8.7211057788403412
 30
0.0
 66
     1
 70
     8
  0
VERTEX
  8
COS
  5
8C45
 10
-60.3022
 20
8.72111
 30
0.00000
  70
    32
  0
VERTEX
  8
COS
  5
8C46
 10
-60.3306
 20
8.71368
 30
0.00000
  70
    32
  0
VERTEX
  8
COS
  5
8C47
 10
-60.3590
 20
8.70661
 30
0.00000
  70
    32
  0
VERTEX
  8
COS
  5
8C48
 10
-60.3875
 20
8.69988
 30
0.00000
  70
    32
  0
VERTEX
  8
COS
  5
8C49
 10
-60.4161
 20
8.69351
 30
0.00000
  70
    32
  0
VERTEX
  8
COS
  5
8C4A
 10
-60.4448
 20
8.68749
 30
0.00000
  70
    32
  0
VERTEX
  8
COS
  5
8C4B
 10
-60.4735
 20
8.68182
 30
0.00000
  70
    32
  0
VERTEX
  8
COS
  5
8C4C
 10
-60.5023
 20
8.67651
 30
0.00000
  70
    32
  0
VERTEX
  8
COS
  5
8C4D
 10
-60.5312
 20
8.67155
 30
0.00000
  70
    32
  0
VERTEX
  8
COS
  5
8C4E
 10
-60.5601
 20
8.66695
 30
0.00000
  70
    32
  0
VERTEX
  8
COS
  5
8C4F
 10
-60.5890
 20
8.66270
 30
0.00000
  70
    32
  0
VERTEX
  8
COS
  5
8C50
 10
-60.6180
 20
8.65881
 30
0.00000
  70
    32
  0
VERTEX
  8
COS
  5
8C51
 10
-60.6471
 20
8.65528
 30
0.00000
  70
    32
  0
VERTEX
  8
COS
  5
8C52
 10
-60.6762
 20
8.65211
 30
0.00000
  70
    32
  0
VERTEX
  8
COS
  5
8C53
 10
-60.7053
 20
8.64930
 30
0.00000
  70
    32
  0
VERTEX
  8
COS
  5
8C54
 10
-60.7345
 20
8.64684
 30
0.00000
  70
    32
  0
VERTEX
  8
COS
  5
8C55
 10
-60.7636
 20
8.64475
 30
0.00000
  70
    32
  0
VERTEX
  8
COS
  5
8C56
 10
-60.7928
 20
8.64301
 30
0.00000
  70
    32
  0
VERTEX
  8
COS
  5
8C57
 10
-60.8220
 20
8.64163
 30
0.00000
  70
    32
  0
VERTEX
  8
COS
  5
8C58
 10
-60.8513
 20
8.64062
 30
0.00000
  70
    32
  0
VERTEX
  8
COS
  5
8C59
 10
-60.8805
 20
8.63996
 30
0.00000
  70
    32
  0
VERTEX
  8
COS
  5
8C5A
 10
-60.9097
 20
8.63967
 30
0.00000
  70
    32
  0
VERTEX
  8
COS
  5
8C5B
 10
-60.9390
 20
8.63974
 30
0.00000
  70
    32
  0
VERTEX
  8
COS
  5
8C5C
 10
-60.9682
 20
8.64016
 30
0.00000
  70
    32
  0
VERTEX
  8
COS
  5
8C5D
 10
-60.9974
 20
8.64095
 30
0.00000
  70
    32
  0
VERTEX
  8
COS
  5
8C5E
 10
-61.0266
 20
8.64210
 30
0.00000
  70
    32
  0
VERTEX
  8
COS
  5
8C5F
 10
-61.0558
 20
8.64360
 30
0.00000
  70
    32
  0
VERTEX
  8
COS
  5
8C60
 10
-61.0849
 20
8.64547
 30
0.00000
  70
    32
  0
VERTEX
  8
COS
  5
8C61
 10
-61.1141
 20
8.64770
 30
0.00000
  70
    32
  0
VERTEX
  8
COS
  5
8C62
 10
-61.1432
 20
8.65029
 30
0.00000
  70
    32
  0
VERTEX
  8
COS
  5
8C63
 10
-61.1722
 20
8.65323
 30
0.00000
  70
    32
  0
VERTEX
  8
COS
  5
8C64
 10
-61.2012
 20
8.65654
 30
0.00000
  70
    32
  0
VERTEX
  8
COS
  5
8C65
 10
-61.2302
 20
8.66020
 30
0.00000
  70
    32
  0
VERTEX
  8
COS
  5
8C66
 10
-61.2591
 20
8.66422
 30
0.00000
  70
    32
  0
VERTEX
  8
COS
  5
8C67
 10
-61.2880
 20
8.66859
 30
0.00000
  70
    32
  0
VERTEX
  8
COS
  5
8C68
 10
-61.3168
 20
8.67333
 30
0.00000
  70
    32
  0
VERTEX
  8
COS
  5
8C69
 10
-61.3456
 20
8.67842
 30
0.00000
  70
    32
  0
VERTEX
  8
COS
  5
8C6A
 10
-61.3742
 20
8.68386
 30
0.00000
  70
    32
  0
VERTEX
  8
COS
  5
8C6B
 10
-61.4028
 20
8.68966
 30
0.00000
  70
    32
  0
VERTEX
  8
COS
  5
8C6C
 10
-61.4314
 20
8.69581
 30
0.00000
  70
    32
  0
VERTEX
  8
COS
  5
8C6D
 10
-61.4598
 20
8.70231
 30
0.00000
  70
    32
  0
VERTEX
  8
COS
  5
8C6E
 10
-61.4882
 20
8.70916
 30
0.00000
  70
    32
  0
VERTEX
  8
COS
  5
8C6F
 10
-61.5165
 20
8.71636
 30
0.00000
  70
    32
  0
VERTEX
  8
COS
  5
8C70
 10
-61.5447
 20
8.72392
 30
0.00000
  70
    32
  0
VERTEX
  8
COS
  5
8C71
 10
-61.5727
 20
8.73182
 30
0.00000
  70
    32
  0
VERTEX
  8
COS
  5
8C72
 10
-61.6007
 20
8.74006
 30
0.00000
  70
    32
  0
VERTEX
  8
COS
  5
8C73
 10
-61.6286
 20
8.74866
 30
0.00000
  70
    32
  0
VERTEX
  8
COS
  5
8C74
 10
-61.6564
 20
8.75759
 30
0.00000
  70
    32
  0
VERTEX
  8
COS
  5
8C75
 10
-61.6840
 20
8.76687
 30
0.00000
  70
    32
  0
VERTEX
  8
COS
  5
8C76
 10
-61.7116
 20
8.77649
 30
0.00000
  70
    32
  0
VERTEX
  8
COS
  5
8C77
 10
-61.7390
 20
8.78645
 30
0.00000
  70
    32
  0
VERTEX
  8
COS
  5
8C78
 10
-61.7663
 20
8.79675
 30
0.00000
  70
    32
  0
VERTEX
  8
COS
  5
8C79
 10
-61.7934
 20
8.80739
 30
0.00000
  70
    32
  0
VERTEX
  8
COS
  5
8C7A
 10
-61.8205
 20
8.81836
 30
0.00000
  70
    32
  0
VERTEX
  8
COS
  5
8C7B
 10
-61.8474
 20
8.82966
 30
0.00000
  70
    32
  0
VERTEX
  8
COS
  5
8C7C
 10
-61.8741
 20
8.84130
 30
0.00000
  70
    32
  0
VERTEX
  8
COS
  5
8C7D
 10
-61.9007
 20
8.85327
 30
0.00000
  70
    32
  0
VERTEX
  8
COS
  5
8C7E
 10
-61.9271
 20
8.86556
 30
0.00000
  70
    32
  0
VERTEX
  8
COS
  5
8C7F
 10
-61.9534
 20
8.87818
 30
0.00000
  70
    32
  0
VERTEX
  8
COS
  5
8C80
 10
-61.9796
 20
8.89113
 30
0.00000
  70
    32
  0
VERTEX
  8
COS
  5
8C81
 10
-62.0055
 20
8.90440
 30
0.00000
  70
    32
  0
VERTEX
  8
COS
  5
8C82
 10
-62.0313
 20
8.91799
 30
0.00000
  70
    32
  0
VERTEX
  8
COS
  5
8C83
 10
-62.0570
 20
8.93190
 30
0.00000
  70
    32
  0
VERTEX
  8
COS
  5
8C84
 10
-62.0824
 20
8.94612
 30
0.00000
  70
    32
  0
VERTEX
  8
COS
  5
8C85
 10
-62.1077
 20
8.96066
 30
0.00000
  70
    32
  0
VERTEX
  8
COS
  5
8C86
 10
-62.1328
 20
8.97552
 30
0.00000
  70
    32
  0
VERTEX
  8
COS
  5
8C87
 10
-62.1577
 20
8.99068
 30
0.00000
  70
    32
  0
VERTEX
  8
COS
  5
8C88
 10
-62.1824
 20
9.00615
 30
0.00000
  70
    32
  0
VERTEX
  8
COS
  5
8C89
 10
-62.2069
 20
9.02192
 30
0.00000
  70
    32
  0
VERTEX
  8
COS
  5
8C8A
 10
-62.2313
 20
9.03800
 30
0.00000
  70
    32
  0
VERTEX
  8
COS
  5
8C8B
 10
-62.2554
 20
9.05438
 30
0.00000
  70
    32
  0
VERTEX
  8
COS
  5
8C8C
 10
-62.2793
 20
9.07105
 30
0.00000
  70
    32
  0
VERTEX
  8
COS
  5
8C8D
 10
-62.3031
 20
9.08803
 30
0.00000
  70
    32
  0
VERTEX
  8
COS
  5
8C8E
 10
-62.3266
 20
9.10529
 30
0.00000
  70
    32
  0
VERTEX
  8
COS
  5
8C8F
 10
-62.3498
 20
9.12285
 30
0.00000
  70
    32
  0
VERTEX
  8
COS
  5
8C90
 10
-62.3729
 20
9.14069
 30
0.00000
  70
    32
  0
VERTEX
  8
COS
  5
8C91
 10
-62.3958
 20
9.15882
 30
0.00000
  70
    32
  0
VERTEX
  8
COS
  5
8C92
 10
-62.4184
 20
9.17723
 30
0.00000
  70
    32
  0
VERTEX
  8
COS
  5
8C93
 10
-62.4408
 20
9.19592
 30
0.00000
  70
    32
  0
VERTEX
  8
COS
  5
8C94
 10
-62.4630
 20
9.21489
 30
0.00000
  70
    32
  0
VERTEX
  8
COS
  5
8C95
 10
-62.4849
 20
9.23413
 30
0.00000
  70
    32
  0
VERTEX
  8
COS
  5
8C96
 10
-62.5066
 20
9.25364
 30
0.00000
  70
    32
  0
VERTEX
  8
COS
  5
8C97
 10
-62.5280
 20
9.27342
 30
0.00000
  70
    32
  0
VERTEX
  8
COS
  5
8C98
 10
-62.5492
 20
9.29347
 30
0.00000
  70
    32
  0
VERTEX
  8
COS
  5
8C99
 10
-62.5702
 20
9.31378
 30
0.00000
  70
    32
  0
VERTEX
  8
COS
  5
8C9A
 10
-62.5909
 20
9.33434
 30
0.00000
  70
    32
  0
VERTEX
  8
COS
  5
8C9B
 10
-62.6113
 20
9.35516
 30
0.00000
  70
    32
  0
VERTEX
  8
COS
  5
8C9C
 10
-62.6315
 20
9.37624
 30
0.00000
  70
    32
  0
VERTEX
  8
COS
  5
8C9D
 10
-62.6514
 20
9.39757
 30
0.00000
  70
    32
  0
VERTEX
  8
COS
  5
8C9E
 10
-62.6711
 20
9.41914
 30
0.00000
  70
    32
  0
VERTEX
  8
COS
  5
8C9F
 10
-62.6905
 20
9.44095
 30
0.00000
  70
    32
  0
VERTEX
  8
COS
  5
8CA0
 10
-62.7096
 20
9.46301
 30
0.00000
  70
    32
  0
VERTEX
  8
COS
  5
8CA1
 10
-62.7285
 20
9.48530
 30
0.00000
  70
    32
  0
VERTEX
  8
COS
  5
8CA2
 10
-62.7471
 20
9.50782
 30
0.00000
  70
    32
  0
VERTEX
  8
COS
  5
8CA3
 10
-62.7654
 20
9.53058
 30
0.00000
  70
    32
  0
VERTEX
  8
COS
  5
8CA4
 10
-62.7834
 20
9.55356
 30
0.00000
  70
    32
  0
VERTEX
  8
COS
  5
8CA5
 10
-62.8011
 20
9.57676
 30
0.00000
  70
    32
  0
VERTEX
  8
COS
  5
8CA6
 10
-62.8186
 20
9.60018
 30
0.00000
  70
    32
  0
VERTEX
  8
COS
  5
8CA7
 10
-62.8357
 20
9.62382
 30
0.00000
  70
    32
  0
VERTEX
  8
COS
  5
8CA8
 10
-62.8526
 20
9.64767
 30
0.00000
  70
    32
  0
VERTEX
  8
COS
  5
8CA9
 10
-62.8692
 20
9.67173
 30
0.00000
  70
    32
  0
VERTEX
  8
COS
  5
8CAA
 10
-62.8854
 20
9.69600
 30
0.00000
  70
    32
  0
VERTEX
  8
COS
  5
8CAB
 10
-62.9014
 20
9.72046
 30
0.00000
  70
    32
  0
VERTEX
  8
COS
  5
8CAC
 10
-62.9171
 20
9.74513
 30
0.00000
  70
    32
  0
VERTEX
  8
COS
  5
8CAD
 10
-62.9325
 20
9.76999
 30
0.00000
  70
    32
  0
VERTEX
  8
COS
  5
8CAE
 10
-62.9475
 20
9.79504
 30
0.00000
  70
    32
  0
VERTEX
  8
COS
  5
8CAF
 10
-62.9623
 20
9.82027
 30
0.00000
  70
    32
  0
VERTEX
  8
COS
  5
8CB0
 10
-62.9767
 20
9.84569
 30
0.00000
  70
    32
  0
VERTEX
  8
COS
  5
8CB1
 10
-62.9909
 20
9.87129
 30
0.00000
  70
    32
  0
VERTEX
  8
COS
  5
8CB2
 10
-63.0047
 20
9.89706
 30
0.00000
  70
    32
  0
VERTEX
  8
COS
  5
8CB3
 10
-63.0182
 20
9.92300
 30
0.00000
  70
    32
  0
VERTEX
  8
COS
  5
8CB4
 10
-63.0314
 20
9.94911
 30
0.00000
  70
    32
  0
VERTEX
  8
COS
  5
8CB5
 10
-63.0442
 20
9.97539
 30
0.00000
  70
    32
  0
VERTEX
  8
COS
  5
8CB6
 10
-63.0568
 20
10.0018
 30
0.00000
  70
    32
  0
VERTEX
  8
COS
  5
8CB7
 10
-63.0690
 20
10.0284
 30
0.00000
  70
    32
  0
VERTEX
  8
COS
  5
8CB8
 10
-63.0809
 20
10.0551
 30
0.00000
  70
    32
  0
VERTEX
  8
COS
  5
8CB9
 10
-63.0924
 20
10.0820
 30
0.00000
  70
    32
  0
VERTEX
  8
COS
  5
8CBA
 10
-63.1037
 20
10.1091
 30
0.00000
  70
    32
  0
VERTEX
  8
COS
  5
8CBB
 10
-63.1146
 20
10.1362
 30
0.00000
  70
    32
  0
VERTEX
  8
COS
  5
8CBC
 10
-63.1251
 20
10.1635
 30
0.00000
  70
    32
  0
VERTEX
  8
COS
  5
8CBD
 10
-63.1353
 20
10.1910
 30
0.00000
  70
    32
  0
VERTEX
  8
COS
  5
8CBE
 10
-63.1452
 20
10.2185
 30
0.00000
  70
    32
  0
VERTEX
  8
COS
  5
8CBF
 10
-63.1548
 20
10.2462
 30
0.00000
  70
    32
  0
VERTEX
  8
COS
  5
8CC0
 10
-63.1640
 20
10.2740
 30
0.00000
  70
    32
  0
VERTEX
  8
COS
  5
8CC1
 10
-63.1729
 20
10.3020
 30
0.00000
  70
    32
  0
VERTEX
  8
COS
  5
8CC2
 10
-63.1814
 20
10.3300
 30
0.00000
  70
    32
  0
VERTEX
  8
COS
  5
8CC3
 10
-63.1896
 20
10.3581
 30
0.00000
  70
    32
  0
VERTEX
  8
COS
  5
8CC4
 10
-63.1974
 20
10.3864
 30
0.00000
  70
    32
  0
VERTEX
  8
COS
  5
8CC5
 10
-63.2049
 20
10.4147
 30
0.00000
  70
    32
  0
SEQEND
  8
COS
  5
8CC6
  0
LINE
  5
8A0D
  8
COS
 10
-63.2049157852544425
 20
10.4146904337824502
 30
0.0
 11
-68.3044171036234502
 21
30.1890091672274217
 31
0.0
  0
POLYLINE
  5
8A0E
  8
COS
 10
-68.3044171036234644
 20
30.1890091672274039
 30
0.0
 66
     1
 70
     8
  0
VERTEX
  8
COS
  5
8CC7
 10
-68.3044
 20
30.1890
 30
0.00000
  70
    32
  0
VERTEX
  8
COS
  5
8CC8
 10
-68.3116
 20
30.2174
 30
0.00000
  70
    32
  0
VERTEX
  8
COS
  5
8CC9
 10
-68.3184
 20
30.2460
 30
0.00000
  70
    32
  0
VERTEX
  8
COS
  5
8CCA
 10
-68.3248
 20
30.2746
 30
0.00000
  70
    32
  0
VERTEX
  8
COS
  5
8CCB
 10
-68.3309
 20
30.3032
 30
0.00000
  70
    32
  0
VERTEX
  8
COS
  5
8CCC
 10
-68.3367
 20
30.3320
 30
0.00000
  70
    32
  0
VERTEX
  8
COS
  5
8CCD
 10
-68.3420
 20
30.3608
 30
0.00000
  70
    32
  0
VERTEX
  8
COS
  5
8CCE
 10
-68.3471
 20
30.3897
 30
0.00000
  70
    32
  0
VERTEX
  8
COS
  5
8CCF
 10
-68.3518
 20
30.4187
 30
0.00000
  70
    32
  0
VERTEX
  8
COS
  5
8CD0
 10
-68.3561
 20
30.4477
 30
0.00000
  70
    32
  0
VERTEX
  8
COS
  5
8CD1
 10
-68.3601
 20
30.4768
 30
0.00000
  70
    32
  0
VERTEX
  8
COS
  5
8CD2
 10
-68.3637
 20
30.5059
 30
0.00000
  70
    32
  0
VERTEX
  8
COS
  5
8CD3
 10
-68.3670
 20
30.5351
 30
0.00000
  70
    32
  0
VERTEX
  8
COS
  5
8CD4
 10
-68.3699
 20
30.5643
 30
0.00000
  70
    32
  0
VERTEX
  8
COS
  5
8CD5
 10
-68.3724
 20
30.5935
 30
0.00000
  70
    32
  0
VERTEX
  8
COS
  5
8CD6
 10
-68.3746
 20
30.6228
 30
0.00000
  70
    32
  0
VERTEX
  8
COS
  5
8CD7
 10
-68.3765
 20
30.6521
 30
0.00000
  70
    32
  0
VERTEX
  8
COS
  5
8CD8
 10
-68.3779
 20
30.6814
 30
0.00000
  70
    32
  0
VERTEX
  8
COS
  5
8CD9
 10
-68.3791
 20
30.7108
 30
0.00000
  70
    32
  0
VERTEX
  8
COS
  5
8CDA
 10
-68.3798
 20
30.7402
 30
0.00000
  70
    32
  0
VERTEX
  8
COS
  5
8CDB
 10
-68.3802
 20
30.7695
 30
0.00000
  70
    32
  0
VERTEX
  8
COS
  5
8CDC
 10
-68.3803
 20
30.7989
 30
0.00000
  70
    32
  0
VERTEX
  8
COS
  5
8CDD
 10
-68.3800
 20
30.8283
 30
0.00000
  70
    32
  0
VERTEX
  8
COS
  5
8CDE
 10
-68.3793
 20
30.8577
 30
0.00000
  70
    32
  0
VERTEX
  8
COS
  5
8CDF
 10
-68.3782
 20
30.8870
 30
0.00000
  70
    32
  0
VERTEX
  8
COS
  5
8CE0
 10
-68.3769
 20
30.9164
 30
0.00000
  70
    32
  0
VERTEX
  8
COS
  5
8CE1
 10
-68.3751
 20
30.9457
 30
0.00000
  70
    32
  0
VERTEX
  8
COS
  5
8CE2
 10
-68.3730
 20
30.9751
 30
0.00000
  70
    32
  0
VERTEX
  8
COS
  5
8CE3
 10
-68.3705
 20
31.0044
 30
0.00000
  70
    32
  0
VERTEX
  8
COS
  5
8CE4
 10
-68.3677
 20
31.0336
 30
0.00000
  70
    32
  0
VERTEX
  8
COS
  5
8CE5
 10
-68.3645
 20
31.0629
 30
0.00000
  70
    32
  0
VERTEX
  8
COS
  5
8CE6
 10
-68.3610
 20
31.0921
 30
0.00000
  70
    32
  0
VERTEX
  8
COS
  5
8CE7
 10
-68.3571
 20
31.1212
 30
0.00000
  70
    32
  0
VERTEX
  8
COS
  5
8CE8
 10
-68.3529
 20
31.1503
 30
0.00000
  70
    32
  0
VERTEX
  8
COS
  5
8CE9
 10
-68.3483
 20
31.1794
 30
0.00000
  70
    32
  0
VERTEX
  8
COS
  5
8CEA
 10
-68.3433
 20
31.2084
 30
0.00000
  70
    32
  0
VERTEX
  8
COS
  5
8CEB
 10
-68.3380
 20
31.2373
 30
0.00000
  70
    32
  0
VERTEX
  8
COS
  5
8CEC
 10
-68.3323
 20
31.2662
 30
0.00000
  70
    32
  0
VERTEX
  8
COS
  5
8CED
 10
-68.3263
 20
31.2950
 30
0.00000
  70
    32
  0
VERTEX
  8
COS
  5
8CEE
 10
-68.3200
 20
31.3237
 30
0.00000
  70
    32
  0
VERTEX
  8
COS
  5
8CEF
 10
-68.3133
 20
31.3524
 30
0.00000
  70
    32
  0
VERTEX
  8
COS
  5
8CF0
 10
-68.3062
 20
31.3809
 30
0.00000
  70
    32
  0
VERTEX
  8
COS
  5
8CF1
 10
-68.2988
 20
31.4094
 30
0.00000
  70
    32
  0
VERTEX
  8
COS
  5
8CF2
 10
-68.2910
 20
31.4378
 30
0.00000
  70
    32
  0
VERTEX
  8
COS
  5
8CF3
 10
-68.2829
 20
31.4661
 30
0.00000
  70
    32
  0
VERTEX
  8
COS
  5
8CF4
 10
-68.2745
 20
31.4943
 30
0.00000
  70
    32
  0
VERTEX
  8
COS
  5
8CF5
 10
-68.2657
 20
31.5224
 30
0.00000
  70
    32
  0
VERTEX
  8
COS
  5
8CF6
 10
-68.2566
 20
31.5504
 30
0.00000
  70
    32
  0
VERTEX
  8
COS
  5
8CF7
 10
-68.2471
 20
31.5783
 30
0.00000
  70
    32
  0
VERTEX
  8
COS
  5
8CF8
 10
-68.2373
 20
31.6060
 30
0.00000
  70
    32
  0
VERTEX
  8
COS
  5
8CF9
 10
-68.2272
 20
31.6337
 30
0.00000
  70
    32
  0
VERTEX
  8
COS
  5
8CFA
 10
-68.2167
 20
31.6612
 30
0.00000
  70
    32
  0
VERTEX
  8
COS
  5
8CFB
 10
-68.2059
 20
31.6886
 30
0.00000
  70
    32
  0
VERTEX
  8
COS
  5
8CFC
 10
-68.1947
 20
31.7158
 30
0.00000
  70
    32
  0
VERTEX
  8
COS
  5
8CFD
 10
-68.1832
 20
31.7430
 30
0.00000
  70
    32
  0
VERTEX
  8
COS
  5
8CFE
 10
-68.1714
 20
31.7699
 30
0.00000
  70
    32
  0
VERTEX
  8
COS
  5
8CFF
 10
-68.1593
 20
31.7968
 30
0.00000
  70
    32
  0
VERTEX
  8
COS
  5
8D00
 10
-68.1468
 20
31.8235
 30
0.00000
  70
    32
  0
VERTEX
  8
COS
  5
8D01
 10
-68.1341
 20
31.8500
 30
0.00000
  70
    32
  0
VERTEX
  8
COS
  5
8D02
 10
-68.1210
 20
31.8764
 30
0.00000
  70
    32
  0
VERTEX
  8
COS
  5
8D03
 10
-68.1075
 20
31.9026
 30
0.00000
  70
    32
  0
VERTEX
  8
COS
  5
8D04
 10
-68.0938
 20
31.9286
 30
0.00000
  70
    32
  0
VERTEX
  8
COS
  5
8D05
 10
-68.0797
 20
31.9545
 30
0.00000
  70
    32
  0
VERTEX
  8
COS
  5
8D06
 10
-68.0654
 20
31.9802
 30
0.00000
  70
    32
  0
VERTEX
  8
COS
  5
8D07
 10
-68.0507
 20
32.0058
 30
0.00000
  70
    32
  0
VERTEX
  8
COS
  5
8D08
 10
-68.0357
 20
32.0311
 30
0.00000
  70
    32
  0
VERTEX
  8
COS
  5
8D09
 10
-68.0204
 20
32.0563
 30
0.00000
  70
    32
  0
VERTEX
  8
COS
  5
8D0A
 10
-68.0048
 20
32.0813
 30
0.00000
  70
    32
  0
VERTEX
  8
COS
  5
8D0B
 10
-67.9889
 20
32.1060
 30
0.00000
  70
    32
  0
VERTEX
  8
COS
  5
8D0C
 10
-67.9727
 20
32.1306
 30
0.00000
  70
    32
  0
VERTEX
  8
COS
  5
8D0D
 10
-67.9562
 20
32.1550
 30
0.00000
  70
    32
  0
VERTEX
  8
COS
  5
8D0E
 10
-67.9394
 20
32.1792
 30
0.00000
  70
    32
  0
VERTEX
  8
COS
  5
8D0F
 10
-67.9223
 20
32.2032
 30
0.00000
  70
    32
  0
VERTEX
  8
COS
  5
8D10
 10
-67.9049
 20
32.2270
 30
0.00000
  70
    32
  0
VERTEX
  8
COS
  5
8D11
 10
-67.8872
 20
32.2505
 30
0.00000
  70
    32
  0
VERTEX
  8
COS
  5
8D12
 10
-67.8693
 20
32.2739
 30
0.00000
  70
    32
  0
VERTEX
  8
COS
  5
8D13
 10
-67.8511
 20
32.2970
 30
0.00000
  70
    32
  0
VERTEX
  8
COS
  5
8D14
 10
-67.8326
 20
32.3199
 30
0.00000
  70
    32
  0
VERTEX
  8
COS
  5
8D15
 10
-67.8138
 20
32.3426
 30
0.00000
  70
    32
  0
VERTEX
  8
COS
  5
8D16
 10
-67.7947
 20
32.3650
 30
0.00000
  70
    32
  0
VERTEX
  8
COS
  5
8D17
 10
-67.7754
 20
32.3872
 30
0.00000
  70
    32
  0
VERTEX
  8
COS
  5
8D18
 10
-67.7558
 20
32.4092
 30
0.00000
  70
    32
  0
VERTEX
  8
COS
  5
8D19
 10
-67.7359
 20
32.4309
 30
0.00000
  70
    32
  0
VERTEX
  8
COS
  5
8D1A
 10
-67.7158
 20
32.4524
 30
0.00000
  70
    32
  0
VERTEX
  8
COS
  5
8D1B
 10
-67.6954
 20
32.4736
 30
0.00000
  70
    32
  0
VERTEX
  8
COS
  5
8D1C
 10
-67.6748
 20
32.4946
 30
0.00000
  70
    32
  0
VERTEX
  8
COS
  5
8D1D
 10
-67.6539
 20
32.5153
 30
0.00000
  70
    32
  0
VERTEX
  8
COS
  5
8D1E
 10
-67.6327
 20
32.5358
 30
0.00000
  70
    32
  0
VERTEX
  8
COS
  5
8D1F
 10
-67.6113
 20
32.5560
 30
0.00000
  70
    32
  0
VERTEX
  8
COS
  5
8D20
 10
-67.5897
 20
32.5760
 30
0.00000
  70
    32
  0
VERTEX
  8
COS
  5
8D21
 10
-67.5678
 20
32.5956
 30
0.00000
  70
    32
  0
VERTEX
  8
COS
  5
8D22
 10
-67.5457
 20
32.6151
 30
0.00000
  70
    32
  0
VERTEX
  8
COS
  5
8D23
 10
-67.5234
 20
32.6342
 30
0.00000
  70
    32
  0
VERTEX
  8
COS
  5
8D24
 10
-67.5008
 20
32.6531
 30
0.00000
  70
    32
  0
VERTEX
  8
COS
  5
8D25
 10
-67.4780
 20
32.6717
 30
0.00000
  70
    32
  0
VERTEX
  8
COS
  5
8D26
 10
-67.4550
 20
32.6900
 30
0.00000
  70
    32
  0
VERTEX
  8
COS
  5
8D27
 10
-67.4318
 20
32.7080
 30
0.00000
  70
    32
  0
VERTEX
  8
COS
  5
8D28
 10
-67.4083
 20
32.7257
 30
0.00000
  70
    32
  0
VERTEX
  8
COS
  5
8D29
 10
-67.3847
 20
32.7432
 30
0.00000
  70
    32
  0
VERTEX
  8
COS
  5
8D2A
 10
-67.3608
 20
32.7603
 30
0.00000
  70
    32
  0
VERTEX
  8
COS
  5
8D2B
 10
-67.3367
 20
32.7772
 30
0.00000
  70
    32
  0
VERTEX
  8
COS
  5
8D2C
 10
-67.3124
 20
32.7938
 30
0.00000
  70
    32
  0
VERTEX
  8
COS
  5
8D2D
 10
-67.2879
 20
32.8100
 30
0.00000
  70
    32
  0
VERTEX
  8
COS
  5
8D2E
 10
-67.2633
 20
32.8260
 30
0.00000
  70
    32
  0
VERTEX
  8
COS
  5
8D2F
 10
-67.2384
 20
32.8417
 30
0.00000
  70
    32
  0
VERTEX
  8
COS
  5
8D30
 10
-67.2133
 20
32.8570
 30
0.00000
  70
    32
  0
VERTEX
  8
COS
  5
8D31
 10
-67.1881
 20
32.8721
 30
0.00000
  70
    32
  0
VERTEX
  8
COS
  5
8D32
 10
-67.1627
 20
32.8868
 30
0.00000
  70
    32
  0
VERTEX
  8
COS
  5
8D33
 10
-67.1371
 20
32.9012
 30
0.00000
  70
    32
  0
VERTEX
  8
COS
  5
8D34
 10
-67.1113
 20
32.9153
 30
0.00000
  70
    32
  0
VERTEX
  8
COS
  5
8D35
 10
-67.0854
 20
32.9291
 30
0.00000
  70
    32
  0
VERTEX
  8
COS
  5
8D36
 10
-67.0593
 20
32.9426
 30
0.00000
  70
    32
  0
VERTEX
  8
COS
  5
8D37
 10
-67.0331
 20
32.9558
 30
0.00000
  70
    32
  0
VERTEX
  8
COS
  5
8D38
 10
-67.0067
 20
32.9686
 30
0.00000
  70
    32
  0
VERTEX
  8
COS
  5
8D39
 10
-66.9801
 20
32.9811
 30
0.00000
  70
    32
  0
VERTEX
  8
COS
  5
8D3A
 10
-66.9534
 20
32.9933
 30
0.00000
  70
    32
  0
VERTEX
  8
COS
  5
8D3B
 10
-66.9266
 20
33.0051
 30
0.00000
  70
    32
  0
VERTEX
  8
COS
  5
8D3C
 10
-66.8996
 20
33.0166
 30
0.00000
  70
    32
  0
VERTEX
  8
COS
  5
8D3D
 10
-66.8724
 20
33.0278
 30
0.00000
  70
    32
  0
VERTEX
  8
COS
  5
8D3E
 10
-66.8452
 20
33.0387
 30
0.00000
  70
    32
  0
VERTEX
  8
COS
  5
8D3F
 10
-66.8178
 20
33.0492
 30
0.00000
  70
    32
  0
VERTEX
  8
COS
  5
8D40
 10
-66.7903
 20
33.0593
 30
0.00000
  70
    32
  0
VERTEX
  8
COS
  5
8D41
 10
-66.7627
 20
33.0692
 30
0.00000
  70
    32
  0
VERTEX
  8
COS
  5
8D42
 10
-66.7349
 20
33.0787
 30
0.00000
  70
    32
  0
VERTEX
  8
COS
  5
8D43
 10
-66.7071
 20
33.0878
 30
0.00000
  70
    32
  0
VERTEX
  8
COS
  5
8D44
 10
-66.6791
 20
33.0966
 30
0.00000
  70
    32
  0
VERTEX
  8
COS
  5
8D45
 10
-66.6510
 20
33.1051
 30
0.00000
  70
    32
  0
VERTEX
  8
COS
  5
8D46
 10
-66.6229
 20
33.1132
 30
0.00000
  70
    32
  0
VERTEX
  8
COS
  5
8D47
 10
-66.5946
 20
33.1210
 30
0.00000
  70
    32
  0
SEQEND
  8
COS
  5
8D48
  0
LINE
  5
8A0F
  8
COS
 10
-66.5946150911296826
 20
33.1209961458396833
 30
0.0
 11
-46.8763065659388829
 21
38.4151660795296621
 31
0.0
  0
POLYLINE
  5
8A10
  8
COS
 10
-46.8763065659388687
 20
38.4151660795296479
 30
0.0
 66
     1
 70
     8
  0
VERTEX
  8
COS
  5
8D49
 10
-46.8763
 20
38.4152
 30
0.00000
  70
    32
  0
VERTEX
  8
COS
  5
8D4A
 10
-46.8480
 20
38.4226
 30
0.00000
  70
    32
  0
VERTEX
  8
COS
  5
8D4B
 10
-46.8195
 20
38.4297
 30
0.00000
  70
    32
  0
VERTEX
  8
COS
  5
8D4C
 10
-46.7910
 20
38.4364
 30
0.00000
  70
    32
  0
VERTEX
  8
COS
  5
8D4D
 10
-46.7624
 20
38.4428
 30
0.00000
  70
    32
  0
VERTEX
  8
COS
  5
8D4E
 10
-46.7338
 20
38.4488
 30
0.00000
  70
    32
  0
VERTEX
  8
COS
  5
8D4F
 10
-46.7050
 20
38.4545
 30
0.00000
  70
    32
  0
VERTEX
  8
COS
  5
8D50
 10
-46.6762
 20
38.4598
 30
0.00000
  70
    32
  0
VERTEX
  8
COS
  5
8D51
 10
-46.6474
 20
38.4647
 30
0.00000
  70
    32
  0
VERTEX
  8
COS
  5
8D52
 10
-46.6185
 20
38.4693
 30
0.00000
  70
    32
  0
VERTEX
  8
COS
  5
8D53
 10
-46.5895
 20
38.4736
 30
0.00000
  70
    32
  0
VERTEX
  8
COS
  5
8D54
 10
-46.5605
 20
38.4775
 30
0.00000
  70
    32
  0
VERTEX
  8
COS
  5
8D55
 10
-46.5315
 20
38.4810
 30
0.00000
  70
    32
  0
VERTEX
  8
COS
  5
8D56
 10
-46.5024
 20
38.4842
 30
0.00000
  70
    32
  0
VERTEX
  8
COS
  5
8D57
 10
-46.4732
 20
38.4870
 30
0.00000
  70
    32
  0
VERTEX
  8
COS
  5
8D58
 10
-46.4441
 20
38.4894
 30
0.00000
  70
    32
  0
VERTEX
  8
COS
  5
8D59
 10
-46.4149
 20
38.4915
 30
0.00000
  70
    32
  0
VERTEX
  8
COS
  5
8D5A
 10
-46.3857
 20
38.4933
 30
0.00000
  70
    32
  0
VERTEX
  8
COS
  5
8D5B
 10
-46.3565
 20
38.4946
 30
0.00000
  70
    32
  0
VERTEX
  8
COS
  5
8D5C
 10
-46.3273
 20
38.4957
 30
0.00000
  70
    32
  0
VERTEX
  8
COS
  5
8D5D
 10
-46.2981
 20
38.4963
 30
0.00000
  70
    32
  0
VERTEX
  8
COS
  5
8D5E
 10
-46.2688
 20
38.4966
 30
0.00000
  70
    32
  0
VERTEX
  8
COS
  5
8D5F
 10
-46.2396
 20
38.4965
 30
0.00000
  70
    32
  0
VERTEX
  8
COS
  5
8D60
 10
-46.2104
 20
38.4961
 30
0.00000
  70
    32
  0
VERTEX
  8
COS
  5
8D61
 10
-46.1812
 20
38.4953
 30
0.00000
  70
    32
  0
VERTEX
  8
COS
  5
8D62
 10
-46.1520
 20
38.4942
 30
0.00000
  70
    32
  0
VERTEX
  8
COS
  5
8D63
 10
-46.1228
 20
38.4927
 30
0.00000
  70
    32
  0
VERTEX
  8
COS
  5
8D64
 10
-46.0936
 20
38.4908
 30
0.00000
  70
    32
  0
VERTEX
  8
COS
  5
8D65
 10
-46.0645
 20
38.4886
 30
0.00000
  70
    32
  0
VERTEX
  8
COS
  5
8D66
 10
-46.0354
 20
38.4860
 30
0.00000
  70
    32
  0
VERTEX
  8
COS
  5
8D67
 10
-46.0063
 20
38.4830
 30
0.00000
  70
    32
  0
VERTEX
  8
COS
  5
8D68
 10
-45.9773
 20
38.4797
 30
0.00000
  70
    32
  0
VERTEX
  8
COS
  5
8D69
 10
-45.9483
 20
38.4761
 30
0.00000
  70
    32
  0
VERTEX
  8
COS
  5
8D6A
 10
-45.9194
 20
38.4721
 30
0.00000
  70
    32
  0
VERTEX
  8
COS
  5
8D6B
 10
-45.8906
 20
38.4677
 30
0.00000
  70
    32
  0
VERTEX
  8
COS
  5
8D6C
 10
-45.8617
 20
38.4629
 30
0.00000
  70
    32
  0
VERTEX
  8
COS
  5
8D6D
 10
-45.8330
 20
38.4579
 30
0.00000
  70
    32
  0
VERTEX
  8
COS
  5
8D6E
 10
-45.8043
 20
38.4524
 30
0.00000
  70
    32
  0
VERTEX
  8
COS
  5
8D6F
 10
-45.7757
 20
38.4466
 30
0.00000
  70
    32
  0
VERTEX
  8
COS
  5
8D70
 10
-45.7472
 20
38.4405
 30
0.00000
  70
    32
  0
VERTEX
  8
COS
  5
8D71
 10
-45.7187
 20
38.4340
 30
0.00000
  70
    32
  0
VERTEX
  8
COS
  5
8D72
 10
-45.6904
 20
38.4271
 30
0.00000
  70
    32
  0
VERTEX
  8
COS
  5
8D73
 10
-45.6621
 20
38.4199
 30
0.00000
  70
    32
  0
VERTEX
  8
COS
  5
8D74
 10
-45.6339
 20
38.4124
 30
0.00000
  70
    32
  0
VERTEX
  8
COS
  5
8D75
 10
-45.6058
 20
38.4045
 30
0.00000
  70
    32
  0
VERTEX
  8
COS
  5
8D76
 10
-45.5778
 20
38.3962
 30
0.00000
  70
    32
  0
VERTEX
  8
COS
  5
8D77
 10
-45.5499
 20
38.3876
 30
0.00000
  70
    32
  0
VERTEX
  8
COS
  5
8D78
 10
-45.5222
 20
38.3787
 30
0.00000
  70
    32
  0
VERTEX
  8
COS
  5
8D79
 10
-45.4945
 20
38.3694
 30
0.00000
  70
    32
  0
VERTEX
  8
COS
  5
8D7A
 10
-45.4670
 20
38.3598
 30
0.00000
  70
    32
  0
VERTEX
  8
COS
  5
8D7B
 10
-45.4396
 20
38.3498
 30
0.00000
  70
    32
  0
VERTEX
  8
COS
  5
8D7C
 10
-45.4123
 20
38.3395
 30
0.00000
  70
    32
  0
VERTEX
  8
COS
  5
8D7D
 10
-45.3851
 20
38.3289
 30
0.00000
  70
    32
  0
VERTEX
  8
COS
  5
8D7E
 10
-45.3581
 20
38.3179
 30
0.00000
  70
    32
  0
VERTEX
  8
COS
  5
8D7F
 10
-45.3312
 20
38.3066
 30
0.00000
  70
    32
  0
VERTEX
  8
COS
  5
8D80
 10
-45.3045
 20
38.2950
 30
0.00000
  70
    32
  0
VERTEX
  8
COS
  5
8D81
 10
-45.2779
 20
38.2830
 30
0.00000
  70
    32
  0
VERTEX
  8
COS
  5
8D82
 10
-45.2514
 20
38.2707
 30
0.00000
  70
    32
  0
VERTEX
  8
COS
  5
8D83
 10
-45.2251
 20
38.2581
 30
0.00000
  70
    32
  0
VERTEX
  8
COS
  5
8D84
 10
-45.1990
 20
38.2451
 30
0.00000
  70
    32
  0
VERTEX
  8
COS
  5
8D85
 10
-45.1730
 20
38.2319
 30
0.00000
  70
    32
  0
VERTEX
  8
COS
  5
8D86
 10
-45.1472
 20
38.2183
 30
0.00000
  70
    32
  0
VERTEX
  8
COS
  5
8D87
 10
-45.1216
 20
38.2044
 30
0.00000
  70
    32
  0
VERTEX
  8
COS
  5
8D88
 10
-45.0961
 20
38.1901
 30
0.00000
  70
    32
  0
VERTEX
  8
COS
  5
8D89
 10
-45.0709
 20
38.1756
 30
0.00000
  70
    32
  0
VERTEX
  8
COS
  5
8D8A
 10
-45.0458
 20
38.1608
 30
0.00000
  70
    32
  0
VERTEX
  8
COS
  5
8D8B
 10
-45.0209
 20
38.1456
 30
0.00000
  70
    32
  0
VERTEX
  8
COS
  5
8D8C
 10
-44.9961
 20
38.1301
 30
0.00000
  70
    32
  0
VERTEX
  8
COS
  5
8D8D
 10
-44.9716
 20
38.1144
 30
0.00000
  70
    32
  0
VERTEX
  8
COS
  5
8D8E
 10
-44.9473
 20
38.0983
 30
0.00000
  70
    32
  0
VERTEX
  8
COS
  5
8D8F
 10
-44.9231
 20
38.0819
 30
0.00000
  70
    32
  0
VERTEX
  8
COS
  5
8D90
 10
-44.8992
 20
38.0652
 30
0.00000
  70
    32
  0
VERTEX
  8
COS
  5
8D91
 10
-44.8755
 20
38.0482
 30
0.00000
  70
    32
  0
VERTEX
  8
COS
  5
8D92
 10
-44.8520
 20
38.0310
 30
0.00000
  70
    32
  0
VERTEX
  8
COS
  5
8D93
 10
-44.8287
 20
38.0134
 30
0.00000
  70
    32
  0
VERTEX
  8
COS
  5
8D94
 10
-44.8056
 20
37.9956
 30
0.00000
  70
    32
  0
VERTEX
  8
COS
  5
8D95
 10
-44.7828
 20
37.9775
 30
0.00000
  70
    32
  0
VERTEX
  8
COS
  5
8D96
 10
-44.7602
 20
37.9590
 30
0.00000
  70
    32
  0
VERTEX
  8
COS
  5
8D97
 10
-44.7378
 20
37.9404
 30
0.00000
  70
    32
  0
VERTEX
  8
COS
  5
8D98
 10
-44.7156
 20
37.9214
 30
0.00000
  70
    32
  0
VERTEX
  8
COS
  5
8D99
 10
-44.6937
 20
37.9021
 30
0.00000
  70
    32
  0
VERTEX
  8
COS
  5
8D9A
 10
-44.6720
 20
37.8826
 30
0.00000
  70
    32
  0
VERTEX
  8
COS
  5
8D9B
 10
-44.6505
 20
37.8628
 30
0.00000
  70
    32
  0
VERTEX
  8
COS
  5
8D9C
 10
-44.6293
 20
37.8428
 30
0.00000
  70
    32
  0
VERTEX
  8
COS
  5
8D9D
 10
-44.6084
 20
37.8225
 30
0.00000
  70
    32
  0
VERTEX
  8
COS
  5
8D9E
 10
-44.5877
 20
37.8019
 30
0.00000
  70
    32
  0
VERTEX
  8
COS
  5
8D9F
 10
-44.5672
 20
37.7811
 30
0.00000
  70
    32
  0
VERTEX
  8
COS
  5
8DA0
 10
-44.5470
 20
37.7600
 30
0.00000
  70
    32
  0
VERTEX
  8
COS
  5
8DA1
 10
-44.5271
 20
37.7387
 30
0.00000
  70
    32
  0
VERTEX
  8
COS
  5
8DA2
 10
-44.5074
 20
37.7171
 30
0.00000
  70
    32
  0
VERTEX
  8
COS
  5
8DA3
 10
-44.4881
 20
37.6953
 30
0.00000
  70
    32
  0
VERTEX
  8
COS
  5
8DA4
 10
-44.4689
 20
37.6733
 30
0.00000
  70
    32
  0
VERTEX
  8
COS
  5
8DA5
 10
-44.4501
 20
37.6510
 30
0.00000
  70
    32
  0
VERTEX
  8
COS
  5
8DA6
 10
-44.4315
 20
37.6285
 30
0.00000
  70
    32
  0
VERTEX
  8
COS
  5
8DA7
 10
-44.4132
 20
37.6057
 30
0.00000
  70
    32
  0
VERTEX
  8
COS
  5
8DA8
 10
-44.3952
 20
37.5827
 30
0.00000
  70
    32
  0
VERTEX
  8
COS
  5
8DA9
 10
-44.3774
 20
37.5595
 30
0.00000
  70
    32
  0
VERTEX
  8
COS
  5
8DAA
 10
-44.3600
 20
37.5361
 30
0.00000
  70
    32
  0
VERTEX
  8
COS
  5
8DAB
 10
-44.3428
 20
37.5125
 30
0.00000
  70
    32
  0
VERTEX
  8
COS
  5
8DAC
 10
-44.3260
 20
37.4886
 30
0.00000
  70
    32
  0
VERTEX
  8
COS
  5
8DAD
 10
-44.3094
 20
37.4645
 30
0.00000
  70
    32
  0
VERTEX
  8
COS
  5
8DAE
 10
-44.2931
 20
37.4403
 30
0.00000
  70
    32
  0
VERTEX
  8
COS
  5
8DAF
 10
-44.2771
 20
37.4158
 30
0.00000
  70
    32
  0
VERTEX
  8
COS
  5
8DB0
 10
-44.2615
 20
37.3911
 30
0.00000
  70
    32
  0
VERTEX
  8
COS
  5
8DB1
 10
-44.2461
 20
37.3663
 30
0.00000
  70
    32
  0
VERTEX
  8
COS
  5
8DB2
 10
-44.2310
 20
37.3412
 30
0.00000
  70
    32
  0
VERTEX
  8
COS
  5
8DB3
 10
-44.2163
 20
37.3160
 30
0.00000
  70
    32
  0
VERTEX
  8
COS
  5
8DB4
 10
-44.2018
 20
37.2906
 30
0.00000
  70
    32
  0
VERTEX
  8
COS
  5
8DB5
 10
-44.1877
 20
37.2650
 30
0.00000
  70
    32
  0
VERTEX
  8
COS
  5
8DB6
 10
-44.1739
 20
37.2392
 30
0.00000
  70
    32
  0
VERTEX
  8
COS
  5
8DB7
 10
-44.1604
 20
37.2133
 30
0.00000
  70
    32
  0
VERTEX
  8
COS
  5
8DB8
 10
-44.1472
 20
37.1872
 30
0.00000
  70
    32
  0
VERTEX
  8
COS
  5
8DB9
 10
-44.1343
 20
37.1609
 30
0.00000
  70
    32
  0
VERTEX
  8
COS
  5
8DBA
 10
-44.1218
 20
37.1345
 30
0.00000
  70
    32
  0
VERTEX
  8
COS
  5
8DBB
 10
-44.1096
 20
37.1079
 30
0.00000
  70
    32
  0
VERTEX
  8
COS
  5
8DBC
 10
-44.0977
 20
37.0811
 30
0.00000
  70
    32
  0
VERTEX
  8
COS
  5
8DBD
 10
-44.0861
 20
37.0542
 30
0.00000
  70
    32
  0
VERTEX
  8
COS
  5
8DBE
 10
-44.0749
 20
37.0272
 30
0.00000
  70
    32
  0
VERTEX
  8
COS
  5
8DBF
 10
-44.0640
 20
37.0000
 30
0.00000
  70
    32
  0
VERTEX
  8
COS
  5
8DC0
 10
-44.0534
 20
36.9727
 30
0.00000
  70
    32
  0
VERTEX
  8
COS
  5
8DC1
 10
-44.0432
 20
36.9453
 30
0.00000
  70
    32
  0
VERTEX
  8
COS
  5
8DC2
 10
-44.0333
 20
36.9177
 30
0.00000
  70
    32
  0
VERTEX
  8
COS
  5
8DC3
 10
-44.0238
 20
36.8900
 30
0.00000
  70
    32
  0
VERTEX
  8
COS
  5
8DC4
 10
-44.0146
 20
36.8622
 30
0.00000
  70
    32
  0
VERTEX
  8
COS
  5
8DC5
 10
-44.0057
 20
36.8343
 30
0.00000
  70
    32
  0
VERTEX
  8
COS
  5
8DC6
 10
-43.9972
 20
36.8063
 30
0.00000
  70
    32
  0
VERTEX
  8
COS
  5
8DC7
 10
-43.9890
 20
36.7782
 30
0.00000
  70
    32
  0
VERTEX
  8
COS
  5
8DC8
 10
-43.9811
 20
36.7499
 30
0.00000
  70
    32
  0
VERTEX
  8
COS
  5
8DC9
 10
-43.9736
 20
36.7216
 30
0.00000
  70
    32
  0
SEQEND
  8
COS
  5
8DCA
  0
LINE
  5
8A11
  8
COS
 10
-43.9736387479786686
 20
36.7215814245875407
 30
0.0
 11
-38.874137429609732
 21
16.9472626911425799
 31
0.0
  0
POLYLINE
  5
8A12
  8
COS
 10
-38.8741374296096467
 20
16.9472626911425763
 30
0.0
 66
     1
 70
     8
  0
VERTEX
  8
COS
  5
8DCB
 10
-38.8741
 20
16.9473
 30
0.00000
  70
    32
  0
VERTEX
  8
COS
  5
8DCC
 10
-38.8670
 20
16.9188
 30
0.00000
  70
    32
  0
VERTEX
  8
COS
  5
8DCD
 10
-38.8602
 20
16.8903
 30
0.00000
  70
    32
  0
VERTEX
  8
COS
  5
8DCE
 10
-38.8537
 20
16.8617
 30
0.00000
  70
    32
  0
VERTEX
  8
COS
  5
8DCF
 10
-38.8476
 20
16.8330
 30
0.00000
  70
    32
  0
VERTEX
  8
COS
  5
8DD0
 10
-38.8419
 20
16.8043
 30
0.00000
  70
    32
  0
VERTEX
  8
COS
  5
8DD1
 10
-38.8365
 20
16.7754
 30
0.00000
  70
    32
  0
VERTEX
  8
COS
  5
8DD2
 10
-38.8315
 20
16.7465
 30
0.00000
  70
    32
  0
VERTEX
  8
COS
  5
8DD3
 10
-38.8268
 20
16.7176
 30
0.00000
  70
    32
  0
VERTEX
  8
COS
  5
8DD4
 10
-38.8224
 20
16.6886
 30
0.00000
  70
    32
  0
VERTEX
  8
COS
  5
8DD5
 10
-38.8185
 20
16.6595
 30
0.00000
  70
    32
  0
VERTEX
  8
COS
  5
8DD6
 10
-38.8148
 20
16.6304
 30
0.00000
  70
    32
  0
VERTEX
  8
COS
  5
8DD7
 10
-38.8116
 20
16.6012
 30
0.00000
  70
    32
  0
VERTEX
  8
COS
  5
8DD8
 10
-38.8087
 20
16.5720
 30
0.00000
  70
    32
  0
VERTEX
  8
COS
  5
8DD9
 10
-38.8061
 20
16.5427
 30
0.00000
  70
    32
  0
VERTEX
  8
COS
  5
8DDA
 10
-38.8039
 20
16.5135
 30
0.00000
  70
    32
  0
VERTEX
  8
COS
  5
8DDB
 10
-38.8021
 20
16.4842
 30
0.00000
  70
    32
  0
VERTEX
  8
COS
  5
8DDC
 10
-38.8006
 20
16.4548
 30
0.00000
  70
    32
  0
VERTEX
  8
COS
  5
8DDD
 10
-38.7995
 20
16.4255
 30
0.00000
  70
    32
  0
VERTEX
  8
COS
  5
8DDE
 10
-38.7987
 20
16.3961
 30
0.00000
  70
    32
  0
VERTEX
  8
COS
  5
8DDF
 10
-38.7983
 20
16.3667
 30
0.00000
  70
    32
  0
VERTEX
  8
COS
  5
8DE0
 10
-38.7983
 20
16.3374
 30
0.00000
  70
    32
  0
VERTEX
  8
COS
  5
8DE1
 10
-38.7986
 20
16.3080
 30
0.00000
  70
    32
  0
VERTEX
  8
COS
  5
8DE2
 10
-38.7993
 20
16.2786
 30
0.00000
  70
    32
  0
VERTEX
  8
COS
  5
8DE3
 10
-38.8003
 20
16.2492
 30
0.00000
  70
    32
  0
VERTEX
  8
COS
  5
8DE4
 10
-38.8017
 20
16.2199
 30
0.00000
  70
    32
  0
VERTEX
  8
COS
  5
8DE5
 10
-38.8034
 20
16.1905
 30
0.00000
  70
    32
  0
VERTEX
  8
COS
  5
8DE6
 10
-38.8056
 20
16.1612
 30
0.00000
  70
    32
  0
VERTEX
  8
COS
  5
8DE7
 10
-38.8080
 20
16.1319
 30
0.00000
  70
    32
  0
VERTEX
  8
COS
  5
8DE8
 10
-38.8108
 20
16.1026
 30
0.00000
  70
    32
  0
VERTEX
  8
COS
  5
8DE9
 10
-38.8140
 20
16.0734
 30
0.00000
  70
    32
  0
VERTEX
  8
COS
  5
8DEA
 10
-38.8176
 20
16.0442
 30
0.00000
  70
    32
  0
VERTEX
  8
COS
  5
8DEB
 10
-38.8214
 20
16.0151
 30
0.00000
  70
    32
  0
VERTEX
  8
COS
  5
8DEC
 10
-38.8257
 20
15.9860
 30
0.00000
  70
    32
  0
VERTEX
  8
COS
  5
8DED
 10
-38.8303
 20
15.9569
 30
0.00000
  70
    32
  0
VERTEX
  8
COS
  5
8DEE
 10
-38.8352
 20
15.9279
 30
0.00000
  70
    32
  0
VERTEX
  8
COS
  5
8DEF
 10
-38.8406
 20
15.8990
 30
0.00000
  70
    32
  0
VERTEX
  8
COS
  5
8DF0
 10
-38.8462
 20
15.8701
 30
0.00000
  70
    32
  0
VERTEX
  8
COS
  5
8DF1
 10
-38.8522
 20
15.8413
 30
0.00000
  70
    32
  0
VERTEX
  8
COS
  5
8DF2
 10
-38.8586
 20
15.8126
 30
0.00000
  70
    32
  0
VERTEX
  8
COS
  5
8DF3
 10
-38.8653
 20
15.7839
 30
0.00000
  70
    32
  0
VERTEX
  8
COS
  5
8DF4
 10
-38.8724
 20
15.7553
 30
0.00000
  70
    32
  0
VERTEX
  8
COS
  5
8DF5
 10
-38.8798
 20
15.7269
 30
0.00000
  70
    32
  0
VERTEX
  8
COS
  5
8DF6
 10
-38.8875
 20
15.6985
 30
0.00000
  70
    32
  0
VERTEX
  8
COS
  5
8DF7
 10
-38.8956
 20
15.6702
 30
0.00000
  70
    32
  0
VERTEX
  8
COS
  5
8DF8
 10
-38.9041
 20
15.6420
 30
0.00000
  70
    32
  0
VERTEX
  8
COS
  5
8DF9
 10
-38.9129
 20
15.6139
 30
0.00000
  70
    32
  0
VERTEX
  8
COS
  5
8DFA
 10
-38.9220
 20
15.5859
 30
0.00000
  70
    32
  0
VERTEX
  8
COS
  5
8DFB
 10
-38.9314
 20
15.5580
 30
0.00000
  70
    32
  0
VERTEX
  8
COS
  5
8DFC
 10
-38.9413
 20
15.5302
 30
0.00000
  70
    32
  0
VERTEX
  8
COS
  5
8DFD
 10
-38.9514
 20
15.5026
 30
0.00000
  70
    32
  0
VERTEX
  8
COS
  5
8DFE
 10
-38.9619
 20
15.4751
 30
0.00000
  70
    32
  0
VERTEX
  8
COS
  5
8DFF
 10
-38.9727
 20
15.4477
 30
0.00000
  70
    32
  0
VERTEX
  8
COS
  5
8E00
 10
-38.9838
 20
15.4204
 30
0.00000
  70
    32
  0
VERTEX
  8
COS
  5
8E01
 10
-38.9953
 20
15.3933
 30
0.00000
  70
    32
  0
VERTEX
  8
COS
  5
8E02
 10
-39.0071
 20
15.3663
 30
0.00000
  70
    32
  0
VERTEX
  8
COS
  5
8E03
 10
-39.0193
 20
15.3395
 30
0.00000
  70
    32
  0
VERTEX
  8
COS
  5
8E04
 10
-39.0317
 20
15.3128
 30
0.00000
  70
    32
  0
VERTEX
  8
COS
  5
8E05
 10
-39.0445
 20
15.2863
 30
0.00000
  70
    32
  0
VERTEX
  8
COS
  5
8E06
 10
-39.0576
 20
15.2599
 30
0.00000
  70
    32
  0
VERTEX
  8
COS
  5
8E07
 10
-39.0710
 20
15.2337
 30
0.00000
  70
    32
  0
VERTEX
  8
COS
  5
8E08
 10
-39.0848
 20
15.2076
 30
0.00000
  70
    32
  0
VERTEX
  8
COS
  5
8E09
 10
-39.0988
 20
15.1818
 30
0.00000
  70
    32
  0
VERTEX
  8
COS
  5
8E0A
 10
-39.1132
 20
15.1560
 30
0.00000
  70
    32
  0
VERTEX
  8
COS
  5
8E0B
 10
-39.1279
 20
15.1305
 30
0.00000
  70
    32
  0
VERTEX
  8
COS
  5
8E0C
 10
-39.1429
 20
15.1052
 30
0.00000
  70
    32
  0
VERTEX
  8
COS
  5
8E0D
 10
-39.1582
 20
15.0800
 30
0.00000
  70
    32
  0
VERTEX
  8
COS
  5
8E0E
 10
-39.1738
 20
15.0550
 30
0.00000
  70
    32
  0
VERTEX
  8
COS
  5
8E0F
 10
-39.1897
 20
15.0302
 30
0.00000
  70
    32
  0
VERTEX
  8
COS
  5
8E10
 10
-39.2059
 20
15.0056
 30
0.00000
  70
    32
  0
VERTEX
  8
COS
  5
8E11
 10
-39.2224
 20
14.9812
 30
0.00000
  70
    32
  0
VERTEX
  8
COS
  5
8E12
 10
-39.2392
 20
14.9571
 30
0.00000
  70
    32
  0
VERTEX
  8
COS
  5
8E13
 10
-39.2563
 20
14.9331
 30
0.00000
  70
    32
  0
VERTEX
  8
COS
  5
8E14
 10
-39.2736
 20
14.9093
 30
0.00000
  70
    32
  0
VERTEX
  8
COS
  5
8E15
 10
-39.2913
 20
14.8857
 30
0.00000
  70
    32
  0
VERTEX
  8
COS
  5
8E16
 10
-39.3093
 20
14.8624
 30
0.00000
  70
    32
  0
VERTEX
  8
COS
  5
8E17
 10
-39.3275
 20
14.8393
 30
0.00000
  70
    32
  0
VERTEX
  8
COS
  5
8E18
 10
-39.3460
 20
14.8164
 30
0.00000
  70
    32
  0
VERTEX
  8
COS
  5
8E19
 10
-39.3648
 20
14.7937
 30
0.00000
  70
    32
  0
VERTEX
  8
COS
  5
8E1A
 10
-39.3838
 20
14.7713
 30
0.00000
  70
    32
  0
VERTEX
  8
COS
  5
8E1B
 10
-39.4032
 20
14.7491
 30
0.00000
  70
    32
  0
VERTEX
  8
COS
  5
8E1C
 10
-39.4228
 20
14.7271
 30
0.00000
  70
    32
  0
VERTEX
  8
COS
  5
8E1D
 10
-39.4426
 20
14.7054
 30
0.00000
  70
    32
  0
VERTEX
  8
COS
  5
8E1E
 10
-39.4628
 20
14.6839
 30
0.00000
  70
    32
  0
VERTEX
  8
COS
  5
8E1F
 10
-39.4832
 20
14.6627
 30
0.00000
  70
    32
  0
VERTEX
  8
COS
  5
8E20
 10
-39.5038
 20
14.6417
 30
0.00000
  70
    32
  0
VERTEX
  8
COS
  5
8E21
 10
-39.5247
 20
14.6209
 30
0.00000
  70
    32
  0
VERTEX
  8
COS
  5
8E22
 10
-39.5458
 20
14.6005
 30
0.00000
  70
    32
  0
VERTEX
  8
COS
  5
8E23
 10
-39.5672
 20
14.5803
 30
0.00000
  70
    32
  0
VERTEX
  8
COS
  5
8E24
 10
-39.5888
 20
14.5603
 30
0.00000
  70
    32
  0
VERTEX
  8
COS
  5
8E25
 10
-39.6107
 20
14.5406
 30
0.00000
  70
    32
  0
VERTEX
  8
COS
  5
8E26
 10
-39.6328
 20
14.5212
 30
0.00000
  70
    32
  0
VERTEX
  8
COS
  5
8E27
 10
-39.6552
 20
14.5021
 30
0.00000
  70
    32
  0
VERTEX
  8
COS
  5
8E28
 10
-39.6777
 20
14.4832
 30
0.00000
  70
    32
  0
VERTEX
  8
COS
  5
8E29
 10
-39.7005
 20
14.4646
 30
0.00000
  70
    32
  0
VERTEX
  8
COS
  5
8E2A
 10
-39.7235
 20
14.4463
 30
0.00000
  70
    32
  0
VERTEX
  8
COS
  5
8E2B
 10
-39.7468
 20
14.4283
 30
0.00000
  70
    32
  0
VERTEX
  8
COS
  5
8E2C
 10
-39.7702
 20
14.4105
 30
0.00000
  70
    32
  0
VERTEX
  8
COS
  5
8E2D
 10
-39.7939
 20
14.3931
 30
0.00000
  70
    32
  0
VERTEX
  8
COS
  5
8E2E
 10
-39.8178
 20
14.3759
 30
0.00000
  70
    32
  0
VERTEX
  8
COS
  5
8E2F
 10
-39.8419
 20
14.3591
 30
0.00000
  70
    32
  0
VERTEX
  8
COS
  5
8E30
 10
-39.8661
 20
14.3425
 30
0.00000
  70
    32
  0
VERTEX
  8
COS
  5
8E31
 10
-39.8906
 20
14.3262
 30
0.00000
  70
    32
  0
VERTEX
  8
COS
  5
8E32
 10
-39.9153
 20
14.3103
 30
0.00000
  70
    32
  0
VERTEX
  8
COS
  5
8E33
 10
-39.9402
 20
14.2946
 30
0.00000
  70
    32
  0
VERTEX
  8
COS
  5
8E34
 10
-39.9652
 20
14.2793
 30
0.00000
  70
    32
  0
VERTEX
  8
COS
  5
8E35
 10
-39.9904
 20
14.2642
 30
0.00000
  70
    32
  0
VERTEX
  8
COS
  5
8E36
 10
-40.0159
 20
14.2495
 30
0.00000
  70
    32
  0
VERTEX
  8
COS
  5
8E37
 10
-40.0414
 20
14.2350
 30
0.00000
  70
    32
  0
VERTEX
  8
COS
  5
8E38
 10
-40.0672
 20
14.2209
 30
0.00000
  70
    32
  0
VERTEX
  8
COS
  5
8E39
 10
-40.0931
 20
14.2071
 30
0.00000
  70
    32
  0
VERTEX
  8
COS
  5
8E3A
 10
-40.1192
 20
14.1937
 30
0.00000
  70
    32
  0
VERTEX
  8
COS
  5
8E3B
 10
-40.1455
 20
14.1805
 30
0.00000
  70
    32
  0
VERTEX
  8
COS
  5
8E3C
 10
-40.1719
 20
14.1677
 30
0.00000
  70
    32
  0
VERTEX
  8
COS
  5
8E3D
 10
-40.1984
 20
14.1552
 30
0.00000
  70
    32
  0
VERTEX
  8
COS
  5
8E3E
 10
-40.2251
 20
14.1430
 30
0.00000
  70
    32
  0
VERTEX
  8
COS
  5
8E3F
 10
-40.2520
 20
14.1312
 30
0.00000
  70
    32
  0
VERTEX
  8
COS
  5
8E40
 10
-40.2790
 20
14.1196
 30
0.00000
  70
    32
  0
VERTEX
  8
COS
  5
8E41
 10
-40.3061
 20
14.1085
 30
0.00000
  70
    32
  0
VERTEX
  8
COS
  5
8E42
 10
-40.3334
 20
14.0976
 30
0.00000
  70
    32
  0
VERTEX
  8
COS
  5
8E43
 10
-40.3608
 20
14.0871
 30
0.00000
  70
    32
  0
VERTEX
  8
COS
  5
8E44
 10
-40.3883
 20
14.0769
 30
0.00000
  70
    32
  0
VERTEX
  8
COS
  5
8E45
 10
-40.4159
 20
14.0671
 30
0.00000
  70
    32
  0
VERTEX
  8
COS
  5
8E46
 10
-40.4436
 20
14.0576
 30
0.00000
  70
    32
  0
VERTEX
  8
COS
  5
8E47
 10
-40.4715
 20
14.0484
 30
0.00000
  70
    32
  0
VERTEX
  8
COS
  5
8E48
 10
-40.4995
 20
14.0396
 30
0.00000
  70
    32
  0
VERTEX
  8
COS
  5
8E49
 10
-40.5275
 20
14.0312
 30
0.00000
  70
    32
  0
VERTEX
  8
COS
  5
8E4A
 10
-40.5557
 20
14.0230
 30
0.00000
  70
    32
  0
VERTEX
  8
COS
  5
8E4B
 10
-40.5839
 20
14.0153
 30
0.00000
  70
    32
  0
SEQEND
  8
COS
  5
8E4C
  0
LINE
  5
8A13
  8
COS
 10
-45.0943472032454906
 20
38.1891306102388128
 30
0.0
 11
-46.4909698786685297
 21
38.9825811244743576
 31
0.0
  0
LINE
  5
8A14
  8
COS
 10
-62.0842073299876418
 20
8.9471412481311852
 30
0.0
 11
-63.4808300054106169
 21
9.7405917623667317
 31
0.0
  0
POLYLINE
  5
8A15
  8
COS
 10
-46.7858733024828766
 20
39.1239819135398434
 30
0.0
 66
     1
 70
     8
  0
VERTEX
  8
COS
  5
8E4D
 10
-46.7859
 20
39.1240
 30
0.00000
  70
    32
  0
VERTEX
  8
COS
  5
8E4E
 10
-46.7835
 20
39.1230
 30
0.00000
  70
    32
  0
VERTEX
  8
COS
  5
8E4F
 10
-46.7811
 20
39.1221
 30
0.00000
  70
    32
  0
VERTEX
  8
COS
  5
8E50
 10
-46.7787
 20
39.1211
 30
0.00000
  70
    32
  0
VERTEX
  8
COS
  5
8E51
 10
-46.7764
 20
39.1202
 30
0.00000
  70
    32
  0
VERTEX
  8
COS
  5
8E52
 10
-46.7740
 20
39.1192
 30
0.00000
  70
    32
  0
VERTEX
  8
COS
  5
8E53
 10
-46.7716
 20
39.1183
 30
0.00000
  70
    32
  0
VERTEX
  8
COS
  5
8E54
 10
-46.7693
 20
39.1173
 30
0.00000
  70
    32
  0
VERTEX
  8
COS
  5
8E55
 10
-46.7669
 20
39.1164
 30
0.00000
  70
    32
  0
VERTEX
  8
COS
  5
8E56
 10
-46.7645
 20
39.1154
 30
0.00000
  70
    32
  0
VERTEX
  8
COS
  5
8E57
 10
-46.7622
 20
39.1144
 30
0.00000
  70
    32
  0
VERTEX
  8
COS
  5
8E58
 10
-46.7598
 20
39.1135
 30
0.00000
  70
    32
  0
VERTEX
  8
COS
  5
8E59
 10
-46.7574
 20
39.1125
 30
0.00000
  70
    32
  0
VERTEX
  8
COS
  5
8E5A
 10
-46.7551
 20
39.1115
 30
0.00000
  70
    32
  0
VERTEX
  8
COS
  5
8E5B
 10
-46.7527
 20
39.1105
 30
0.00000
  70
    32
  0
VERTEX
  8
COS
  5
8E5C
 10
-46.7503
 20
39.1095
 30
0.00000
  70
    32
  0
VERTEX
  8
COS
  5
8E5D
 10
-46.7480
 20
39.1086
 30
0.00000
  70
    32
  0
VERTEX
  8
COS
  5
8E5E
 10
-46.7456
 20
39.1076
 30
0.00000
  70
    32
  0
VERTEX
  8
COS
  5
8E5F
 10
-46.7433
 20
39.1066
 30
0.00000
  70
    32
  0
VERTEX
  8
COS
  5
8E60
 10
-46.7409
 20
39.1056
 30
0.00000
  70
    32
  0
VERTEX
  8
COS
  5
8E61
 10
-46.7385
 20
39.1046
 30
0.00000
  70
    32
  0
VERTEX
  8
COS
  5
8E62
 10
-46.7362
 20
39.1036
 30
0.00000
  70
    32
  0
VERTEX
  8
COS
  5
8E63
 10
-46.7338
 20
39.1026
 30
0.00000
  70
    32
  0
VERTEX
  8
COS
  5
8E64
 10
-46.7315
 20
39.1016
 30
0.00000
  70
    32
  0
VERTEX
  8
COS
  5
8E65
 10
-46.7291
 20
39.1006
 30
0.00000
  70
    32
  0
VERTEX
  8
COS
  5
8E66
 10
-46.7268
 20
39.0996
 30
0.00000
  70
    32
  0
VERTEX
  8
COS
  5
8E67
 10
-46.7244
 20
39.0986
 30
0.00000
  70
    32
  0
VERTEX
  8
COS
  5
8E68
 10
-46.7221
 20
39.0976
 30
0.00000
  70
    32
  0
VERTEX
  8
COS
  5
8E69
 10
-46.7197
 20
39.0966
 30
0.00000
  70
    32
  0
VERTEX
  8
COS
  5
8E6A
 10
-46.7174
 20
39.0956
 30
0.00000
  70
    32
  0
VERTEX
  8
COS
  5
8E6B
 10
-46.7150
 20
39.0945
 30
0.00000
  70
    32
  0
VERTEX
  8
COS
  5
8E6C
 10
-46.7127
 20
39.0935
 30
0.00000
  70
    32
  0
VERTEX
  8
COS
  5
8E6D
 10
-46.7103
 20
39.0925
 30
0.00000
  70
    32
  0
VERTEX
  8
COS
  5
8E6E
 10
-46.7080
 20
39.0915
 30
0.00000
  70
    32
  0
VERTEX
  8
COS
  5
8E6F
 10
-46.7057
 20
39.0904
 30
0.00000
  70
    32
  0
VERTEX
  8
COS
  5
8E70
 10
-46.7033
 20
39.0894
 30
0.00000
  70
    32
  0
VERTEX
  8
COS
  5
8E71
 10
-46.7010
 20
39.0884
 30
0.00000
  70
    32
  0
VERTEX
  8
COS
  5
8E72
 10
-46.6986
 20
39.0873
 30
0.00000
  70
    32
  0
VERTEX
  8
COS
  5
8E73
 10
-46.6963
 20
39.0863
 30
0.00000
  70
    32
  0
VERTEX
  8
COS
  5
8E74
 10
-46.6940
 20
39.0853
 30
0.00000
  70
    32
  0
VERTEX
  8
COS
  5
8E75
 10
-46.6916
 20
39.0842
 30
0.00000
  70
    32
  0
VERTEX
  8
COS
  5
8E76
 10
-46.6893
 20
39.0832
 30
0.00000
  70
    32
  0
VERTEX
  8
COS
  5
8E77
 10
-46.6870
 20
39.0821
 30
0.00000
  70
    32
  0
VERTEX
  8
COS
  5
8E78
 10
-46.6846
 20
39.0811
 30
0.00000
  70
    32
  0
VERTEX
  8
COS
  5
8E79
 10
-46.6823
 20
39.0800
 30
0.00000
  70
    32
  0
VERTEX
  8
COS
  5
8E7A
 10
-46.6800
 20
39.0790
 30
0.00000
  70
    32
  0
VERTEX
  8
COS
  5
8E7B
 10
-46.6777
 20
39.0779
 30
0.00000
  70
    32
  0
VERTEX
  8
COS
  5
8E7C
 10
-46.6753
 20
39.0768
 30
0.00000
  70
    32
  0
VERTEX
  8
COS
  5
8E7D
 10
-46.6730
 20
39.0758
 30
0.00000
  70
    32
  0
VERTEX
  8
COS
  5
8E7E
 10
-46.6707
 20
39.0747
 30
0.00000
  70
    32
  0
VERTEX
  8
COS
  5
8E7F
 10
-46.6684
 20
39.0736
 30
0.00000
  70
    32
  0
VERTEX
  8
COS
  5
8E80
 10
-46.6660
 20
39.0726
 30
0.00000
  70
    32
  0
VERTEX
  8
COS
  5
8E81
 10
-46.6637
 20
39.0715
 30
0.00000
  70
    32
  0
VERTEX
  8
COS
  5
8E82
 10
-46.6614
 20
39.0704
 30
0.00000
  70
    32
  0
VERTEX
  8
COS
  5
8E83
 10
-46.6591
 20
39.0693
 30
0.00000
  70
    32
  0
VERTEX
  8
COS
  5
8E84
 10
-46.6568
 20
39.0683
 30
0.00000
  70
    32
  0
VERTEX
  8
COS
  5
8E85
 10
-46.6544
 20
39.0672
 30
0.00000
  70
    32
  0
VERTEX
  8
COS
  5
8E86
 10
-46.6521
 20
39.0661
 30
0.00000
  70
    32
  0
VERTEX
  8
COS
  5
8E87
 10
-46.6498
 20
39.0650
 30
0.00000
  70
    32
  0
VERTEX
  8
COS
  5
8E88
 10
-46.6475
 20
39.0639
 30
0.00000
  70
    32
  0
VERTEX
  8
COS
  5
8E89
 10
-46.6452
 20
39.0628
 30
0.00000
  70
    32
  0
VERTEX
  8
COS
  5
8E8A
 10
-46.6429
 20
39.0617
 30
0.00000
  70
    32
  0
VERTEX
  8
COS
  5
8E8B
 10
-46.6406
 20
39.0606
 30
0.00000
  70
    32
  0
VERTEX
  8
COS
  5
8E8C
 10
-46.6383
 20
39.0595
 30
0.00000
  70
    32
  0
VERTEX
  8
COS
  5
8E8D
 10
-46.6360
 20
39.0584
 30
0.00000
  70
    32
  0
VERTEX
  8
COS
  5
8E8E
 10
-46.6337
 20
39.0573
 30
0.00000
  70
    32
  0
VERTEX
  8
COS
  5
8E8F
 10
-46.6313
 20
39.0562
 30
0.00000
  70
    32
  0
VERTEX
  8
COS
  5
8E90
 10
-46.6290
 20
39.0551
 30
0.00000
  70
    32
  0
VERTEX
  8
COS
  5
8E91
 10
-46.6267
 20
39.0540
 30
0.00000
  70
    32
  0
VERTEX
  8
COS
  5
8E92
 10
-46.6244
 20
39.0528
 30
0.00000
  70
    32
  0
VERTEX
  8
COS
  5
8E93
 10
-46.6221
 20
39.0517
 30
0.00000
  70
    32
  0
VERTEX
  8
COS
  5
8E94
 10
-46.6198
 20
39.0506
 30
0.00000
  70
    32
  0
VERTEX
  8
COS
  5
8E95
 10
-46.6175
 20
39.0495
 30
0.00000
  70
    32
  0
VERTEX
  8
COS
  5
8E96
 10
-46.6153
 20
39.0484
 30
0.00000
  70
    32
  0
VERTEX
  8
COS
  5
8E97
 10
-46.6130
 20
39.0472
 30
0.00000
  70
    32
  0
VERTEX
  8
COS
  5
8E98
 10
-46.6107
 20
39.0461
 30
0.00000
  70
    32
  0
VERTEX
  8
COS
  5
8E99
 10
-46.6084
 20
39.0450
 30
0.00000
  70
    32
  0
VERTEX
  8
COS
  5
8E9A
 10
-46.6061
 20
39.0438
 30
0.00000
  70
    32
  0
VERTEX
  8
COS
  5
8E9B
 10
-46.6038
 20
39.0427
 30
0.00000
  70
    32
  0
VERTEX
  8
COS
  5
8E9C
 10
-46.6015
 20
39.0415
 30
0.00000
  70
    32
  0
VERTEX
  8
COS
  5
8E9D
 10
-46.5992
 20
39.0404
 30
0.00000
  70
    32
  0
VERTEX
  8
COS
  5
8E9E
 10
-46.5969
 20
39.0393
 30
0.00000
  70
    32
  0
VERTEX
  8
COS
  5
8E9F
 10
-46.5946
 20
39.0381
 30
0.00000
  70
    32
  0
VERTEX
  8
COS
  5
8EA0
 10
-46.5924
 20
39.0370
 30
0.00000
  70
    32
  0
VERTEX
  8
COS
  5
8EA1
 10
-46.5901
 20
39.0358
 30
0.00000
  70
    32
  0
VERTEX
  8
COS
  5
8EA2
 10
-46.5878
 20
39.0346
 30
0.00000
  70
    32
  0
VERTEX
  8
COS
  5
8EA3
 10
-46.5855
 20
39.0335
 30
0.00000
  70
    32
  0
VERTEX
  8
COS
  5
8EA4
 10
-46.5832
 20
39.0323
 30
0.00000
  70
    32
  0
VERTEX
  8
COS
  5
8EA5
 10
-46.5810
 20
39.0312
 30
0.00000
  70
    32
  0
VERTEX
  8
COS
  5
8EA6
 10
-46.5787
 20
39.0300
 30
0.00000
  70
    32
  0
VERTEX
  8
COS
  5
8EA7
 10
-46.5764
 20
39.0288
 30
0.00000
  70
    32
  0
VERTEX
  8
COS
  5
8EA8
 10
-46.5741
 20
39.0276
 30
0.00000
  70
    32
  0
VERTEX
  8
COS
  5
8EA9
 10
-46.5719
 20
39.0265
 30
0.00000
  70
    32
  0
VERTEX
  8
COS
  5
8EAA
 10
-46.5696
 20
39.0253
 30
0.00000
  70
    32
  0
VERTEX
  8
COS
  5
8EAB
 10
-46.5673
 20
39.0241
 30
0.00000
  70
    32
  0
VERTEX
  8
COS
  5
8EAC
 10
-46.5651
 20
39.0229
 30
0.00000
  70
    32
  0
VERTEX
  8
COS
  5
8EAD
 10
-46.5628
 20
39.0218
 30
0.00000
  70
    32
  0
VERTEX
  8
COS
  5
8EAE
 10
-46.5605
 20
39.0206
 30
0.00000
  70
    32
  0
VERTEX
  8
COS
  5
8EAF
 10
-46.5583
 20
39.0194
 30
0.00000
  70
    32
  0
VERTEX
  8
COS
  5
8EB0
 10
-46.5560
 20
39.0182
 30
0.00000
  70
    32
  0
VERTEX
  8
COS
  5
8EB1
 10
-46.5537
 20
39.0170
 30
0.00000
  70
    32
  0
VERTEX
  8
COS
  5
8EB2
 10
-46.5515
 20
39.0158
 30
0.00000
  70
    32
  0
VERTEX
  8
COS
  5
8EB3
 10
-46.5492
 20
39.0146
 30
0.00000
  70
    32
  0
VERTEX
  8
COS
  5
8EB4
 10
-46.5470
 20
39.0134
 30
0.00000
  70
    32
  0
VERTEX
  8
COS
  5
8EB5
 10
-46.5447
 20
39.0122
 30
0.00000
  70
    32
  0
VERTEX
  8
COS
  5
8EB6
 10
-46.5425
 20
39.0110
 30
0.00000
  70
    32
  0
VERTEX
  8
COS
  5
8EB7
 10
-46.5402
 20
39.0098
 30
0.00000
  70
    32
  0
VERTEX
  8
COS
  5
8EB8
 10
-46.5380
 20
39.0086
 30
0.00000
  70
    32
  0
VERTEX
  8
COS
  5
8EB9
 10
-46.5357
 20
39.0074
 30
0.00000
  70
    32
  0
VERTEX
  8
COS
  5
8EBA
 10
-46.5335
 20
39.0061
 30
0.00000
  70
    32
  0
VERTEX
  8
COS
  5
8EBB
 10
-46.5312
 20
39.0049
 30
0.00000
  70
    32
  0
VERTEX
  8
COS
  5
8EBC
 10
-46.5290
 20
39.0037
 30
0.00000
  70
    32
  0
VERTEX
  8
COS
  5
8EBD
 10
-46.5267
 20
39.0025
 30
0.00000
  70
    32
  0
VERTEX
  8
COS
  5
8EBE
 10
-46.5245
 20
39.0013
 30
0.00000
  70
    32
  0
VERTEX
  8
COS
  5
8EBF
 10
-46.5222
 20
39.0000
 30
0.00000
  70
    32
  0
VERTEX
  8
COS
  5
8EC0
 10
-46.5200
 20
38.9988
 30
0.00000
  70
    32
  0
VERTEX
  8
COS
  5
8EC1
 10
-46.5177
 20
38.9976
 30
0.00000
  70
    32
  0
VERTEX
  8
COS
  5
8EC2
 10
-46.5155
 20
38.9963
 30
0.00000
  70
    32
  0
VERTEX
  8
COS
  5
8EC3
 10
-46.5133
 20
38.9951
 30
0.00000
  70
    32
  0
VERTEX
  8
COS
  5
8EC4
 10
-46.5110
 20
38.9939
 30
0.00000
  70
    32
  0
VERTEX
  8
COS
  5
8EC5
 10
-46.5088
 20
38.9926
 30
0.00000
  70
    32
  0
VERTEX
  8
COS
  5
8EC6
 10
-46.5066
 20
38.9914
 30
0.00000
  70
    32
  0
VERTEX
  8
COS
  5
8EC7
 10
-46.5043
 20
38.9901
 30
0.00000
  70
    32
  0
VERTEX
  8
COS
  5
8EC8
 10
-46.5021
 20
38.9889
 30
0.00000
  70
    32
  0
VERTEX
  8
COS
  5
8EC9
 10
-46.4999
 20
38.9876
 30
0.00000
  70
    32
  0
VERTEX
  8
COS
  5
8ECA
 10
-46.4976
 20
38.9864
 30
0.00000
  70
    32
  0
VERTEX
  8
COS
  5
8ECB
 10
-46.4954
 20
38.9851
 30
0.00000
  70
    32
  0
VERTEX
  8
COS
  5
8ECC
 10
-46.4932
 20
38.9838
 30
0.00000
  70
    32
  0
VERTEX
  8
COS
  5
8ECD
 10
-46.4910
 20
38.9826
 30
0.00000
  70
    32
  0
SEQEND
  8
COS
  5
8ECE
  0
POLYLINE
  5
8A1A
  8
COS
 10
-63.4808300054106169
 20
9.7405917623667477
 30
0.0
 66
     1
 70
     8
  0
VERTEX
  8
COS
  5
8ECF
 10
-63.4808
 20
9.74059
 30
0.00000
  70
    32
  0
VERTEX
  8
COS
  5
8ED0
 10
-63.4834
 20
9.74207
 30
0.00000
  70
    32
  0
VERTEX
  8
COS
  5
8ED1
 10
-63.4860
 20
9.74354
 30
0.00000
  70
    32
  0
VERTEX
  8
COS
  5
8ED2
 10
-63.4886
 20
9.74502
 30
0.00000
  70
    32
  0
VERTEX
  8
COS
  5
8ED3
 10
-63.4912
 20
9.74651
 30
0.00000
  70
    32
  0
VERTEX
  8
COS
  5
8ED4
 10
-63.4938
 20
9.74799
 30
0.00000
  70
    32
  0
VERTEX
  8
COS
  5
8ED5
 10
-63.4963
 20
9.74948
 30
0.00000
  70
    32
  0
VERTEX
  8
COS
  5
8ED6
 10
-63.4989
 20
9.75098
 30
0.00000
  70
    32
  0
VERTEX
  8
COS
  5
8ED7
 10
-63.5015
 20
9.75247
 30
0.00000
  70
    32
  0
VERTEX
  8
COS
  5
8ED8
 10
-63.5041
 20
9.75397
 30
0.00000
  70
    32
  0
VERTEX
  8
COS
  5
8ED9
 10
-63.5067
 20
9.75548
 30
0.00000
  70
    32
  0
VERTEX
  8
COS
  5
8EDA
 10
-63.5092
 20
9.75698
 30
0.00000
  70
    32
  0
VERTEX
  8
COS
  5
8EDB
 10
-63.5118
 20
9.75849
 30
0.00000
  70
    32
  0
VERTEX
  8
COS
  5
8EDC
 10
-63.5144
 20
9.76001
 30
0.00000
  70
    32
  0
VERTEX
  8
COS
  5
8EDD
 10
-63.5169
 20
9.76152
 30
0.00000
  70
    32
  0
VERTEX
  8
COS
  5
8EDE
 10
-63.5195
 20
9.76304
 30
0.00000
  70
    32
  0
VERTEX
  8
COS
  5
8EDF
 10
-63.5221
 20
9.76457
 30
0.00000
  70
    32
  0
VERTEX
  8
COS
  5
8EE0
 10
-63.5246
 20
9.76609
 30
0.00000
  70
    32
  0
VERTEX
  8
COS
  5
8EE1
 10
-63.5272
 20
9.76762
 30
0.00000
  70
    32
  0
VERTEX
  8
COS
  5
8EE2
 10
-63.5297
 20
9.76915
 30
0.00000
  70
    32
  0
VERTEX
  8
COS
  5
8EE3
 10
-63.5323
 20
9.77069
 30
0.00000
  70
    32
  0
VERTEX
  8
COS
  5
8EE4
 10
-63.5348
 20
9.77223
 30
0.00000
  70
    32
  0
VERTEX
  8
COS
  5
8EE5
 10
-63.5374
 20
9.77377
 30
0.00000
  70
    32
  0
VERTEX
  8
COS
  5
8EE6
 10
-63.5399
 20
9.77532
 30
0.00000
  70
    32
  0
VERTEX
  8
COS
  5
8EE7
 10
-63.5425
 20
9.77687
 30
0.00000
  70
    32
  0
VERTEX
  8
COS
  5
8EE8
 10
-63.5450
 20
9.77842
 30
0.00000
  70
    32
  0
VERTEX
  8
COS
  5
8EE9
 10
-63.5476
 20
9.77997
 30
0.00000
  70
    32
  0
VERTEX
  8
COS
  5
8EEA
 10
-63.5501
 20
9.78153
 30
0.00000
  70
    32
  0
VERTEX
  8
COS
  5
8EEB
 10
-63.5526
 20
9.78309
 30
0.00000
  70
    32
  0
VERTEX
  8
COS
  5
8EEC
 10
-63.5552
 20
9.78466
 30
0.00000
  70
    32
  0
VERTEX
  8
COS
  5
8EED
 10
-63.5577
 20
9.78623
 30
0.00000
  70
    32
  0
VERTEX
  8
COS
  5
8EEE
 10
-63.5602
 20
9.78780
 30
0.00000
  70
    32
  0
VERTEX
  8
COS
  5
8EEF
 10
-63.5628
 20
9.78937
 30
0.00000
  70
    32
  0
VERTEX
  8
COS
  5
8EF0
 10
-63.5653
 20
9.79095
 30
0.00000
  70
    32
  0
VERTEX
  8
COS
  5
8EF1
 10
-63.5678
 20
9.79253
 30
0.00000
  70
    32
  0
VERTEX
  8
COS
  5
8EF2
 10
-63.5704
 20
9.79411
 30
0.00000
  70
    32
  0
VERTEX
  8
COS
  5
8EF3
 10
-63.5729
 20
9.79570
 30
0.00000
  70
    32
  0
VERTEX
  8
COS
  5
8EF4
 10
-63.5754
 20
9.79729
 30
0.00000
  70
    32
  0
VERTEX
  8
COS
  5
8EF5
 10
-63.5779
 20
9.79889
 30
0.00000
  70
    32
  0
VERTEX
  8
COS
  5
8EF6
 10
-63.5804
 20
9.80048
 30
0.00000
  70
    32
  0
VERTEX
  8
COS
  5
8EF7
 10
-63.5830
 20
9.80208
 30
0.00000
  70
    32
  0
VERTEX
  8
COS
  5
8EF8
 10
-63.5855
 20
9.80369
 30
0.00000
  70
    32
  0
VERTEX
  8
COS
  5
8EF9
 10
-63.5880
 20
9.80529
 30
0.00000
  70
    32
  0
VERTEX
  8
COS
  5
8EFA
 10
-63.5905
 20
9.80690
 30
0.00000
  70
    32
  0
VERTEX
  8
COS
  5
8EFB
 10
-63.5930
 20
9.80851
 30
0.00000
  70
    32
  0
VERTEX
  8
COS
  5
8EFC
 10
-63.5955
 20
9.81013
 30
0.00000
  70
    32
  0
VERTEX
  8
COS
  5
8EFD
 10
-63.5980
 20
9.81175
 30
0.00000
  70
    32
  0
VERTEX
  8
COS
  5
8EFE
 10
-63.6005
 20
9.81337
 30
0.00000
  70
    32
  0
VERTEX
  8
COS
  5
8EFF
 10
-63.6030
 20
9.81500
 30
0.00000
  70
    32
  0
VERTEX
  8
COS
  5
8F00
 10
-63.6055
 20
9.81663
 30
0.00000
  70
    32
  0
VERTEX
  8
COS
  5
8F01
 10
-63.6080
 20
9.81826
 30
0.00000
  70
    32
  0
VERTEX
  8
COS
  5
8F02
 10
-63.6105
 20
9.81989
 30
0.00000
  70
    32
  0
VERTEX
  8
COS
  5
8F03
 10
-63.6130
 20
9.82153
 30
0.00000
  70
    32
  0
VERTEX
  8
COS
  5
8F04
 10
-63.6155
 20
9.82317
 30
0.00000
  70
    32
  0
VERTEX
  8
COS
  5
8F05
 10
-63.6179
 20
9.82482
 30
0.00000
  70
    32
  0
VERTEX
  8
COS
  5
8F06
 10
-63.6204
 20
9.82646
 30
0.00000
  70
    32
  0
VERTEX
  8
COS
  5
8F07
 10
-63.6229
 20
9.82811
 30
0.00000
  70
    32
  0
VERTEX
  8
COS
  5
8F08
 10
-63.6254
 20
9.82977
 30
0.00000
  70
    32
  0
VERTEX
  8
COS
  5
8F09
 10
-63.6279
 20
9.83143
 30
0.00000
  70
    32
  0
VERTEX
  8
COS
  5
8F0A
 10
-63.6303
 20
9.83309
 30
0.00000
  70
    32
  0
VERTEX
  8
COS
  5
8F0B
 10
-63.6328
 20
9.83475
 30
0.00000
  70
    32
  0
VERTEX
  8
COS
  5
8F0C
 10
-63.6353
 20
9.83642
 30
0.00000
  70
    32
  0
VERTEX
  8
COS
  5
8F0D
 10
-63.6378
 20
9.83809
 30
0.00000
  70
    32
  0
VERTEX
  8
COS
  5
8F0E
 10
-63.6402
 20
9.83976
 30
0.00000
  70
    32
  0
VERTEX
  8
COS
  5
8F0F
 10
-63.6427
 20
9.84143
 30
0.00000
  70
    32
  0
VERTEX
  8
COS
  5
8F10
 10
-63.6451
 20
9.84311
 30
0.00000
  70
    32
  0
VERTEX
  8
COS
  5
8F11
 10
-63.6476
 20
9.84479
 30
0.00000
  70
    32
  0
VERTEX
  8
COS
  5
8F12
 10
-63.6501
 20
9.84648
 30
0.00000
  70
    32
  0
VERTEX
  8
COS
  5
8F13
 10
-63.6525
 20
9.84817
 30
0.00000
  70
    32
  0
VERTEX
  8
COS
  5
8F14
 10
-63.6550
 20
9.84986
 30
0.00000
  70
    32
  0
VERTEX
  8
COS
  5
8F15
 10
-63.6574
 20
9.85155
 30
0.00000
  70
    32
  0
VERTEX
  8
COS
  5
8F16
 10
-63.6599
 20
9.85325
 30
0.00000
  70
    32
  0
VERTEX
  8
COS
  5
8F17
 10
-63.6623
 20
9.85495
 30
0.00000
  70
    32
  0
VERTEX
  8
COS
  5
8F18
 10
-63.6648
 20
9.85666
 30
0.00000
  70
    32
  0
VERTEX
  8
COS
  5
8F19
 10
-63.6672
 20
9.85836
 30
0.00000
  70
    32
  0
VERTEX
  8
COS
  5
8F1A
 10
-63.6697
 20
9.86007
 30
0.00000
  70
    32
  0
VERTEX
  8
COS
  5
8F1B
 10
-63.6721
 20
9.86179
 30
0.00000
  70
    32
  0
VERTEX
  8
COS
  5
8F1C
 10
-63.6745
 20
9.86350
 30
0.00000
  70
    32
  0
VERTEX
  8
COS
  5
8F1D
 10
-63.6770
 20
9.86522
 30
0.00000
  70
    32
  0
VERTEX
  8
COS
  5
8F1E
 10
-63.6794
 20
9.86694
 30
0.00000
  70
    32
  0
VERTEX
  8
COS
  5
8F1F
 10
-63.6818
 20
9.86867
 30
0.00000
  70
    32
  0
VERTEX
  8
COS
  5
8F20
 10
-63.6843
 20
9.87040
 30
0.00000
  70
    32
  0
VERTEX
  8
COS
  5
8F21
 10
-63.6867
 20
9.87213
 30
0.00000
  70
    32
  0
VERTEX
  8
COS
  5
8F22
 10
-63.6891
 20
9.87386
 30
0.00000
  70
    32
  0
VERTEX
  8
COS
  5
8F23
 10
-63.6915
 20
9.87560
 30
0.00000
  70
    32
  0
VERTEX
  8
COS
  5
8F24
 10
-63.6940
 20
9.87734
 30
0.00000
  70
    32
  0
VERTEX
  8
COS
  5
8F25
 10
-63.6964
 20
9.87909
 30
0.00000
  70
    32
  0
VERTEX
  8
COS
  5
8F26
 10
-63.6988
 20
9.88083
 30
0.00000
  70
    32
  0
VERTEX
  8
COS
  5
8F27
 10
-63.7012
 20
9.88258
 30
0.00000
  70
    32
  0
VERTEX
  8
COS
  5
8F28
 10
-63.7036
 20
9.88434
 30
0.00000
  70
    32
  0
VERTEX
  8
COS
  5
8F29
 10
-63.7060
 20
9.88609
 30
0.00000
  70
    32
  0
VERTEX
  8
COS
  5
8F2A
 10
-63.7084
 20
9.88785
 30
0.00000
  70
    32
  0
VERTEX
  8
COS
  5
8F2B
 10
-63.7108
 20
9.88961
 30
0.00000
  70
    32
  0
VERTEX
  8
COS
  5
8F2C
 10
-63.7132
 20
9.89138
 30
0.00000
  70
    32
  0
VERTEX
  8
COS
  5
8F2D
 10
-63.7156
 20
9.89315
 30
0.00000
  70
    32
  0
VERTEX
  8
COS
  5
8F2E
 10
-63.7180
 20
9.89492
 30
0.00000
  70
    32
  0
VERTEX
  8
COS
  5
8F2F
 10
-63.7204
 20
9.89669
 30
0.00000
  70
    32
  0
VERTEX
  8
COS
  5
8F30
 10
-63.7228
 20
9.89847
 30
0.00000
  70
    32
  0
VERTEX
  8
COS
  5
8F31
 10
-63.7252
 20
9.90025
 30
0.00000
  70
    32
  0
VERTEX
  8
COS
  5
8F32
 10
-63.7276
 20
9.90204
 30
0.00000
  70
    32
  0
VERTEX
  8
COS
  5
8F33
 10
-63.7300
 20
9.90382
 30
0.00000
  70
    32
  0
VERTEX
  8
COS
  5
8F34
 10
-63.7324
 20
9.90561
 30
0.00000
  70
    32
  0
VERTEX
  8
COS
  5
8F35
 10
-63.7347
 20
9.90740
 30
0.00000
  70
    32
  0
VERTEX
  8
COS
  5
8F36
 10
-63.7371
 20
9.90920
 30
0.00000
  70
    32
  0
VERTEX
  8
COS
  5
8F37
 10
-63.7395
 20
9.91100
 30
0.00000
  70
    32
  0
VERTEX
  8
COS
  5
8F38
 10
-63.7419
 20
9.91280
 30
0.00000
  70
    32
  0
VERTEX
  8
COS
  5
8F39
 10
-63.7443
 20
9.91461
 30
0.00000
  70
    32
  0
VERTEX
  8
COS
  5
8F3A
 10
-63.7466
 20
9.91641
 30
0.00000
  70
    32
  0
VERTEX
  8
COS
  5
8F3B
 10
-63.7490
 20
9.91822
 30
0.00000
  70
    32
  0
VERTEX
  8
COS
  5
8F3C
 10
-63.7514
 20
9.92004
 30
0.00000
  70
    32
  0
VERTEX
  8
COS
  5
8F3D
 10
-63.7537
 20
9.92185
 30
0.00000
  70
    32
  0
VERTEX
  8
COS
  5
8F3E
 10
-63.7561
 20
9.92367
 30
0.00000
  70
    32
  0
VERTEX
  8
COS
  5
8F3F
 10
-63.7584
 20
9.92550
 30
0.00000
  70
    32
  0
VERTEX
  8
COS
  5
8F40
 10
-63.7608
 20
9.92732
 30
0.00000
  70
    32
  0
VERTEX
  8
COS
  5
8F41
 10
-63.7631
 20
9.92915
 30
0.00000
  70
    32
  0
VERTEX
  8
COS
  5
8F42
 10
-63.7655
 20
9.93098
 30
0.00000
  70
    32
  0
VERTEX
  8
COS
  5
8F43
 10
-63.7679
 20
9.93282
 30
0.00000
  70
    32
  0
VERTEX
  8
COS
  5
8F44
 10
-63.7702
 20
9.93465
 30
0.00000
  70
    32
  0
VERTEX
  8
COS
  5
8F45
 10
-63.7725
 20
9.93650
 30
0.00000
  70
    32
  0
VERTEX
  8
COS
  5
8F46
 10
-63.7749
 20
9.93834
 30
0.00000
  70
    32
  0
VERTEX
  8
COS
  5
8F47
 10
-63.7772
 20
9.94019
 30
0.00000
  70
    32
  0
VERTEX
  8
COS
  5
8F48
 10
-63.7796
 20
9.94203
 30
0.00000
  70
    32
  0
VERTEX
  8
COS
  5
8F49
 10
-63.7819
 20
9.94389
 30
0.00000
  70
    32
  0
VERTEX
  8
COS
  5
8F4A
 10
-63.7842
 20
9.94574
 30
0.00000
  70
    32
  0
VERTEX
  8
COS
  5
8F4B
 10
-63.7866
 20
9.94760
 30
0.00000
  70
    32
  0
VERTEX
  8
COS
  5
8F4C
 10
-63.7889
 20
9.94946
 30
0.00000
  70
    32
  0
VERTEX
  8
COS
  5
8F4D
 10
-63.7912
 20
9.95133
 30
0.00000
  70
    32
  0
VERTEX
  8
COS
  5
8F4E
 10
-63.7935
 20
9.95319
 30
0.00000
  70
    32
  0
VERTEX
  8
COS
  5
8F4F
 10
-63.7959
 20
9.95506
 30
0.00000
  70
    32
  0
SEQEND
  8
COS
  5
8F50
  0
LINE
  5
8A2E
  8
COTES
 10
-289.9143031510300261
 20
49.5904054749944407
 30
0.0
 11
-313.4309991365698238
 21
49.5904054749944265
 31
0.0
  0
LINE
  5
8A2F
  8
COTES
 10
-289.9143031510300261
 20
9.5904054749944958
 30
0.0
 11
-313.4309991365698238
 21
9.5904054749944905
 31
0.0
  0
LINE
  5
8A30
  8
COTES
 10
-312.4309991365698238
 20
47.0904054749944265
 30
0.0
 11
-312.4309991365698238
 21
12.0904054749944905
 31
0.0
  0
SOLID
  5
8A31
  8
COTES
 10
-312.0143324699030813
 20
47.0904054749944265
 30
0.0
 11
-312.8476658032365094
 21
47.0904054749944265
 31
0.0
 12
-312.4309991365698238
 22
49.5904054749944265
 32
0.0
 13
-312.4309991365698238
 23
49.5904054749944265
 33
0.0
  0
SOLID
  5
8A32
  8
COTES
 10
-312.0143324699030813
 20
12.0904054749944905
 30
0.0
 11
-312.8476658032365094
 21
12.0904054749944905
 31
0.0
 12
-312.4309991365698238
 22
9.5904054749944905
 32
0.0
 13
-312.4309991365698238
 23
9.5904054749944905
 33
0.0
  0
INSERT
  5
8A33
  8
COTES
  2
*U1
 10
0.0
 20
0.0
 30
0.0
  0
LINE
  5
8A34
  8
COTES
 10
-288.9143031510300261
 20
8.5904054749944905
 30
0.0
 11
-288.9143031510300261
 21
-24.7935161615713504
 31
0.0
  0
LINE
  5
8A35
  8
COTES
 10
-38.799156160749078
 20
15.4140643916776892
 30
0.0
 11
-38.799156160749078
 21
-24.7935161615713504
 31
0.0
  0
LINE
  5
8A36
  8
COTES
 10
-286.4143031510300261
 20
-23.7935161615713504
 30
0.0
 11
-41.2991561607490709
 21
-23.7935161615713504
 31
0.0
  0
SOLID
  5
8A37
  8
COTES
 10
-286.4143031510300261
 20
-23.376849494904679
 30
0.0
 11
-286.4143031510300261
 21
-24.2101828282380183
 31
0.0
 12
-288.9143031510300261
 22
-23.7935161615713504
 32
0.0
 13
-288.9143031510300261
 23
-23.7935161615713504
 33
0.0
  0
SOLID
  5
8A38
  8
COTES
 10
-41.2991561607490709
 20
-23.376849494904679
 30
0.0
 11
-41.2991561607490709
 21
-24.2101828282380183
 31
0.0
 12
-38.799156160749078
 22
-23.7935161615713504
 32
0.0
 13
-38.799156160749078
 23
-23.7935161615713504
 33
0.0
  0
INSERT
  5
8A39
  8
COTES
  2
*U2
 10
0.0
 20
0.0
 30
0.0
  0
LINE
  5
8A3A
  8
COTES
 10
-47.2170352906299371
 20
49.5904054749942134
 30
0.0
 11
-14.4066430085799198
 21
49.5904054749942205
 31
0.0
  0
LINE
  5
8A3B
  8
COTES
 10
-37.799156160749142
 20
14.3772805902623908
 30
0.0
 11
-14.4066430085799198
 21
14.3772805902623908
 31
0.0
  0
LINE
  5
8A3C
  8
COTES
 10
-15.4066430085799198
 20
47.0904054749942205
 30
0.0
 11
-15.4066430085799198
 21
16.8772805902623908
 31
0.0
  0
SOLID
  5
8A3D
  8
COTES
 10
-14.9899763419132306
 20
47.0904054749942205
 30
0.0
 11
-15.8233096752466
 21
47.0904054749942205
 31
0.0
 12
-15.4066430085799198
 22
49.5904054749942205
 32
0.0
 13
-15.4066430085799198
 23
49.5904054749942205
 33
0.0
  0
SOLID
  5
8A3E
  8
COTES
 10
-14.9899763419132306
 20
16.8772805902623908
 30
0.0
 11
-15.8233096752466
 21
16.8772805902623908
 31
0.0
 12
-15.4066430085799198
 22
14.3772805902623908
 32
0.0
 13
-15.4066430085799198
 23
14.3772805902623908
 33
0.0
  0
INSERT
  5
8A3F
  8
COTES
  2
*U3
 10
0.0
 20
0.0
 30
0.0
  0
LINE
  5
8A40
  8
COTES
 10
-61.2680430776517326
 20
8.4617993870761961
 30
0.0
 11
-65.5971538495084587
 21
7.2994761554107148
 31
0.0
  0
ARC
  5
8A41
  8
COTES
 10
-38.799156160749078
 20
14.4944722913964501
 30
0.0
 40
26.7470836219520898
 50
200.3861908050388081
 51
264.6427190708640182
  0
SOLID
  5
8A42
  8
COTES
 10
-41.3158971051049022
 20
-12.5519875656074706
 30
0.0
 11
-41.2769520492106494
 21
-11.7195647601379296
 31
0.0
 12
-38.799156160749078
 22
-12.2526113305556201
 32
0.0
 13
-38.799156160749078
 23
-12.2526113305556201
 33
0.0
  0
SOLID
  5
8A43
  8
COTES
 10
-63.474036656483861
 20
5.3039617764522404
 30
0.0
 11
-64.2678878298353879
 21
5.0504962777883957
 31
0.0
 12
-64.6313587391510396
 22
7.5587825471748129
 32
0.0
 13
-64.6313587391510396
 23
7.5587825471748129
 33
0.0
  0
INSERT
  5
8A44
  8
COTES
  2
*U4
 10
0.0
 20
0.0
 30
0.0
  0
VIEWPORT
  5
2F8F
 67
     1
  8
0
 10
128.5
 20
97.5
 30
0.0
 40
355.6624869109946872
 41
222.1800000000000068
 68
     1
 69
     1
1001
ACAD
1000
MVIEW
1002
{
1070
    16
1010
0.0
1020
0.0
1030
0.0
1010
0.0
1020
0.0
1030
1.0
1040
0.0
1040
222.1800000000000068
1040
128.5
1040
97.5
1040
50.0
1040
0.0
1040
0.0
1070
     0
1070
  1000
1070
     1
1070
     1
1070
     0
1070
     0
1070
     0
1070
     0
1040
0.0
1040
0.0
1040
0.0
1040
10.0
1040
10.0
1040
10.0
1040
10.0
1070
     0
1002
{
1002
}
1002
}
  0
VIEWPORT
  5
2F93
 67
     1
  8
COTES
 10
128.5
 20
97.5
 30
0.0
 40
205.5999999999999943
 41
156.0
 68
     2
 69
     2
1001
ACAD
1000
MVIEW
1002
{
1070
    16
1010
0.0
1020
0.0
1030
0.0
1010
0.0
1020
0.0
1030
1.0
1040
0.0
1040
233.4971795724864876
1040
21739.342280751629005
1040
-1809.738570137672923
1040
50.0
1040
0.0
1040
0.0
1070
     0
1070
  1000
1070
     1
1070
     3
1070
     0
1070
     0
1070
     0
1070
     0
1040
0.0
1040
0.0
1040
0.0
1040
10.0
1040
10.0
1040
10.0
1040
10.0
1070
     0
1002
{
1002
}
1002
}
  0
ENDSEC
  0
EOF
