ISO-10303-21;
HEADER;
/* Generated by software containing ST-Developer
 * from STEP Tools, Inc. (www.steptools.com) 
 */
/* OPTION: using custom schema-name function */

FILE_DESCRIPTION(
/* description */ (''),
/* implementation_level */ '2;1');

FILE_NAME(
/* name */ 'PRSCR4040S25_SIM.stp',
/* time_stamp */ '2021-10-22T14:23:06+02:00',
/* author */ (''),
/* organization */ (''),
/* preprocessor_version */ 'ST-DEVELOPER v16.7',
/* originating_system */ 'SIEMENS PLM Software NX 12.0',
/* authorisation */ '');

FILE_SCHEMA (('AUTOMOTIVE_DESIGN { 1 0 10303 214 3 1 1 1 }'));
ENDSEC;

DATA;
#10=SHAPE_REPRESENTATION_RELATIONSHIP('None',
'relationship between model1-None and model1-None',#22,#11);
#11=ADVANCED_BREP_SHAPE_REPRESENTATION('model1-None',(#52,#53),#467);
#12=SHAPE_DEFINITION_REPRESENTATION(#13,#22);
#13=PRODUCT_DEFINITION_SHAPE('','',#14);
#14=PRODUCT_DEFINITION(' ','',#16,#15);
#15=PRODUCT_DEFINITION_CONTEXT('part definition',#21,'design');
#16=PRODUCT_DEFINITION_FORMATION_WITH_SPECIFIED_SOURCE(' ',' ',#18,
 .NOT_KNOWN.);
#17=PRODUCT_RELATED_PRODUCT_CATEGORY('part','',(#18));
#18=PRODUCT('model1','model1',' ',(#19));
#19=PRODUCT_CONTEXT(' ',#21,'mechanical');
#20=APPLICATION_PROTOCOL_DEFINITION('international standard',
'automotive_design',2010,#21);
#21=APPLICATION_CONTEXT(
'core data for automotive mechanical design processes');
#22=SHAPE_REPRESENTATION('model1-None',(#291),#467);
#23=CONICAL_SURFACE('',#315,12.5,7.);
#24=CONICAL_SURFACE('',#317,3.6,9.99999999999998);
#25=FACE_BOUND('',#108,.T.);
#26=FACE_BOUND('',#109,.T.);
#27=FACE_BOUND('',#110,.T.);
#28=FACE_BOUND('',#111,.T.);
#29=FACE_BOUND('',#112,.T.);
#30=FACE_BOUND('',#113,.T.);
#31=FACE_BOUND('',#114,.T.);
#32=FACE_BOUND('',#115,.T.);
#33=FACE_BOUND('',#116,.T.);
#34=FACE_BOUND('',#117,.T.);
#35=PRESENTATION_LAYER_ASSIGNMENT('1','Layer 1',(#52,#53));
#36=STYLED_ITEM('',(#38),#52);
#37=STYLED_ITEM('',(#39),#53);
#38=PRESENTATION_STYLE_ASSIGNMENT((#40));
#39=PRESENTATION_STYLE_ASSIGNMENT((#41));
#40=SURFACE_STYLE_USAGE(.BOTH.,#42);
#41=SURFACE_STYLE_USAGE(.BOTH.,#43);
#42=SURFACE_SIDE_STYLE('',(#44));
#43=SURFACE_SIDE_STYLE('',(#45));
#44=SURFACE_STYLE_FILL_AREA(#46);
#45=SURFACE_STYLE_FILL_AREA(#47);
#46=FILL_AREA_STYLE('',(#48));
#47=FILL_AREA_STYLE('',(#49));
#48=FILL_AREA_STYLE_COLOUR('',#50);
#49=FILL_AREA_STYLE_COLOUR('',#51);
#50=COLOUR_RGB('St\X2\0159\X0\edn\X\ED \X2\0161\X0\ed\X\E1',0.490196078431373,
0.490196078431373,0.490196078431373);
#51=COLOUR_RGB('Sv\X2\011B\X0\tl\X\E1 \X2\0161\X0\ed\X\E1',0.8,0.8,0.8);
#52=MANIFOLD_SOLID_BREP('',#54);
#53=MANIFOLD_SOLID_BREP('',#55);
#54=CLOSED_SHELL('',(#67,#68,#69,#70,#71,#72,#73,#74,#75,#76,#77));
#55=CLOSED_SHELL('',(#78,#79,#80,#81,#82));
#56=PLANE('',#296);
#57=PLANE('',#300);
#58=PLANE('',#301);
#59=PLANE('',#302);
#60=PLANE('',#303);
#61=PLANE('',#304);
#62=PLANE('',#305);
#63=PLANE('',#306);
#64=PLANE('',#307);
#65=PLANE('',#310);
#66=PLANE('',#316);
#67=ADVANCED_FACE('',(#86),#83,.F.);
#68=ADVANCED_FACE('',(#87),#56,.T.);
#69=ADVANCED_FACE('',(#88),#84,.T.);
#70=ADVANCED_FACE('',(#89),#57,.T.);
#71=ADVANCED_FACE('',(#90),#58,.T.);
#72=ADVANCED_FACE('',(#91),#59,.T.);
#73=ADVANCED_FACE('',(#92),#60,.T.);
#74=ADVANCED_FACE('',(#93),#61,.T.);
#75=ADVANCED_FACE('',(#94),#62,.F.);
#76=ADVANCED_FACE('',(#95),#63,.T.);
#77=ADVANCED_FACE('',(#96),#64,.T.);
#78=ADVANCED_FACE('',(#25,#26),#65,.T.);
#79=ADVANCED_FACE('',(#27,#28),#85,.F.);
#80=ADVANCED_FACE('',(#29,#30),#23,.T.);
#81=ADVANCED_FACE('',(#31,#32),#66,.F.);
#82=ADVANCED_FACE('',(#33,#34),#24,.F.);
#83=CYLINDRICAL_SURFACE('',#295,20.);
#84=CYLINDRICAL_SURFACE('',#299,10.6);
#85=CYLINDRICAL_SURFACE('',#313,3.6);
#86=FACE_OUTER_BOUND('',#97,.T.);
#87=FACE_OUTER_BOUND('',#98,.T.);
#88=FACE_OUTER_BOUND('',#99,.T.);
#89=FACE_OUTER_BOUND('',#100,.T.);
#90=FACE_OUTER_BOUND('',#101,.T.);
#91=FACE_OUTER_BOUND('',#102,.T.);
#92=FACE_OUTER_BOUND('',#103,.T.);
#93=FACE_OUTER_BOUND('',#104,.T.);
#94=FACE_OUTER_BOUND('',#105,.T.);
#95=FACE_OUTER_BOUND('',#106,.T.);
#96=FACE_OUTER_BOUND('',#107,.T.);
#97=EDGE_LOOP('',(#162,#163,#164,#165,#166,#167));
#98=EDGE_LOOP('',(#168,#169,#170,#171));
#99=EDGE_LOOP('',(#172,#173,#174,#175));
#100=EDGE_LOOP('',(#176,#177,#178,#179,#180,#181));
#101=EDGE_LOOP('',(#182,#183,#184,#185,#186,#187));
#102=EDGE_LOOP('',(#188,#189,#190,#191));
#103=EDGE_LOOP('',(#192,#193,#194,#195));
#104=EDGE_LOOP('',(#196,#197,#198,#199));
#105=EDGE_LOOP('',(#200,#201,#202,#203,#204,#205,#206));
#106=EDGE_LOOP('',(#207,#208,#209,#210));
#107=EDGE_LOOP('',(#211,#212,#213,#214,#215));
#108=EDGE_LOOP('',(#216));
#109=EDGE_LOOP('',(#217));
#110=EDGE_LOOP('',(#218));
#111=EDGE_LOOP('',(#219));
#112=EDGE_LOOP('',(#220));
#113=EDGE_LOOP('',(#221));
#114=EDGE_LOOP('',(#222));
#115=EDGE_LOOP('',(#223));
#116=EDGE_LOOP('',(#224));
#117=EDGE_LOOP('',(#225));
#118=LINE('',#398,#140);
#119=LINE('',#402,#141);
#120=LINE('',#406,#142);
#121=LINE('',#408,#143);
#122=LINE('',#410,#144);
#123=LINE('',#412,#145);
#124=LINE('',#416,#146);
#125=LINE('',#420,#147);
#126=LINE('',#422,#148);
#127=LINE('',#424,#149);
#128=LINE('',#426,#150);
#129=LINE('',#428,#151);
#130=LINE('',#430,#152);
#131=LINE('',#431,#153);
#132=LINE('',#433,#154);
#133=LINE('',#435,#155);
#134=LINE('',#437,#156);
#135=LINE('',#439,#157);
#136=LINE('',#441,#158);
#137=LINE('',#443,#159);
#138=LINE('',#445,#160);
#139=LINE('',#448,#161);
#140=VECTOR('',#322,1.);
#141=VECTOR('',#325,1.);
#142=VECTOR('',#328,1.);
#143=VECTOR('',#331,1.);
#144=VECTOR('',#332,1.);
#145=VECTOR('',#333,1.);
#146=VECTOR('',#338,1.);
#147=VECTOR('',#343,1.);
#148=VECTOR('',#344,1.);
#149=VECTOR('',#345,1.);
#150=VECTOR('',#346,1.);
#151=VECTOR('',#347,1.);
#152=VECTOR('',#350,1.);
#153=VECTOR('',#351,1.);
#154=VECTOR('',#352,1.);
#155=VECTOR('',#353,1.);
#156=VECTOR('',#356,1.);
#157=VECTOR('',#357,1.);
#158=VECTOR('',#360,1.);
#159=VECTOR('',#361,1.);
#160=VECTOR('',#364,1.);
#161=VECTOR('',#369,1.);
#162=ORIENTED_EDGE('',*,*,#249,.T.);
#163=ORIENTED_EDGE('',*,*,#250,.T.);
#164=ORIENTED_EDGE('',*,*,#251,.T.);
#165=ORIENTED_EDGE('',*,*,#252,.T.);
#166=ORIENTED_EDGE('',*,*,#253,.F.);
#167=ORIENTED_EDGE('',*,*,#254,.F.);
#168=ORIENTED_EDGE('',*,*,#252,.F.);
#169=ORIENTED_EDGE('',*,*,#255,.T.);
#170=ORIENTED_EDGE('',*,*,#256,.T.);
#171=ORIENTED_EDGE('',*,*,#257,.F.);
#172=ORIENTED_EDGE('',*,*,#258,.F.);
#173=ORIENTED_EDGE('',*,*,#259,.T.);
#174=ORIENTED_EDGE('',*,*,#260,.T.);
#175=ORIENTED_EDGE('',*,*,#256,.F.);
#176=ORIENTED_EDGE('',*,*,#261,.T.);
#177=ORIENTED_EDGE('',*,*,#262,.T.);
#178=ORIENTED_EDGE('',*,*,#263,.T.);
#179=ORIENTED_EDGE('',*,*,#264,.T.);
#180=ORIENTED_EDGE('',*,*,#265,.F.);
#181=ORIENTED_EDGE('',*,*,#259,.F.);
#182=ORIENTED_EDGE('',*,*,#263,.F.);
#183=ORIENTED_EDGE('',*,*,#266,.F.);
#184=ORIENTED_EDGE('',*,*,#249,.F.);
#185=ORIENTED_EDGE('',*,*,#267,.F.);
#186=ORIENTED_EDGE('',*,*,#268,.F.);
#187=ORIENTED_EDGE('',*,*,#269,.F.);
#188=ORIENTED_EDGE('',*,*,#270,.F.);
#189=ORIENTED_EDGE('',*,*,#264,.F.);
#190=ORIENTED_EDGE('',*,*,#269,.T.);
#191=ORIENTED_EDGE('',*,*,#271,.T.);
#192=ORIENTED_EDGE('',*,*,#272,.F.);
#193=ORIENTED_EDGE('',*,*,#271,.F.);
#194=ORIENTED_EDGE('',*,*,#268,.T.);
#195=ORIENTED_EDGE('',*,*,#273,.T.);
#196=ORIENTED_EDGE('',*,*,#274,.F.);
#197=ORIENTED_EDGE('',*,*,#273,.F.);
#198=ORIENTED_EDGE('',*,*,#267,.T.);
#199=ORIENTED_EDGE('',*,*,#254,.T.);
#200=ORIENTED_EDGE('',*,*,#270,.T.);
#201=ORIENTED_EDGE('',*,*,#272,.T.);
#202=ORIENTED_EDGE('',*,*,#274,.T.);
#203=ORIENTED_EDGE('',*,*,#253,.T.);
#204=ORIENTED_EDGE('',*,*,#257,.T.);
#205=ORIENTED_EDGE('',*,*,#260,.F.);
#206=ORIENTED_EDGE('',*,*,#265,.T.);
#207=ORIENTED_EDGE('',*,*,#266,.T.);
#208=ORIENTED_EDGE('',*,*,#262,.F.);
#209=ORIENTED_EDGE('',*,*,#275,.F.);
#210=ORIENTED_EDGE('',*,*,#250,.F.);
#211=ORIENTED_EDGE('',*,*,#275,.T.);
#212=ORIENTED_EDGE('',*,*,#261,.F.);
#213=ORIENTED_EDGE('',*,*,#258,.T.);
#214=ORIENTED_EDGE('',*,*,#255,.F.);
#215=ORIENTED_EDGE('',*,*,#251,.F.);
#216=ORIENTED_EDGE('',*,*,#276,.T.);
#217=ORIENTED_EDGE('',*,*,#277,.F.);
#218=ORIENTED_EDGE('',*,*,#278,.F.);
#219=ORIENTED_EDGE('',*,*,#279,.T.);
#220=ORIENTED_EDGE('',*,*,#280,.T.);
#221=ORIENTED_EDGE('',*,*,#276,.F.);
#222=ORIENTED_EDGE('',*,*,#278,.T.);
#223=ORIENTED_EDGE('',*,*,#280,.F.);
#224=ORIENTED_EDGE('',*,*,#277,.T.);
#225=ORIENTED_EDGE('',*,*,#279,.F.);
#226=VERTEX_POINT('',#396);
#227=VERTEX_POINT('',#397);
#228=VERTEX_POINT('',#399);
#229=VERTEX_POINT('',#401);
#230=VERTEX_POINT('',#403);
#231=VERTEX_POINT('',#405);
#232=VERTEX_POINT('',#409);
#233=VERTEX_POINT('',#411);
#234=VERTEX_POINT('',#415);
#235=VERTEX_POINT('',#417);
#236=VERTEX_POINT('',#421);
#237=VERTEX_POINT('',#423);
#238=VERTEX_POINT('',#425);
#239=VERTEX_POINT('',#427);
#240=VERTEX_POINT('',#432);
#241=VERTEX_POINT('',#434);
#242=VERTEX_POINT('',#438);
#243=VERTEX_POINT('',#442);
#244=VERTEX_POINT('',#452);
#245=VERTEX_POINT('',#454);
#246=VERTEX_POINT('',#457);
#247=VERTEX_POINT('',#459);
#248=VERTEX_POINT('',#462);
#249=EDGE_CURVE('',#226,#227,#281,.T.);
#250=EDGE_CURVE('',#227,#228,#118,.T.);
#251=EDGE_CURVE('',#228,#229,#282,.T.);
#252=EDGE_CURVE('',#229,#230,#119,.T.);
#253=EDGE_CURVE('',#231,#230,#283,.T.);
#254=EDGE_CURVE('',#226,#231,#120,.T.);
#255=EDGE_CURVE('',#229,#232,#121,.T.);
#256=EDGE_CURVE('',#232,#233,#122,.T.);
#257=EDGE_CURVE('',#230,#233,#123,.T.);
#258=EDGE_CURVE('',#234,#232,#284,.T.);
#259=EDGE_CURVE('',#234,#235,#124,.T.);
#260=EDGE_CURVE('',#235,#233,#285,.T.);
#261=EDGE_CURVE('',#234,#236,#125,.T.);
#262=EDGE_CURVE('',#236,#237,#126,.T.);
#263=EDGE_CURVE('',#237,#238,#127,.T.);
#264=EDGE_CURVE('',#238,#239,#128,.T.);
#265=EDGE_CURVE('',#235,#239,#129,.T.);
#266=EDGE_CURVE('',#227,#237,#130,.T.);
#267=EDGE_CURVE('',#240,#226,#131,.T.);
#268=EDGE_CURVE('',#241,#240,#132,.T.);
#269=EDGE_CURVE('',#238,#241,#133,.T.);
#270=EDGE_CURVE('',#239,#242,#134,.T.);
#271=EDGE_CURVE('',#241,#242,#135,.T.);
#272=EDGE_CURVE('',#242,#243,#136,.T.);
#273=EDGE_CURVE('',#240,#243,#137,.T.);
#274=EDGE_CURVE('',#243,#231,#138,.T.);
#275=EDGE_CURVE('',#228,#236,#139,.T.);
#276=EDGE_CURVE('',#244,#244,#286,.T.);
#277=EDGE_CURVE('',#245,#245,#287,.T.);
#278=EDGE_CURVE('',#246,#246,#288,.T.);
#279=EDGE_CURVE('',#247,#247,#289,.T.);
#280=EDGE_CURVE('',#248,#248,#290,.T.);
#281=CIRCLE('',#292,20.);
#282=CIRCLE('',#293,20.);
#283=CIRCLE('',#294,20.);
#284=CIRCLE('',#297,10.6);
#285=CIRCLE('',#298,10.6);
#286=CIRCLE('',#308,12.5);
#287=CIRCLE('',#309,4.45518585643605);
#288=CIRCLE('',#311,3.6);
#289=CIRCLE('',#312,3.6);
#290=CIRCLE('',#314,11.52631843204);
#291=AXIS2_PLACEMENT_3D('',#394,#318,#319);
#292=AXIS2_PLACEMENT_3D('',#395,#320,#321);
#293=AXIS2_PLACEMENT_3D('',#400,#323,#324);
#294=AXIS2_PLACEMENT_3D('',#404,#326,#327);
#295=AXIS2_PLACEMENT_3D('',#407,#329,#330);
#296=AXIS2_PLACEMENT_3D('',#413,#334,#335);
#297=AXIS2_PLACEMENT_3D('',#414,#336,#337);
#298=AXIS2_PLACEMENT_3D('',#418,#339,#340);
#299=AXIS2_PLACEMENT_3D('',#419,#341,#342);
#300=AXIS2_PLACEMENT_3D('',#429,#348,#349);
#301=AXIS2_PLACEMENT_3D('',#436,#354,#355);
#302=AXIS2_PLACEMENT_3D('',#440,#358,#359);
#303=AXIS2_PLACEMENT_3D('',#444,#362,#363);
#304=AXIS2_PLACEMENT_3D('',#446,#365,#366);
#305=AXIS2_PLACEMENT_3D('',#447,#367,#368);
#306=AXIS2_PLACEMENT_3D('',#449,#370,#371);
#307=AXIS2_PLACEMENT_3D('',#450,#372,#373);
#308=AXIS2_PLACEMENT_3D('',#451,#374,#375);
#309=AXIS2_PLACEMENT_3D('',#453,#376,#377);
#310=AXIS2_PLACEMENT_3D('',#455,#378,#379);
#311=AXIS2_PLACEMENT_3D('',#456,#380,#381);
#312=AXIS2_PLACEMENT_3D('',#458,#382,#383);
#313=AXIS2_PLACEMENT_3D('',#460,#384,#385);
#314=AXIS2_PLACEMENT_3D('',#461,#386,#387);
#315=AXIS2_PLACEMENT_3D('',#463,#388,#389);
#316=AXIS2_PLACEMENT_3D('',#464,#390,#391);
#317=AXIS2_PLACEMENT_3D('',#465,#392,#393);
#318=DIRECTION('',(0.,0.,1.));
#319=DIRECTION('',(1.,0.,0.));
#320=DIRECTION('',(0.,0.,1.));
#321=DIRECTION('',(1.,0.,0.));
#322=DIRECTION('',(0.,0.,-1.));
#323=DIRECTION('',(0.,0.,1.));
#324=DIRECTION('',(1.,0.,0.));
#325=DIRECTION('',(0.,0.,-1.));
#326=DIRECTION('',(0.,0.,1.));
#327=DIRECTION('',(1.,0.,0.));
#328=DIRECTION('',(0.,0.,-1.));
#329=DIRECTION('',(0.,0.,-1.));
#330=DIRECTION('',(-1.,0.,0.));
#331=DIRECTION('',(-0.5,0.866025403784439,0.));
#332=DIRECTION('',(0.,0.,-1.));
#333=DIRECTION('',(-0.5,0.866025403784439,0.));
#334=DIRECTION('',(-0.866025403784439,-0.5,0.));
#335=DIRECTION('',(0.5,-0.866025403784439,0.));
#336=DIRECTION('',(0.,0.,1.));
#337=DIRECTION('',(1.,0.,0.));
#338=DIRECTION('',(0.,0.,-1.));
#339=DIRECTION('',(0.,0.,1.));
#340=DIRECTION('',(1.,0.,0.));
#341=DIRECTION('',(0.,0.,-1.));
#342=DIRECTION('',(-1.,0.,0.));
#343=DIRECTION('',(0.866025403784439,-0.5,0.));
#344=DIRECTION('',(0.,0.,1.));
#345=DIRECTION('',(0.866025403784439,-0.5,0.));
#346=DIRECTION('',(0.,0.,-1.));
#347=DIRECTION('',(0.866025403784439,-0.5,0.));
#348=DIRECTION('',(0.5,0.866025403784439,0.));
#349=DIRECTION('',(-0.866025403784439,0.5,0.));
#350=DIRECTION('',(0.707106781186547,0.707106781186548,0.));
#351=DIRECTION('',(-8.25502646365845E-18,1.,0.));
#352=DIRECTION('',(-1.,0.,0.));
#353=DIRECTION('',(1.21005909256138E-16,-1.,0.));
#354=DIRECTION('',(0.,0.,1.));
#355=DIRECTION('',(1.,0.,0.));
#356=DIRECTION('',(1.21005909256138E-16,-1.,0.));
#357=DIRECTION('',(0.,0.,-1.));
#358=DIRECTION('',(1.,1.21005909256138E-16,0.));
#359=DIRECTION('',(-1.17961196366423E-16,1.,0.));
#360=DIRECTION('',(-1.,0.,0.));
#361=DIRECTION('',(0.,0.,-1.));
#362=DIRECTION('',(0.,-1.,0.));
#363=DIRECTION('',(0.,0.,-1.));
#364=DIRECTION('',(-8.25502646365845E-18,1.,0.));
#365=DIRECTION('',(-1.,-8.25502646365845E-18,0.));
#366=DIRECTION('',(8.67361737988404E-18,-1.,0.));
#367=DIRECTION('',(0.,0.,1.));
#368=DIRECTION('',(1.,0.,0.));
#369=DIRECTION('',(0.707106781186547,0.707106781186548,0.));
#370=DIRECTION('',(-0.707106781186548,0.707106781186547,0.));
#371=DIRECTION('',(-0.707106781186547,-0.707106781186548,0.));
#372=DIRECTION('',(0.,0.,1.));
#373=DIRECTION('',(1.,0.,0.));
#374=DIRECTION('',(0.,0.,1.));
#375=DIRECTION('',(1.,0.,0.));
#376=DIRECTION('',(0.,0.,1.));
#377=DIRECTION('',(1.,0.,0.));
#378=DIRECTION('',(0.,0.,1.));
#379=DIRECTION('',(1.,0.,0.));
#380=DIRECTION('',(0.,0.,1.));
#381=DIRECTION('',(1.,0.,0.));
#382=DIRECTION('',(0.,0.,1.));
#383=DIRECTION('',(1.,0.,0.));
#384=DIRECTION('',(0.,0.,1.));
#385=DIRECTION('',(1.,0.,0.));
#386=DIRECTION('',(0.,0.,1.));
#387=DIRECTION('',(1.,0.,0.));
#388=DIRECTION('',(0.,0.,1.));
#389=DIRECTION('',(1.,0.,-5.12910997204431E-17));
#390=DIRECTION('',(0.,0.,1.));
#391=DIRECTION('',(1.,0.,0.));
#392=DIRECTION('',(0.,0.,1.));
#393=DIRECTION('',(1.,0.,-1.54260219931113E-16));
#394=CARTESIAN_POINT('',(0.,0.,0.));
#395=CARTESIAN_POINT('',(-9.14835210862184,-36.2027479075119,0.0200000000000061));
#396=CARTESIAN_POINT('',(10.2016478913782,-41.2601681985299,0.0200000000000061));
#397=CARTESIAN_POINT('',(10.8318869352553,-35.3139016049788,0.0200000000000061));
#398=CARTESIAN_POINT('',(10.8318869352553,-35.3139016049788,0.0200000000000061));
#399=CARTESIAN_POINT('',(10.8318869352553,-35.3139016049788,-0.179999999999993));
#400=CARTESIAN_POINT('',(-9.14835210862184,-36.2027479075119,-0.179999999999993));
#401=CARTESIAN_POINT('',(8.17215596706694,-26.2027479075119,-0.179999999999993));
#402=CARTESIAN_POINT('',(8.17215596706693,-26.2027479075119,0.0200000000000061));
#403=CARTESIAN_POINT('',(8.17215596706693,-26.2027479075119,-39.98));
#404=CARTESIAN_POINT('',(-9.14835210862184,-36.2027479075119,-39.98));
#405=CARTESIAN_POINT('',(10.2016478913782,-41.2601681985299,-39.98));
#406=CARTESIAN_POINT('',(10.2016478913782,-41.2601681985299,0.0200000000000061));
#407=CARTESIAN_POINT('',(-9.14835210862184,-36.2027479075119,0.0200000000000061));
#408=CARTESIAN_POINT('',(8.17215596706694,-26.2027479075119,-0.179999999999993));
#409=CARTESIAN_POINT('',(3.32177861126311,-17.8016478913782,-0.179999999999993));
#410=CARTESIAN_POINT('',(3.32177861126311,-17.8016478913782,0.0200000000000061));
#411=CARTESIAN_POINT('',(3.32177861126311,-17.8016478913782,-39.98));
#412=CARTESIAN_POINT('',(8.17215596706694,-26.2027479075119,-39.98));
#413=CARTESIAN_POINT('',(8.17215596706694,-26.2027479075119,0.0200000000000061));
#414=CARTESIAN_POINT('',(12.5016478913782,-12.5016478913782,-0.179999999999993));
#415=CARTESIAN_POINT('',(17.8016478913782,-3.32177861126311,-0.179999999999993));
#416=CARTESIAN_POINT('',(17.8016478913782,-3.32177861126311,0.0200000000000061));
#417=CARTESIAN_POINT('',(17.8016478913782,-3.32177861126311,-39.98));
#418=CARTESIAN_POINT('',(12.5016478913782,-12.5016478913782,-39.98));
#419=CARTESIAN_POINT('',(12.5016478913782,-12.5016478913782,0.0200000000000061));
#420=CARTESIAN_POINT('',(17.8016478913782,-3.32177861126311,-0.179999999999993));
#421=CARTESIAN_POINT('',(33.6651897605207,-12.4805987797134,-0.179999999999993));
#422=CARTESIAN_POINT('',(33.6651897605207,-12.4805987797134,0.0200000000000061));
#423=CARTESIAN_POINT('',(33.6651897605207,-12.4805987797134,0.0200000000000061));
#424=CARTESIAN_POINT('',(17.8016478913782,-3.32177861126311,0.0200000000000061));
#425=CARTESIAN_POINT('',(50.2016478913782,-22.027927333007,0.0200000000000061));
#426=CARTESIAN_POINT('',(50.2016478913782,-22.027927333007,0.0200000000000061));
#427=CARTESIAN_POINT('',(50.2016478913782,-22.027927333007,-39.98));
#428=CARTESIAN_POINT('',(17.8016478913782,-3.32177861126311,-39.98));
#429=CARTESIAN_POINT('',(17.8016478913782,-3.32177861126311,0.0200000000000061));
#430=CARTESIAN_POINT('',(5.39522474045338,-40.7505637997807,0.0200000000000061));
#431=CARTESIAN_POINT('',(10.2016478913782,-251.401647891378,0.0200000000000061));
#432=CARTESIAN_POINT('',(10.2016478913782,-251.401647891378,0.0200000000000061));
#433=CARTESIAN_POINT('',(50.2016478913782,-251.401647891378,0.0200000000000061));
#434=CARTESIAN_POINT('',(50.2016478913782,-251.401647891378,0.0200000000000061));
#435=CARTESIAN_POINT('',(50.2016478913782,-22.027927333007,0.0200000000000061));
#436=CARTESIAN_POINT('',(-9.14835210862184,-36.2027479075119,0.0200000000000061));
#437=CARTESIAN_POINT('',(50.2016478913782,-22.027927333007,-39.98));
#438=CARTESIAN_POINT('',(50.2016478913782,-251.401647891378,-39.98));
#439=CARTESIAN_POINT('',(50.2016478913782,-251.401647891378,0.0200000000000061));
#440=CARTESIAN_POINT('',(50.2016478913782,-22.027927333007,0.0200000000000061));
#441=CARTESIAN_POINT('',(50.2016478913782,-251.401647891378,-39.98));
#442=CARTESIAN_POINT('',(10.2016478913782,-251.401647891378,-39.98));
#443=CARTESIAN_POINT('',(10.2016478913782,-251.401647891378,0.0200000000000061));
#444=CARTESIAN_POINT('',(50.2016478913782,-251.401647891378,0.0200000000000061));
#445=CARTESIAN_POINT('',(10.2016478913782,-251.401647891378,-39.98));
#446=CARTESIAN_POINT('',(10.2016478913782,-251.401647891378,0.0200000000000061));
#447=CARTESIAN_POINT('',(-9.14835210862184,-36.2027479075119,-39.98));
#448=CARTESIAN_POINT('',(5.39522474045338,-40.7505637997807,-0.179999999999993));
#449=CARTESIAN_POINT('',(5.39522474045338,-40.7505637997807,0.0200000000000061));
#450=CARTESIAN_POINT('',(-14.40376513277,-20.9515739265574,-0.179999999999993));
#451=CARTESIAN_POINT('',(12.5,-12.5,6.93889390390723E-15));
#452=CARTESIAN_POINT('',(25.,-12.5,6.93889390390723E-15));
#453=CARTESIAN_POINT('',(12.5,-12.5,6.93889390390723E-15));
#454=CARTESIAN_POINT('',(16.9551858564361,-12.5,6.93889390390723E-15));
#455=CARTESIAN_POINT('',(12.5,-12.5,6.93889390390723E-15));
#456=CARTESIAN_POINT('',(12.5,-12.5,-7.92999999999999));
#457=CARTESIAN_POINT('',(16.1,-12.5,-7.92999999999999));
#458=CARTESIAN_POINT('',(12.5,-12.5,-4.84999999999999));
#459=CARTESIAN_POINT('',(16.1,-12.5,-4.84999999999999));
#460=CARTESIAN_POINT('',(12.5,-12.5,-7.99999999999999));
#461=CARTESIAN_POINT('',(12.5,-12.5,-7.92999999999999));
#462=CARTESIAN_POINT('',(24.02631843204,-12.5,-7.92999999999999));
#463=CARTESIAN_POINT('',(12.5,-12.5,6.93889390390723E-15));
#464=CARTESIAN_POINT('',(12.5,-12.5,-7.92999999999999));
#465=CARTESIAN_POINT('',(12.5,-12.5,-4.84999999999999));
#466=MECHANICAL_DESIGN_GEOMETRIC_PRESENTATION_REPRESENTATION('',(#36,#37),
#467);
#467=(
GEOMETRIC_REPRESENTATION_CONTEXT(3)
GLOBAL_UNCERTAINTY_ASSIGNED_CONTEXT((#468))
GLOBAL_UNIT_ASSIGNED_CONTEXT((#474,#470,#469))
REPRESENTATION_CONTEXT('PRSCR4040S25_SIM','TOP_LEVEL_ASSEMBLY_PART')
);
#468=UNCERTAINTY_MEASURE_WITH_UNIT(LENGTH_MEASURE(2.E-5),#474,
'DISTANCE_ACCURACY_VALUE','Maximum Tolerance applied to model');
#469=(
NAMED_UNIT(*)
SI_UNIT($,.STERADIAN.)
SOLID_ANGLE_UNIT()
);
#470=(
CONVERSION_BASED_UNIT('DEGREE',#472)
NAMED_UNIT(#471)
PLANE_ANGLE_UNIT()
);
#471=DIMENSIONAL_EXPONENTS(0.,0.,0.,0.,0.,0.,0.);
#472=PLANE_ANGLE_MEASURE_WITH_UNIT(PLANE_ANGLE_MEASURE(0.0174532925),#473);
#473=(
NAMED_UNIT(*)
PLANE_ANGLE_UNIT()
SI_UNIT($,.RADIAN.)
);
#474=(
LENGTH_UNIT()
NAMED_UNIT(*)
SI_UNIT(.MILLI.,.METRE.)
);
ENDSEC;
END-ISO-10303-21;
