ISO-10303-21;
HEADER;
/* Generated by software containing ST-Developer
 * from STEP Tools, Inc. (www.steptools.com) 
 */
/* OPTION: using custom schema-name function */

FILE_DESCRIPTION(
/* description */ (''),
/* implementation_level */ '2;1');

FILE_NAME(
/* name */ 'HSK.63A-W.12.080.stp',
/* time_stamp */ '2024-07-21T16:23:10+02:00',
/* author */ (''),
/* organization */ (''),
/* preprocessor_version */ 'ST-DEVELOPER v16.7',
/* originating_system */ 'SIEMENS PLM Software NX 12.0',
/* authorisation */ '');

FILE_SCHEMA (('AUTOMOTIVE_DESIGN { 1 0 10303 214 3 1 1 1 }'));
ENDSEC;

DATA;
#10=CONSTRUCTIVE_GEOMETRY_REPRESENTATION_RELATIONSHIP(
'supplemental geometry','',#32,#11);
#11=CONSTRUCTIVE_GEOMETRY_REPRESENTATION('supplemental geometry',(#344,
#345,#346),#592);
#12=PROPERTY_DEFINITION_REPRESENTATION(#16,#14);
#13=PROPERTY_DEFINITION_REPRESENTATION(#17,#15);
#14=REPRESENTATION('',(#18),#592);
#15=REPRESENTATION('',(#19),#592);
#16=PROPERTY_DEFINITION('pmi validation property','',#23);
#17=PROPERTY_DEFINITION('pmi validation property','',#23);
#18=VALUE_REPRESENTATION_ITEM('number of annotations',COUNT_MEASURE(0.));
#19=VALUE_REPRESENTATION_ITEM('number of views',COUNT_MEASURE(0.));
#20=SHAPE_REPRESENTATION_RELATIONSHIP('None',
'relationship between pf6612088076yph3-None and pf6612088076yph3-None',
#32,#21);
#21=ADVANCED_BREP_SHAPE_REPRESENTATION('pf6612088076yph3-None',(#38),#592);
#22=SHAPE_DEFINITION_REPRESENTATION(#23,#32);
#23=PRODUCT_DEFINITION_SHAPE('','',#24);
#24=PRODUCT_DEFINITION(' ','',#26,#25);
#25=PRODUCT_DEFINITION_CONTEXT('part definition',#31,'design');
#26=PRODUCT_DEFINITION_FORMATION_WITH_SPECIFIED_SOURCE(' ',' ',#28,
 .NOT_KNOWN.);
#27=PRODUCT_RELATED_PRODUCT_CATEGORY('part','',(#28));
#28=PRODUCT('pf6612088076yph3','pf6612088076yph3',' ',(#29));
#29=PRODUCT_CONTEXT(' ',#31,'mechanical');
#30=APPLICATION_PROTOCOL_DEFINITION('international standard',
'automotive_design',2010,#31);
#31=APPLICATION_CONTEXT(
'core data for automotive mechanical design processes');
#32=SHAPE_REPRESENTATION('pf6612088076yph3-None',(#343),#592);
#33=SURFACE_STYLE_USAGE(.BOTH.,#34);
#34=SURFACE_SIDE_STYLE('',(#35));
#35=SURFACE_STYLE_FILL_AREA(#36);
#36=FILL_AREA_STYLE('',(#37));
#37=FILL_AREA_STYLE_COLOUR('',#339);
#38=MANIFOLD_SOLID_BREP('',#39);
#39=CLOSED_SHELL('',(#84,#85,#86,#87,#88,#89,#90,#91,#92,#93,#94,#95,#96,
#97,#98,#99,#100,#101,#102,#103));
#40=TOROIDAL_SURFACE('',#363,28.,0.5);
#41=TOROIDAL_SURFACE('',#372,28.,0.5);
#42=TOROIDAL_SURFACE('',#386,26.,5.);
#43=TOROIDAL_SURFACE('',#387,26.,5.);
#44=CONICAL_SURFACE('',#356,30.1987976321,60.);
#45=CONICAL_SURFACE('',#367,30.1987976321,60.);
#46=CONICAL_SURFACE('',#378,18.17554531327,25.);
#47=CONICAL_SURFACE('',#383,18.17554531327,25.);
#48=CONICAL_SURFACE('',#391,23.49748952252,2.8681);
#49=CONICAL_SURFACE('',#392,23.49748952252,2.8681);
#50=CYLINDRICAL_SURFACE('',#354,31.5);
#51=CYLINDRICAL_SURFACE('',#368,31.5);
#52=CYLINDRICAL_SURFACE('',#373,27.5);
#53=CYLINDRICAL_SURFACE('',#382,21.);
#54=FACE_OUTER_BOUND('',#132,.T.);
#55=FACE_OUTER_BOUND('',#151,.T.);
#56=FACE_OUTER_BOUND('',#152,.T.);
#57=FACE_OUTER_BOUND('',#153,.T.);
#58=FACE_OUTER_BOUND('',#154,.T.);
#59=FACE_OUTER_BOUND('',#155,.T.);
#60=FACE_OUTER_BOUND('',#156,.T.);
#61=FACE_OUTER_BOUND('',#157,.T.);
#62=FACE_OUTER_BOUND('',#158,.T.);
#63=FACE_OUTER_BOUND('',#159,.T.);
#64=LINE('',#516,#74);
#65=LINE('',#520,#75);
#66=LINE('',#523,#76);
#67=LINE('',#560,#77);
#68=LINE('',#562,#78);
#69=LINE('',#566,#79);
#70=LINE('',#570,#80);
#71=LINE('',#573,#81);
#72=LINE('',#587,#82);
#73=LINE('',#588,#83);
#74=VECTOR('',#411,1.);
#75=VECTOR('',#414,1.);
#76=VECTOR('',#417,1.);
#77=VECTOR('',#464,1.);
#78=VECTOR('',#465,1.);
#79=VECTOR('',#470,1.);
#80=VECTOR('',#473,1.);
#81=VECTOR('',#476,1.);
#82=VECTOR('',#497,1.);
#83=VECTOR('',#498,1.);
#84=ADVANCED_FACE('',(#110,#111),#104,.F.);
#85=ADVANCED_FACE('',(#54),#50,.T.);
#86=ADVANCED_FACE('',(#112,#113),#44,.T.);
#87=ADVANCED_FACE('',(#114,#115),#105,.T.);
#88=ADVANCED_FACE('',(#116,#117),#40,.F.);
#89=ADVANCED_FACE('',(#118,#119),#106,.F.);
#90=ADVANCED_FACE('',(#120,#121),#45,.T.);
#91=ADVANCED_FACE('',(#122,#123),#51,.T.);
#92=ADVANCED_FACE('',(#124,#125),#107,.T.);
#93=ADVANCED_FACE('',(#126,#127),#41,.F.);
#94=ADVANCED_FACE('',(#128,#129),#52,.T.);
#95=ADVANCED_FACE('',(#55),#108,.T.);
#96=ADVANCED_FACE('',(#56),#46,.T.);
#97=ADVANCED_FACE('',(#57),#53,.T.);
#98=ADVANCED_FACE('',(#58),#47,.T.);
#99=ADVANCED_FACE('',(#59),#42,.F.);
#100=ADVANCED_FACE('',(#60),#43,.F.);
#101=ADVANCED_FACE('',(#61),#109,.F.);
#102=ADVANCED_FACE('',(#62),#48,.T.);
#103=ADVANCED_FACE('',(#63),#49,.T.);
#104=PLANE('',#351);
#105=PLANE('',#360);
#106=PLANE('',#365);
#107=PLANE('',#370);
#108=PLANE('',#376);
#109=PLANE('',#390);
#110=FACE_BOUND('',#130,.T.);
#111=FACE_BOUND('',#131,.T.);
#112=FACE_BOUND('',#133,.T.);
#113=FACE_BOUND('',#134,.T.);
#114=FACE_BOUND('',#135,.T.);
#115=FACE_BOUND('',#136,.T.);
#116=FACE_BOUND('',#137,.T.);
#117=FACE_BOUND('',#138,.T.);
#118=FACE_BOUND('',#139,.T.);
#119=FACE_BOUND('',#140,.T.);
#120=FACE_BOUND('',#141,.T.);
#121=FACE_BOUND('',#142,.T.);
#122=FACE_BOUND('',#143,.T.);
#123=FACE_BOUND('',#144,.T.);
#124=FACE_BOUND('',#145,.T.);
#125=FACE_BOUND('',#146,.T.);
#126=FACE_BOUND('',#147,.T.);
#127=FACE_BOUND('',#148,.T.);
#128=FACE_BOUND('',#149,.T.);
#129=FACE_BOUND('',#150,.T.);
#130=EDGE_LOOP('',(#160,#161));
#131=EDGE_LOOP('',(#162,#163));
#132=EDGE_LOOP('',(#164,#165,#166,#167,#168,#169,#170,#171,#172,#173));
#133=EDGE_LOOP('',(#174,#175));
#134=EDGE_LOOP('',(#176));
#135=EDGE_LOOP('',(#177));
#136=EDGE_LOOP('',(#178,#179));
#137=EDGE_LOOP('',(#180));
#138=EDGE_LOOP('',(#181));
#139=EDGE_LOOP('',(#182));
#140=EDGE_LOOP('',(#183));
#141=EDGE_LOOP('',(#184));
#142=EDGE_LOOP('',(#185));
#143=EDGE_LOOP('',(#186));
#144=EDGE_LOOP('',(#187));
#145=EDGE_LOOP('',(#188));
#146=EDGE_LOOP('',(#189));
#147=EDGE_LOOP('',(#190));
#148=EDGE_LOOP('',(#191));
#149=EDGE_LOOP('',(#192));
#150=EDGE_LOOP('',(#193));
#151=EDGE_LOOP('',(#194,#195));
#152=EDGE_LOOP('',(#196,#197,#198,#199));
#153=EDGE_LOOP('',(#200,#201,#202,#203,#204,#205,#206,#207,#208,#209));
#154=EDGE_LOOP('',(#210,#211,#212,#213));
#155=EDGE_LOOP('',(#214,#215,#216,#217));
#156=EDGE_LOOP('',(#218,#219,#220,#221));
#157=EDGE_LOOP('',(#222,#223));
#158=EDGE_LOOP('',(#224,#225,#226,#227));
#159=EDGE_LOOP('',(#228,#229,#230,#231));
#160=ORIENTED_EDGE('',*,*,#260,.T.);
#161=ORIENTED_EDGE('',*,*,#261,.T.);
#162=ORIENTED_EDGE('',*,*,#262,.T.);
#163=ORIENTED_EDGE('',*,*,#263,.T.);
#164=ORIENTED_EDGE('',*,*,#264,.T.);
#165=ORIENTED_EDGE('',*,*,#265,.F.);
#166=ORIENTED_EDGE('',*,*,#266,.T.);
#167=ORIENTED_EDGE('',*,*,#266,.F.);
#168=ORIENTED_EDGE('',*,*,#267,.F.);
#169=ORIENTED_EDGE('',*,*,#264,.F.);
#170=ORIENTED_EDGE('',*,*,#261,.F.);
#171=ORIENTED_EDGE('',*,*,#268,.T.);
#172=ORIENTED_EDGE('',*,*,#268,.F.);
#173=ORIENTED_EDGE('',*,*,#260,.F.);
#174=ORIENTED_EDGE('',*,*,#265,.T.);
#175=ORIENTED_EDGE('',*,*,#267,.T.);
#176=ORIENTED_EDGE('',*,*,#269,.F.);
#177=ORIENTED_EDGE('',*,*,#270,.F.);
#178=ORIENTED_EDGE('',*,*,#271,.F.);
#179=ORIENTED_EDGE('',*,*,#272,.F.);
#180=ORIENTED_EDGE('',*,*,#273,.F.);
#181=ORIENTED_EDGE('',*,*,#274,.F.);
#182=ORIENTED_EDGE('',*,*,#275,.F.);
#183=ORIENTED_EDGE('',*,*,#274,.T.);
#184=ORIENTED_EDGE('',*,*,#276,.F.);
#185=ORIENTED_EDGE('',*,*,#275,.T.);
#186=ORIENTED_EDGE('',*,*,#270,.T.);
#187=ORIENTED_EDGE('',*,*,#276,.T.);
#188=ORIENTED_EDGE('',*,*,#269,.T.);
#189=ORIENTED_EDGE('',*,*,#277,.T.);
#190=ORIENTED_EDGE('',*,*,#277,.F.);
#191=ORIENTED_EDGE('',*,*,#278,.F.);
#192=ORIENTED_EDGE('',*,*,#278,.T.);
#193=ORIENTED_EDGE('',*,*,#273,.T.);
#194=ORIENTED_EDGE('',*,*,#279,.F.);
#195=ORIENTED_EDGE('',*,*,#280,.F.);
#196=ORIENTED_EDGE('',*,*,#281,.T.);
#197=ORIENTED_EDGE('',*,*,#280,.T.);
#198=ORIENTED_EDGE('',*,*,#282,.F.);
#199=ORIENTED_EDGE('',*,*,#283,.F.);
#200=ORIENTED_EDGE('',*,*,#284,.T.);
#201=ORIENTED_EDGE('',*,*,#285,.T.);
#202=ORIENTED_EDGE('',*,*,#286,.F.);
#203=ORIENTED_EDGE('',*,*,#286,.T.);
#204=ORIENTED_EDGE('',*,*,#287,.F.);
#205=ORIENTED_EDGE('',*,*,#284,.F.);
#206=ORIENTED_EDGE('',*,*,#283,.T.);
#207=ORIENTED_EDGE('',*,*,#288,.T.);
#208=ORIENTED_EDGE('',*,*,#288,.F.);
#209=ORIENTED_EDGE('',*,*,#289,.T.);
#210=ORIENTED_EDGE('',*,*,#282,.T.);
#211=ORIENTED_EDGE('',*,*,#279,.T.);
#212=ORIENTED_EDGE('',*,*,#281,.F.);
#213=ORIENTED_EDGE('',*,*,#289,.F.);
#214=ORIENTED_EDGE('',*,*,#290,.T.);
#215=ORIENTED_EDGE('',*,*,#285,.F.);
#216=ORIENTED_EDGE('',*,*,#291,.F.);
#217=ORIENTED_EDGE('',*,*,#272,.T.);
#218=ORIENTED_EDGE('',*,*,#291,.T.);
#219=ORIENTED_EDGE('',*,*,#287,.T.);
#220=ORIENTED_EDGE('',*,*,#290,.F.);
#221=ORIENTED_EDGE('',*,*,#271,.T.);
#222=ORIENTED_EDGE('',*,*,#292,.T.);
#223=ORIENTED_EDGE('',*,*,#293,.T.);
#224=ORIENTED_EDGE('',*,*,#293,.F.);
#225=ORIENTED_EDGE('',*,*,#294,.T.);
#226=ORIENTED_EDGE('',*,*,#263,.F.);
#227=ORIENTED_EDGE('',*,*,#295,.F.);
#228=ORIENTED_EDGE('',*,*,#292,.F.);
#229=ORIENTED_EDGE('',*,*,#295,.T.);
#230=ORIENTED_EDGE('',*,*,#262,.F.);
#231=ORIENTED_EDGE('',*,*,#294,.F.);
#232=VERTEX_POINT('',#508);
#233=VERTEX_POINT('',#509);
#234=VERTEX_POINT('',#512);
#235=VERTEX_POINT('',#513);
#236=VERTEX_POINT('',#517);
#237=VERTEX_POINT('',#519);
#238=VERTEX_POINT('',#521);
#239=VERTEX_POINT('',#524);
#240=VERTEX_POINT('',#527);
#241=VERTEX_POINT('',#530);
#242=VERTEX_POINT('',#532);
#243=VERTEX_POINT('',#533);
#244=VERTEX_POINT('',#537);
#245=VERTEX_POINT('',#539);
#246=VERTEX_POINT('',#542);
#247=VERTEX_POINT('',#545);
#248=VERTEX_POINT('',#549);
#249=VERTEX_POINT('',#552);
#250=VERTEX_POINT('',#556);
#251=VERTEX_POINT('',#557);
#252=VERTEX_POINT('',#561);
#253=VERTEX_POINT('',#563);
#254=VERTEX_POINT('',#567);
#255=VERTEX_POINT('',#569);
#256=VERTEX_POINT('',#571);
#257=VERTEX_POINT('',#574);
#258=VERTEX_POINT('',#583);
#259=VERTEX_POINT('',#584);
#260=EDGE_CURVE('',#232,#233,#296,.T.);
#261=EDGE_CURVE('',#233,#232,#297,.T.);
#262=EDGE_CURVE('',#234,#235,#298,.T.);
#263=EDGE_CURVE('',#235,#234,#299,.T.);
#264=EDGE_CURVE('',#232,#236,#64,.T.);
#265=EDGE_CURVE('',#237,#236,#300,.T.);
#266=EDGE_CURVE('',#237,#238,#65,.T.);
#267=EDGE_CURVE('',#236,#237,#301,.T.);
#268=EDGE_CURVE('',#233,#239,#66,.T.);
#269=EDGE_CURVE('',#240,#240,#302,.T.);
#270=EDGE_CURVE('',#241,#241,#303,.T.);
#271=EDGE_CURVE('',#242,#243,#304,.T.);
#272=EDGE_CURVE('',#243,#242,#305,.T.);
#273=EDGE_CURVE('',#244,#244,#306,.T.);
#274=EDGE_CURVE('',#245,#245,#307,.T.);
#275=EDGE_CURVE('',#246,#246,#308,.T.);
#276=EDGE_CURVE('',#247,#247,#309,.T.);
#277=EDGE_CURVE('',#248,#248,#310,.T.);
#278=EDGE_CURVE('',#249,#249,#311,.T.);
#279=EDGE_CURVE('',#250,#251,#312,.T.);
#280=EDGE_CURVE('',#251,#250,#313,.T.);
#281=EDGE_CURVE('',#252,#251,#67,.T.);
#282=EDGE_CURVE('',#253,#250,#68,.T.);
#283=EDGE_CURVE('',#252,#253,#314,.T.);
#284=EDGE_CURVE('',#252,#254,#69,.T.);
#285=EDGE_CURVE('',#254,#255,#315,.T.);
#286=EDGE_CURVE('',#256,#255,#70,.T.);
#287=EDGE_CURVE('',#254,#255,#316,.T.);
#288=EDGE_CURVE('',#253,#257,#71,.T.);
#289=EDGE_CURVE('',#253,#252,#317,.T.);
#290=EDGE_CURVE('',#242,#255,#318,.T.);
#291=EDGE_CURVE('',#243,#254,#319,.T.);
#292=EDGE_CURVE('',#258,#259,#320,.T.);
#293=EDGE_CURVE('',#259,#258,#321,.T.);
#294=EDGE_CURVE('',#259,#234,#72,.T.);
#295=EDGE_CURVE('',#258,#235,#73,.T.);
#296=CIRCLE('',#347,31.5);
#297=CIRCLE('',#348,31.5);
#298=CIRCLE('',#349,24.3206277416436);
#299=CIRCLE('',#350,24.3206277416436);
#300=CIRCLE('',#352,31.5);
#301=CIRCLE('',#353,31.5);
#302=CIRCLE('',#355,28.89759526419);
#303=CIRCLE('',#357,31.5);
#304=CIRCLE('',#358,26.);
#305=CIRCLE('',#359,26.);
#306=CIRCLE('',#361,27.5);
#307=CIRCLE('',#362,28.);
#308=CIRCLE('',#364,28.89759526419);
#309=CIRCLE('',#366,31.5);
#310=CIRCLE('',#369,28.);
#311=CIRCLE('',#371,27.5);
#312=CIRCLE('',#374,15.0000000000043);
#313=CIRCLE('',#375,15.0000000000043);
#314=CIRCLE('',#377,21.);
#315=CIRCLE('',#379,21.);
#316=CIRCLE('',#380,21.);
#317=CIRCLE('',#381,21.);
#318=CIRCLE('',#384,5.);
#319=CIRCLE('',#385,5.);
#320=CIRCLE('',#388,22.7174392126387);
#321=CIRCLE('',#389,22.7174392126387);
#322=INVISIBILITY((#323,#324,#325,#326));
#323=PRESENTATION_LAYER_ASSIGNMENT('100','Layer 100',(#344));
#324=PRESENTATION_LAYER_ASSIGNMENT('101','Layer 101',(#345));
#325=PRESENTATION_LAYER_ASSIGNMENT('102','Layer 102',(#346));
#326=PRESENTATION_LAYER_ASSIGNMENT('98','Layer 98',(#38));
#327=STYLED_ITEM('',(#331),#344);
#328=STYLED_ITEM('',(#332),#345);
#329=STYLED_ITEM('',(#333),#346);
#330=STYLED_ITEM('',(#334),#38);
#331=PRESENTATION_STYLE_ASSIGNMENT((#335));
#332=PRESENTATION_STYLE_ASSIGNMENT((#336));
#333=PRESENTATION_STYLE_ASSIGNMENT((#337));
#334=PRESENTATION_STYLE_ASSIGNMENT((#33));
#335=CURVE_STYLE('',#340,POSITIVE_LENGTH_MEASURE(0.7),#338);
#336=CURVE_STYLE('',#341,POSITIVE_LENGTH_MEASURE(0.7),#338);
#337=CURVE_STYLE('',#342,POSITIVE_LENGTH_MEASURE(0.7),#338);
#338=COLOUR_RGB('Medium Maroon',0.6,0.4,0.4);
#339=COLOUR_RGB('Medium Gray',0.490196078431373,0.490196078431373,0.490196078431373);
#340=DRAUGHTING_PRE_DEFINED_CURVE_FONT('continuous');
#341=DRAUGHTING_PRE_DEFINED_CURVE_FONT('continuous');
#342=DRAUGHTING_PRE_DEFINED_CURVE_FONT('continuous');
#343=AXIS2_PLACEMENT_3D('',#503,#393,#394);
#344=AXIS2_PLACEMENT_3D('PCS',#504,#395,#396);
#345=AXIS2_PLACEMENT_3D('CSW',#505,#397,#398);
#346=AXIS2_PLACEMENT_3D('MCS',#506,#399,#400);
#347=AXIS2_PLACEMENT_3D('',#507,#401,#402);
#348=AXIS2_PLACEMENT_3D('',#510,#403,#404);
#349=AXIS2_PLACEMENT_3D('',#511,#405,#406);
#350=AXIS2_PLACEMENT_3D('',#514,#407,#408);
#351=AXIS2_PLACEMENT_3D('',#515,#409,#410);
#352=AXIS2_PLACEMENT_3D('',#518,#412,#413);
#353=AXIS2_PLACEMENT_3D('',#522,#415,#416);
#354=AXIS2_PLACEMENT_3D('',#525,#418,#419);
#355=AXIS2_PLACEMENT_3D('',#526,#420,#421);
#356=AXIS2_PLACEMENT_3D('',#528,#422,#423);
#357=AXIS2_PLACEMENT_3D('',#529,#424,#425);
#358=AXIS2_PLACEMENT_3D('',#531,#426,#427);
#359=AXIS2_PLACEMENT_3D('',#534,#428,#429);
#360=AXIS2_PLACEMENT_3D('',#535,#430,#431);
#361=AXIS2_PLACEMENT_3D('',#536,#432,#433);
#362=AXIS2_PLACEMENT_3D('',#538,#434,#435);
#363=AXIS2_PLACEMENT_3D('',#540,#436,#437);
#364=AXIS2_PLACEMENT_3D('',#541,#438,#439);
#365=AXIS2_PLACEMENT_3D('',#543,#440,#441);
#366=AXIS2_PLACEMENT_3D('',#544,#442,#443);
#367=AXIS2_PLACEMENT_3D('',#546,#444,#445);
#368=AXIS2_PLACEMENT_3D('',#547,#446,#447);
#369=AXIS2_PLACEMENT_3D('',#548,#448,#449);
#370=AXIS2_PLACEMENT_3D('',#550,#450,#451);
#371=AXIS2_PLACEMENT_3D('',#551,#452,#453);
#372=AXIS2_PLACEMENT_3D('',#553,#454,#455);
#373=AXIS2_PLACEMENT_3D('',#554,#456,#457);
#374=AXIS2_PLACEMENT_3D('',#555,#458,#459);
#375=AXIS2_PLACEMENT_3D('',#558,#460,#461);
#376=AXIS2_PLACEMENT_3D('',#559,#462,#463);
#377=AXIS2_PLACEMENT_3D('',#564,#466,#467);
#378=AXIS2_PLACEMENT_3D('',#565,#468,#469);
#379=AXIS2_PLACEMENT_3D('',#568,#471,#472);
#380=AXIS2_PLACEMENT_3D('',#572,#474,#475);
#381=AXIS2_PLACEMENT_3D('',#575,#477,#478);
#382=AXIS2_PLACEMENT_3D('',#576,#479,#480);
#383=AXIS2_PLACEMENT_3D('',#577,#481,#482);
#384=AXIS2_PLACEMENT_3D('',#578,#483,#484);
#385=AXIS2_PLACEMENT_3D('',#579,#485,#486);
#386=AXIS2_PLACEMENT_3D('',#580,#487,#488);
#387=AXIS2_PLACEMENT_3D('',#581,#489,#490);
#388=AXIS2_PLACEMENT_3D('',#582,#491,#492);
#389=AXIS2_PLACEMENT_3D('',#585,#493,#494);
#390=AXIS2_PLACEMENT_3D('',#586,#495,#496);
#391=AXIS2_PLACEMENT_3D('',#589,#499,#500);
#392=AXIS2_PLACEMENT_3D('',#590,#501,#502);
#393=DIRECTION('',(0.,0.,1.));
#394=DIRECTION('',(1.,0.,0.));
#395=DIRECTION('',(0.,0.,1.));
#396=DIRECTION('',(1.,0.,0.));
#397=DIRECTION('',(0.,0.,1.));
#398=DIRECTION('',(1.,0.,0.));
#399=DIRECTION('',(0.,0.,1.));
#400=DIRECTION('',(1.,0.,0.));
#401=DIRECTION('',(0.,0.,1.));
#402=DIRECTION('',(-1.,0.,0.));
#403=DIRECTION('',(0.,0.,1.));
#404=DIRECTION('',(-1.,0.,0.));
#405=DIRECTION('',(0.,0.,-1.));
#406=DIRECTION('',(-1.,0.,0.));
#407=DIRECTION('',(0.,0.,-1.));
#408=DIRECTION('',(-1.,0.,0.));
#409=DIRECTION('',(0.,0.,-1.));
#410=DIRECTION('',(0.,-1.,0.));
#411=DIRECTION('',(-3.308477055609E-14,0.,-1.));
#412=DIRECTION('',(0.,0.,-1.));
#413=DIRECTION('',(0.,-1.,0.));
#414=DIRECTION('',(0.,0.,1.));
#415=DIRECTION('',(0.,0.,-1.));
#416=DIRECTION('',(0.958314847499905,0.285714285714302,0.));
#417=DIRECTION('',(9.33264607387E-13,-2.13162820728E-14,-1.));
#418=DIRECTION('',(0.,0.,-1.));
#419=DIRECTION('',(0.,-1.,0.));
#420=DIRECTION('',(0.,0.,-1.));
#421=DIRECTION('',(-0.960916131215481,0.276839644505394,0.));
#422=DIRECTION('',(0.,0.,1.));
#423=DIRECTION('',(0.,1.,-8.85942107049627E-18));
#424=DIRECTION('',(0.,0.,1.));
#425=DIRECTION('',(-1.,0.,0.));
#426=DIRECTION('',(0.,0.,-1.));
#427=DIRECTION('',(0.,1.,0.));
#428=DIRECTION('',(0.,0.,-1.));
#429=DIRECTION('',(0.,-1.,0.));
#430=DIRECTION('',(0.,0.,-1.));
#431=DIRECTION('',(0.,-1.,0.));
#432=DIRECTION('',(0.,0.,1.));
#433=DIRECTION('',(0.96363636363636,0.267217062849089,0.));
#434=DIRECTION('',(0.,0.,-1.));
#435=DIRECTION('',(-0.958314847499905,0.285714285714302,0.));
#436=DIRECTION('',(0.,0.,-1.));
#437=DIRECTION('',(-0.00422980117842993,0.999991054350983,0.));
#438=DIRECTION('',(0.,0.,-1.));
#439=DIRECTION('',(-0.960916131215481,0.276839644505394,0.));
#440=DIRECTION('',(0.,0.,-1.));
#441=DIRECTION('',(0.,-1.,0.));
#442=DIRECTION('',(0.,0.,-1.));
#443=DIRECTION('',(-0.967212554703614,0.253968253968304,0.));
#444=DIRECTION('',(0.,0.,-1.));
#445=DIRECTION('',(0.,-1.,5.51252866608657E-17));
#446=DIRECTION('',(0.,0.,-1.));
#447=DIRECTION('',(0.,-1.,0.));
#448=DIRECTION('',(0.,0.,1.));
#449=DIRECTION('',(0.946933827397333,0.321428571428611,0.));
#450=DIRECTION('',(0.,0.,-1.));
#451=DIRECTION('',(0.,-1.,0.));
#452=DIRECTION('',(0.,0.,-1.));
#453=DIRECTION('',(-0.96363636363636,0.267217062849089,0.));
#454=DIRECTION('',(0.,0.,-1.));
#455=DIRECTION('',(-0.00403519109815584,0.999991858583259,0.));
#456=DIRECTION('',(0.,0.,-1.));
#457=DIRECTION('',(0.,-1.,0.));
#458=DIRECTION('',(0.,0.,1.));
#459=DIRECTION('',(-1.,0.,0.));
#460=DIRECTION('',(0.,0.,1.));
#461=DIRECTION('',(-1.,0.,0.));
#462=DIRECTION('',(0.,0.,-1.));
#463=DIRECTION('',(0.,-1.,0.));
#464=DIRECTION('',(0.,0.422618261740681,-0.906307787036659));
#465=DIRECTION('',(0.,-0.422618261740681,-0.906307787036659));
#466=DIRECTION('',(0.,0.,1.));
#467=DIRECTION('',(1.,0.,0.));
#468=DIRECTION('',(0.,0.,1.));
#469=DIRECTION('',(0.,1.,1.14578071714087E-16));
#470=DIRECTION('',(-6.519223274451E-14,0.,1.));
#471=DIRECTION('',(0.,0.,-1.));
#472=DIRECTION('',(0.,-1.,0.));
#473=DIRECTION('',(0.,0.,1.));
#474=DIRECTION('',(0.,0.,1.));
#475=DIRECTION('',(0.,-1.,0.));
#476=DIRECTION('',(1.399482161412E-12,0.,1.));
#477=DIRECTION('',(0.,0.,1.));
#478=DIRECTION('',(1.,0.,0.));
#479=DIRECTION('',(0.,0.,-1.));
#480=DIRECTION('',(0.,-1.,0.));
#481=DIRECTION('',(0.,0.,1.));
#482=DIRECTION('',(0.,1.,1.14578071714087E-16));
#483=DIRECTION('',(1.,0.,0.));
#484=DIRECTION('',(0.,-1.,0.));
#485=DIRECTION('',(-1.,0.,0.));
#486=DIRECTION('',(0.,1.,0.));
#487=DIRECTION('',(0.,0.,-1.));
#488=DIRECTION('',(0.,-1.,0.));
#489=DIRECTION('',(0.,0.,-1.));
#490=DIRECTION('',(0.,-1.,0.));
#491=DIRECTION('',(0.,0.,1.));
#492=DIRECTION('',(-1.,0.,0.));
#493=DIRECTION('',(0.,0.,1.));
#494=DIRECTION('',(-1.,0.,0.));
#495=DIRECTION('',(0.,0.,-1.));
#496=DIRECTION('',(0.,-1.,0.));
#497=DIRECTION('',(1.87233229922393E-14,-0.0500368852433381,-0.998747370517262));
#498=DIRECTION('',(-1.84941077733493E-14,0.0500368852433481,-0.998747370517262));
#499=DIRECTION('',(0.,0.,-1.));
#500=DIRECTION('',(0.,-1.,-3.77128499686941E-16));
#501=DIRECTION('',(0.,0.,-1.));
#502=DIRECTION('',(0.,-1.,-3.77128499686941E-16));
#503=CARTESIAN_POINT('',(0.,0.,0.));
#504=CARTESIAN_POINT('',(0.,0.,0.));
#505=CARTESIAN_POINT('',(0.,0.,-80.));
#506=CARTESIAN_POINT('',(0.,0.,0.));
#507=CARTESIAN_POINT('',(0.,0.,0.));
#508=CARTESIAN_POINT('',(4.83782088067779E-13,31.5,0.));
#509=CARTESIAN_POINT('',(-1.3998969110805E-12,-31.5,0.));
#510=CARTESIAN_POINT('',(0.,0.,0.));
#511=CARTESIAN_POINT('',(0.,0.,0.));
#512=CARTESIAN_POINT('',(0.,-24.3206277416436,0.));
#513=CARTESIAN_POINT('',(2.67034791029395E-13,24.3206277416436,0.));
#514=CARTESIAN_POINT('',(0.,0.,0.));
#515=CARTESIAN_POINT('',(0.,0.,0.));
#516=CARTESIAN_POINT('',(0.,31.5,-14.62250092524));
#517=CARTESIAN_POINT('',(0.,31.5,-14.62250092524));
#518=CARTESIAN_POINT('',(0.,0.,-14.62250092524));
#519=CARTESIAN_POINT('',(0.,-31.5,-14.62250092524));
#520=CARTESIAN_POINT('',(0.,-31.5,-14.62250092524));
#521=CARTESIAN_POINT('',(0.,-31.5,-12.5));
#522=CARTESIAN_POINT('',(0.,0.,-14.62250092524));
#523=CARTESIAN_POINT('',(0.,-31.5,-1.5));
#524=CARTESIAN_POINT('',(0.,-31.5,-1.5));
#525=CARTESIAN_POINT('',(0.,0.,34.9));
#526=CARTESIAN_POINT('',(0.,0.,-16.125));
#527=CARTESIAN_POINT('',(-27.7681654426962,7.99999999999913,-16.125));
#528=CARTESIAN_POINT('',(0.,0.,-15.37375046262));
#529=CARTESIAN_POINT('',(0.,0.,-26.));
#530=CARTESIAN_POINT('',(-31.5,0.,-26.));
#531=CARTESIAN_POINT('',(0.,0.,-26.));
#532=CARTESIAN_POINT('',(0.,26.,-26.));
#533=CARTESIAN_POINT('',(0.,-26.,-26.));
#534=CARTESIAN_POINT('',(0.,0.,-26.));
#535=CARTESIAN_POINT('',(0.,0.,-26.));
#536=CARTESIAN_POINT('',(0.,0.,-19.375));
#537=CARTESIAN_POINT('',(26.4999999999999,7.34846922834994,-19.375));
#538=CARTESIAN_POINT('',(0.,0.,-19.875));
#539=CARTESIAN_POINT('',(-26.8328157299973,8.00000000000044,-19.875));
#540=CARTESIAN_POINT('',(0.,0.,-19.375));
#541=CARTESIAN_POINT('',(0.,0.,-19.875));
#542=CARTESIAN_POINT('',(-27.7681654426962,7.99999999999913,-19.875));
#543=CARTESIAN_POINT('',(0.,0.,-19.875));
#544=CARTESIAN_POINT('',(0.,0.,-21.377499074759));
#545=CARTESIAN_POINT('',(-30.4671954731638,8.00000000000156,-21.377499074759));
#546=CARTESIAN_POINT('',(0.,0.,-20.62624953738));
#547=CARTESIAN_POINT('',(0.,0.,34.9));
#548=CARTESIAN_POINT('',(0.,0.,-16.125));
#549=CARTESIAN_POINT('',(26.5141471671253,9.00000000000112,-16.125));
#550=CARTESIAN_POINT('',(0.,0.,-16.125));
#551=CARTESIAN_POINT('',(0.,0.,-16.625));
#552=CARTESIAN_POINT('',(-26.4999999999999,7.34846922834994,-16.625));
#553=CARTESIAN_POINT('',(0.,0.,-16.625));
#554=CARTESIAN_POINT('',(0.,0.,34.9));
#555=CARTESIAN_POINT('',(0.,0.,-80.));
#556=CARTESIAN_POINT('',(-1.983682807272E-12,15.0000000000011,-80.));
#557=CARTESIAN_POINT('',(1.977261275325E-12,-15.0000000000011,-80.));
#558=CARTESIAN_POINT('',(0.,0.,-80.));
#559=CARTESIAN_POINT('',(0.,0.,-80.));
#560=CARTESIAN_POINT('',(1.977261275325E-12,-15.53847505246,-78.84523652348));
#561=CARTESIAN_POINT('',(1.17650824024943E-12,-21.,-67.1329584769447));
#562=CARTESIAN_POINT('',(-1.983682807272E-12,15.53847505246,-78.84523652348));
#563=CARTESIAN_POINT('',(-1.47429112006822E-12,21.,-67.1329584769447));
#564=CARTESIAN_POINT('',(0.,0.,-67.1329584769519));
#565=CARTESIAN_POINT('',(0.,0.,-73.19002109931));
#566=CARTESIAN_POINT('',(2.324110940408E-12,-21.,-66.68956915166));
#567=CARTESIAN_POINT('',(0.,-21.,-31.));
#568=CARTESIAN_POINT('',(0.,0.,-31.));
#569=CARTESIAN_POINT('',(0.,21.,-31.));
#570=CARTESIAN_POINT('',(0.,21.,-49.975));
#571=CARTESIAN_POINT('',(0.,21.,-49.975));
#572=CARTESIAN_POINT('',(0.,0.,-31.));
#573=CARTESIAN_POINT('',(-2.32806678883E-12,21.,-66.68956915166));
#574=CARTESIAN_POINT('',(3.67011338721795E-16,21.,-65.025));
#575=CARTESIAN_POINT('',(0.,0.,-67.1329584769519));
#576=CARTESIAN_POINT('',(0.,0.,-23.3));
#577=CARTESIAN_POINT('',(0.,0.,-73.19002109931));
#578=CARTESIAN_POINT('',(0.,26.,-31.));
#579=CARTESIAN_POINT('',(0.,-26.,-31.));
#580=CARTESIAN_POINT('',(0.,0.,-31.));
#581=CARTESIAN_POINT('',(0.,0.,-31.));
#582=CARTESIAN_POINT('',(0.,0.,32.));
#583=CARTESIAN_POINT('',(5.55519092794337E-13,22.7174392126479,32.));
#584=CARTESIAN_POINT('',(-5.62404173816516E-13,-22.7174392126482,32.));
#585=CARTESIAN_POINT('',(0.,0.,32.));
#586=CARTESIAN_POINT('',(0.,0.,32.));
#587=CARTESIAN_POINT('',(0.,-24.22042845859,2.));
#588=CARTESIAN_POINT('',(0.,24.22042845859,2.));
#589=CARTESIAN_POINT('',(0.,0.,16.43002213115));
#590=CARTESIAN_POINT('',(0.,0.,16.43002213115));
#591=MECHANICAL_DESIGN_GEOMETRIC_PRESENTATION_REPRESENTATION('',(#327,#328,
#329,#330),#592);
#592=(
GEOMETRIC_REPRESENTATION_CONTEXT(3)
GLOBAL_UNCERTAINTY_ASSIGNED_CONTEXT((#593))
GLOBAL_UNIT_ASSIGNED_CONTEXT((#599,#595,#594))
REPRESENTATION_CONTEXT('HSK.63A-W.12','TOP_LEVEL_ASSEMBLY_PART')
);
#593=UNCERTAINTY_MEASURE_WITH_UNIT(LENGTH_MEASURE(2.E-5),#599,
'DISTANCE_ACCURACY_VALUE','Maximum Tolerance applied to model');
#594=(
NAMED_UNIT(*)
SI_UNIT($,.STERADIAN.)
SOLID_ANGLE_UNIT()
);
#595=(
CONVERSION_BASED_UNIT('DEGREE',#597)
NAMED_UNIT(#596)
PLANE_ANGLE_UNIT()
);
#596=DIMENSIONAL_EXPONENTS(0.,0.,0.,0.,0.,0.,0.);
#597=PLANE_ANGLE_MEASURE_WITH_UNIT(PLANE_ANGLE_MEASURE(0.0174532925),#598);
#598=(
NAMED_UNIT(*)
PLANE_ANGLE_UNIT()
SI_UNIT($,.RADIAN.)
);
#599=(
LENGTH_UNIT()
NAMED_UNIT(*)
SI_UNIT(.MILLI.,.METRE.)
);
ENDSEC;
END-ISO-10303-21;
