ISO-10303-21;
HEADER;
/* Generated by software containing ST-Developer
 * from STEP Tools, Inc. (www.steptools.com) 
 */
/* OPTION: using custom schema-name function */

FILE_DESCRIPTION(
/* description */ (''),
/* implementation_level */ '2;1');

FILE_NAME(
/* name */ 'HSK.63A-SC.25.160.C.stp',
/* time_stamp */ '2024-07-21T15:00:30+02:00',
/* author */ (''),
/* organization */ (''),
/* preprocessor_version */ 'ST-DEVELOPER v16.7',
/* originating_system */ 'SIEMENS PLM Software NX 12.0',
/* authorisation */ '');

FILE_SCHEMA (('AUTOMOTIVE_DESIGN { 1 0 10303 214 3 1 1 1 }'));
ENDSEC;

DATA;
#10=CONSTRUCTIVE_GEOMETRY_REPRESENTATION_RELATIONSHIP(
'supplemental geometry','',#32,#11);
#11=CONSTRUCTIVE_GEOMETRY_REPRESENTATION('supplemental geometry',(#332,
#333,#334),#552);
#12=PROPERTY_DEFINITION_REPRESENTATION(#16,#14);
#13=PROPERTY_DEFINITION_REPRESENTATION(#17,#15);
#14=REPRESENTATION('',(#18),#552);
#15=REPRESENTATION('',(#19),#552);
#16=PROPERTY_DEFINITION('pmi validation property','',#23);
#17=PROPERTY_DEFINITION('pmi validation property','',#23);
#18=VALUE_REPRESENTATION_ITEM('number of annotations',COUNT_MEASURE(0.));
#19=VALUE_REPRESENTATION_ITEM('number of views',COUNT_MEASURE(0.));
#20=SHAPE_REPRESENTATION_RELATIONSHIP('None',
'relationship between pf6612088076ypbi-None and pf6612088076ypbi-None',
#32,#21);
#21=ADVANCED_BREP_SHAPE_REPRESENTATION('pf6612088076ypbi-None',(#38),#552);
#22=SHAPE_DEFINITION_REPRESENTATION(#23,#32);
#23=PRODUCT_DEFINITION_SHAPE('','',#24);
#24=PRODUCT_DEFINITION(' ','',#26,#25);
#25=PRODUCT_DEFINITION_CONTEXT('part definition',#31,'design');
#26=PRODUCT_DEFINITION_FORMATION_WITH_SPECIFIED_SOURCE(' ',' ',#28,
 .NOT_KNOWN.);
#27=PRODUCT_RELATED_PRODUCT_CATEGORY('part','',(#28));
#28=PRODUCT('pf6612088076ypbi','pf6612088076ypbi',' ',(#29));
#29=PRODUCT_CONTEXT(' ',#31,'mechanical');
#30=APPLICATION_PROTOCOL_DEFINITION('international standard',
'automotive_design',2010,#31);
#31=APPLICATION_CONTEXT(
'core data for automotive mechanical design processes');
#32=SHAPE_REPRESENTATION('pf6612088076ypbi-None',(#331),#552);
#33=SURFACE_STYLE_USAGE(.BOTH.,#34);
#34=SURFACE_SIDE_STYLE('',(#35));
#35=SURFACE_STYLE_FILL_AREA(#36);
#36=FILL_AREA_STYLE('',(#37));
#37=FILL_AREA_STYLE_COLOUR('',#327);
#38=MANIFOLD_SOLID_BREP('MIRROR6',#39);
#39=CLOSED_SHELL('',(#80,#81,#82,#83,#84,#85,#86,#87,#88,#89,#90,#91,#92,
#93,#94,#95,#96));
#40=TOROIDAL_SURFACE('',#351,28.225,0.749999999999997);
#41=TOROIDAL_SURFACE('',#354,28.225,0.750000000000003);
#42=PLANE('',#348);
#43=PLANE('',#359);
#44=PLANE('',#364);
#45=PLANE('',#365);
#46=PLANE('',#367);
#47=PLANE('',#371);
#48=CYLINDRICAL_SURFACE('',#345,31.47);
#49=CYLINDRICAL_SURFACE('',#355,27.475);
#50=CYLINDRICAL_SURFACE('',#361,31.47);
#51=CYLINDRICAL_SURFACE('',#370,26.5);
#52=FACE_BOUND('',#107,.T.);
#53=FACE_BOUND('',#108,.T.);
#54=FACE_BOUND('',#109,.T.);
#55=FACE_BOUND('',#110,.T.);
#56=FACE_BOUND('',#111,.T.);
#57=FACE_BOUND('',#112,.T.);
#58=FACE_BOUND('',#113,.T.);
#59=FACE_BOUND('',#114,.T.);
#60=FACE_BOUND('',#115,.T.);
#61=FACE_BOUND('',#116,.T.);
#62=FACE_BOUND('',#117,.T.);
#63=FACE_BOUND('',#118,.T.);
#64=FACE_BOUND('',#119,.T.);
#65=FACE_BOUND('',#120,.T.);
#66=FACE_BOUND('',#121,.T.);
#67=FACE_BOUND('',#122,.T.);
#68=FACE_BOUND('',#123,.T.);
#69=FACE_BOUND('',#124,.T.);
#70=FACE_BOUND('',#125,.T.);
#71=FACE_BOUND('',#126,.T.);
#72=FACE_BOUND('',#127,.T.);
#73=FACE_BOUND('',#128,.T.);
#74=FACE_BOUND('',#129,.T.);
#75=FACE_BOUND('',#130,.T.);
#76=FACE_BOUND('',#134,.T.);
#77=FACE_BOUND('',#135,.T.);
#78=FACE_BOUND('',#136,.T.);
#79=FACE_BOUND('',#137,.T.);
#80=ADVANCED_FACE('',(#102),#97,.T.);
#81=ADVANCED_FACE('',(#52,#53,#54,#55),#98,.T.);
#82=ADVANCED_FACE('',(#56,#57),#48,.T.);
#83=ADVANCED_FACE('',(#58,#59),#42,.T.);
#84=ADVANCED_FACE('',(#60,#61),#99,.T.);
#85=ADVANCED_FACE('',(#62,#63),#40,.F.);
#86=ADVANCED_FACE('',(#64,#65),#41,.F.);
#87=ADVANCED_FACE('',(#66,#67),#49,.T.);
#88=ADVANCED_FACE('',(#68,#69),#43,.T.);
#89=ADVANCED_FACE('',(#70,#71),#50,.T.);
#90=ADVANCED_FACE('',(#72,#73),#100,.T.);
#91=ADVANCED_FACE('',(#74,#75),#44,.T.);
#92=ADVANCED_FACE('',(#103),#45,.T.);
#93=ADVANCED_FACE('',(#104),#46,.T.);
#94=ADVANCED_FACE('',(#105),#101,.T.);
#95=ADVANCED_FACE('',(#76,#77),#51,.T.);
#96=ADVANCED_FACE('',(#78,#79),#47,.T.);
#97=CONICAL_SURFACE('',#337,22.,4.50000000000001);
#98=CONICAL_SURFACE('',#341,24.2184909531449,2.86805555555567);
#99=CONICAL_SURFACE('',#349,28.9375471694755,60.0000000000007);
#100=CONICAL_SURFACE('',#363,31.47,59.9999999999993);
#101=CONICAL_SURFACE('',#369,22.,4.50000000000001);
#102=FACE_OUTER_BOUND('',#106,.T.);
#103=FACE_OUTER_BOUND('',#131,.T.);
#104=FACE_OUTER_BOUND('',#132,.T.);
#105=FACE_OUTER_BOUND('',#133,.T.);
#106=EDGE_LOOP('',(#162,#163,#164,#165));
#107=EDGE_LOOP('',(#166,#167,#168,#169,#170,#171));
#108=EDGE_LOOP('',(#172));
#109=EDGE_LOOP('',(#173,#174));
#110=EDGE_LOOP('',(#175,#176));
#111=EDGE_LOOP('',(#177));
#112=EDGE_LOOP('',(#178,#179,#180,#181,#182,#183));
#113=EDGE_LOOP('',(#184));
#114=EDGE_LOOP('',(#185));
#115=EDGE_LOOP('',(#186));
#116=EDGE_LOOP('',(#187));
#117=EDGE_LOOP('',(#188));
#118=EDGE_LOOP('',(#189));
#119=EDGE_LOOP('',(#190));
#120=EDGE_LOOP('',(#191));
#121=EDGE_LOOP('',(#192));
#122=EDGE_LOOP('',(#193));
#123=EDGE_LOOP('',(#194));
#124=EDGE_LOOP('',(#195,#196));
#125=EDGE_LOOP('',(#197));
#126=EDGE_LOOP('',(#198));
#127=EDGE_LOOP('',(#199));
#128=EDGE_LOOP('',(#200));
#129=EDGE_LOOP('',(#201));
#130=EDGE_LOOP('',(#202));
#131=EDGE_LOOP('',(#203));
#132=EDGE_LOOP('',(#204,#205));
#133=EDGE_LOOP('',(#206,#207,#208,#209));
#134=EDGE_LOOP('',(#210,#211,#212,#213,#214,#215));
#135=EDGE_LOOP('',(#216,#217,#218,#219,#220,#221));
#136=EDGE_LOOP('',(#222,#223));
#137=EDGE_LOOP('',(#224,#225));
#138=LINE('',#473,#150);
#139=LINE('',#477,#151);
#140=LINE('',#479,#152);
#141=LINE('',#484,#153);
#142=LINE('',#489,#154);
#143=LINE('',#492,#155);
#144=LINE('',#498,#156);
#145=LINE('',#503,#157);
#146=LINE('',#541,#158);
#147=LINE('',#543,#159);
#148=LINE('',#545,#160);
#149=LINE('',#547,#161);
#150=VECTOR('',#382,1.);
#151=VECTOR('',#385,1.);
#152=VECTOR('',#388,1.);
#153=VECTOR('',#391,1.);
#154=VECTOR('',#396,1.);
#155=VECTOR('',#397,1.);
#156=VECTOR('',#402,1.);
#157=VECTOR('',#405,1.);
#158=VECTOR('',#458,1.);
#159=VECTOR('',#459,1.);
#160=VECTOR('',#460,1.);
#161=VECTOR('',#461,1.);
#162=ORIENTED_EDGE('',*,*,#258,.F.);
#163=ORIENTED_EDGE('',*,*,#259,.F.);
#164=ORIENTED_EDGE('',*,*,#260,.T.);
#165=ORIENTED_EDGE('',*,*,#261,.T.);
#166=ORIENTED_EDGE('',*,*,#262,.F.);
#167=ORIENTED_EDGE('',*,*,#262,.T.);
#168=ORIENTED_EDGE('',*,*,#263,.T.);
#169=ORIENTED_EDGE('',*,*,#264,.F.);
#170=ORIENTED_EDGE('',*,*,#264,.T.);
#171=ORIENTED_EDGE('',*,*,#265,.T.);
#172=ORIENTED_EDGE('',*,*,#266,.T.);
#173=ORIENTED_EDGE('',*,*,#267,.F.);
#174=ORIENTED_EDGE('',*,*,#267,.T.);
#175=ORIENTED_EDGE('',*,*,#268,.F.);
#176=ORIENTED_EDGE('',*,*,#268,.T.);
#177=ORIENTED_EDGE('',*,*,#269,.T.);
#178=ORIENTED_EDGE('',*,*,#270,.T.);
#179=ORIENTED_EDGE('',*,*,#270,.F.);
#180=ORIENTED_EDGE('',*,*,#271,.F.);
#181=ORIENTED_EDGE('',*,*,#272,.T.);
#182=ORIENTED_EDGE('',*,*,#272,.F.);
#183=ORIENTED_EDGE('',*,*,#273,.F.);
#184=ORIENTED_EDGE('',*,*,#274,.F.);
#185=ORIENTED_EDGE('',*,*,#275,.T.);
#186=ORIENTED_EDGE('',*,*,#275,.F.);
#187=ORIENTED_EDGE('',*,*,#269,.F.);
#188=ORIENTED_EDGE('',*,*,#274,.T.);
#189=ORIENTED_EDGE('',*,*,#276,.F.);
#190=ORIENTED_EDGE('',*,*,#277,.T.);
#191=ORIENTED_EDGE('',*,*,#278,.F.);
#192=ORIENTED_EDGE('',*,*,#276,.T.);
#193=ORIENTED_EDGE('',*,*,#277,.F.);
#194=ORIENTED_EDGE('',*,*,#279,.T.);
#195=ORIENTED_EDGE('',*,*,#280,.F.);
#196=ORIENTED_EDGE('',*,*,#281,.F.);
#197=ORIENTED_EDGE('',*,*,#282,.T.);
#198=ORIENTED_EDGE('',*,*,#279,.F.);
#199=ORIENTED_EDGE('',*,*,#283,.T.);
#200=ORIENTED_EDGE('',*,*,#282,.F.);
#201=ORIENTED_EDGE('',*,*,#278,.T.);
#202=ORIENTED_EDGE('',*,*,#283,.F.);
#203=ORIENTED_EDGE('',*,*,#266,.F.);
#204=ORIENTED_EDGE('',*,*,#258,.T.);
#205=ORIENTED_EDGE('',*,*,#284,.T.);
#206=ORIENTED_EDGE('',*,*,#259,.T.);
#207=ORIENTED_EDGE('',*,*,#284,.F.);
#208=ORIENTED_EDGE('',*,*,#261,.F.);
#209=ORIENTED_EDGE('',*,*,#285,.T.);
#210=ORIENTED_EDGE('',*,*,#286,.T.);
#211=ORIENTED_EDGE('',*,*,#286,.F.);
#212=ORIENTED_EDGE('',*,*,#281,.T.);
#213=ORIENTED_EDGE('',*,*,#287,.T.);
#214=ORIENTED_EDGE('',*,*,#287,.F.);
#215=ORIENTED_EDGE('',*,*,#280,.T.);
#216=ORIENTED_EDGE('',*,*,#288,.F.);
#217=ORIENTED_EDGE('',*,*,#288,.T.);
#218=ORIENTED_EDGE('',*,*,#260,.F.);
#219=ORIENTED_EDGE('',*,*,#289,.F.);
#220=ORIENTED_EDGE('',*,*,#289,.T.);
#221=ORIENTED_EDGE('',*,*,#285,.F.);
#222=ORIENTED_EDGE('',*,*,#263,.F.);
#223=ORIENTED_EDGE('',*,*,#265,.F.);
#224=ORIENTED_EDGE('',*,*,#271,.T.);
#225=ORIENTED_EDGE('',*,*,#273,.T.);
#226=VERTEX_POINT('',#471);
#227=VERTEX_POINT('',#472);
#228=VERTEX_POINT('',#474);
#229=VERTEX_POINT('',#476);
#230=VERTEX_POINT('',#480);
#231=VERTEX_POINT('',#481);
#232=VERTEX_POINT('',#483);
#233=VERTEX_POINT('',#485);
#234=VERTEX_POINT('',#488);
#235=VERTEX_POINT('',#490);
#236=VERTEX_POINT('',#491);
#237=VERTEX_POINT('',#493);
#238=VERTEX_POINT('',#494);
#239=VERTEX_POINT('',#497);
#240=VERTEX_POINT('',#499);
#241=VERTEX_POINT('',#500);
#242=VERTEX_POINT('',#502);
#243=VERTEX_POINT('',#504);
#244=VERTEX_POINT('',#508);
#245=VERTEX_POINT('',#510);
#246=VERTEX_POINT('',#514);
#247=VERTEX_POINT('',#517);
#248=VERTEX_POINT('',#519);
#249=VERTEX_POINT('',#523);
#250=VERTEX_POINT('',#525);
#251=VERTEX_POINT('',#526);
#252=VERTEX_POINT('',#530);
#253=VERTEX_POINT('',#533);
#254=VERTEX_POINT('',#542);
#255=VERTEX_POINT('',#544);
#256=VERTEX_POINT('',#546);
#257=VERTEX_POINT('',#548);
#258=EDGE_CURVE('',#226,#227,#290,.T.);
#259=EDGE_CURVE('',#228,#226,#138,.T.);
#260=EDGE_CURVE('',#228,#229,#291,.T.);
#261=EDGE_CURVE('',#229,#227,#139,.T.);
#262=EDGE_CURVE('',#230,#231,#140,.T.);
#263=EDGE_CURVE('',#231,#232,#292,.T.);
#264=EDGE_CURVE('',#233,#232,#141,.T.);
#265=EDGE_CURVE('',#232,#231,#293,.T.);
#266=EDGE_CURVE('',#234,#234,#294,.T.);
#267=EDGE_CURVE('',#235,#236,#142,.T.);
#268=EDGE_CURVE('',#237,#238,#143,.T.);
#269=EDGE_CURVE('',#239,#239,#295,.T.);
#270=EDGE_CURVE('',#240,#241,#144,.T.);
#271=EDGE_CURVE('',#242,#240,#296,.T.);
#272=EDGE_CURVE('',#242,#243,#145,.T.);
#273=EDGE_CURVE('',#240,#242,#297,.T.);
#274=EDGE_CURVE('',#244,#244,#298,.T.);
#275=EDGE_CURVE('',#245,#245,#299,.T.);
#276=EDGE_CURVE('',#246,#246,#300,.T.);
#277=EDGE_CURVE('',#247,#247,#301,.T.);
#278=EDGE_CURVE('',#248,#248,#302,.T.);
#279=EDGE_CURVE('',#249,#249,#303,.T.);
#280=EDGE_CURVE('',#250,#251,#304,.T.);
#281=EDGE_CURVE('',#251,#250,#305,.T.);
#282=EDGE_CURVE('',#252,#252,#306,.T.);
#283=EDGE_CURVE('',#253,#253,#307,.T.);
#284=EDGE_CURVE('',#227,#226,#308,.T.);
#285=EDGE_CURVE('',#229,#228,#309,.T.);
#286=EDGE_CURVE('',#251,#254,#146,.T.);
#287=EDGE_CURVE('',#250,#255,#147,.T.);
#288=EDGE_CURVE('',#256,#229,#148,.T.);
#289=EDGE_CURVE('',#257,#228,#149,.T.);
#290=CIRCLE('',#335,22.);
#291=CIRCLE('',#336,26.5);
#292=CIRCLE('',#338,24.3206228424601);
#293=CIRCLE('',#339,24.3206228424601);
#294=CIRCLE('',#340,22.7224690846066);
#295=CIRCLE('',#342,31.47);
#296=CIRCLE('',#343,31.47);
#297=CIRCLE('',#344,31.47);
#298=CIRCLE('',#346,28.225);
#299=CIRCLE('',#347,28.9375471694755);
#300=CIRCLE('',#350,27.475);
#301=CIRCLE('',#352,27.475);
#302=CIRCLE('',#353,28.225);
#303=CIRCLE('',#356,31.47);
#304=CIRCLE('',#357,26.5);
#305=CIRCLE('',#358,26.5);
#306=CIRCLE('',#360,31.47);
#307=CIRCLE('',#362,28.9375471694755);
#308=CIRCLE('',#366,22.);
#309=CIRCLE('',#368,26.5);
#310=INVISIBILITY((#311,#312,#313,#314));
#311=PRESENTATION_LAYER_ASSIGNMENT('100','Layer 100',(#332));
#312=PRESENTATION_LAYER_ASSIGNMENT('101','Layer 101',(#333));
#313=PRESENTATION_LAYER_ASSIGNMENT('102','Layer 102',(#334));
#314=PRESENTATION_LAYER_ASSIGNMENT('98','Layer 98',(#38));
#315=STYLED_ITEM('',(#319),#332);
#316=STYLED_ITEM('',(#320),#333);
#317=STYLED_ITEM('',(#321),#334);
#318=STYLED_ITEM('',(#322),#38);
#319=PRESENTATION_STYLE_ASSIGNMENT((#323));
#320=PRESENTATION_STYLE_ASSIGNMENT((#324));
#321=PRESENTATION_STYLE_ASSIGNMENT((#325));
#322=PRESENTATION_STYLE_ASSIGNMENT((#33));
#323=CURVE_STYLE('',#328,POSITIVE_LENGTH_MEASURE(0.7),#326);
#324=CURVE_STYLE('',#329,POSITIVE_LENGTH_MEASURE(0.7),#326);
#325=CURVE_STYLE('',#330,POSITIVE_LENGTH_MEASURE(0.7),#326);
#326=COLOUR_RGB('Medium Maroon',0.6,0.4,0.4);
#327=COLOUR_RGB('Medium Gray',0.490196078431373,0.490196078431373,0.490196078431373);
#328=DRAUGHTING_PRE_DEFINED_CURVE_FONT('continuous');
#329=DRAUGHTING_PRE_DEFINED_CURVE_FONT('continuous');
#330=DRAUGHTING_PRE_DEFINED_CURVE_FONT('continuous');
#331=AXIS2_PLACEMENT_3D('',#466,#372,#373);
#332=AXIS2_PLACEMENT_3D('PCS',#467,#374,#375);
#333=AXIS2_PLACEMENT_3D('CSW',#468,#376,#377);
#334=AXIS2_PLACEMENT_3D('MCS',#469,#378,#379);
#335=AXIS2_PLACEMENT_3D('',#470,#380,#381);
#336=AXIS2_PLACEMENT_3D('',#475,#383,#384);
#337=AXIS2_PLACEMENT_3D('',#478,#386,#387);
#338=AXIS2_PLACEMENT_3D('',#482,#389,#390);
#339=AXIS2_PLACEMENT_3D('',#486,#392,#393);
#340=AXIS2_PLACEMENT_3D('',#487,#394,#395);
#341=AXIS2_PLACEMENT_3D('',#495,#398,#399);
#342=AXIS2_PLACEMENT_3D('',#496,#400,#401);
#343=AXIS2_PLACEMENT_3D('',#501,#403,#404);
#344=AXIS2_PLACEMENT_3D('',#505,#406,#407);
#345=AXIS2_PLACEMENT_3D('',#506,#408,#409);
#346=AXIS2_PLACEMENT_3D('',#507,#410,#411);
#347=AXIS2_PLACEMENT_3D('',#509,#412,#413);
#348=AXIS2_PLACEMENT_3D('',#511,#414,#415);
#349=AXIS2_PLACEMENT_3D('',#512,#416,#417);
#350=AXIS2_PLACEMENT_3D('',#513,#418,#419);
#351=AXIS2_PLACEMENT_3D('',#515,#420,#421);
#352=AXIS2_PLACEMENT_3D('',#516,#422,#423);
#353=AXIS2_PLACEMENT_3D('',#518,#424,#425);
#354=AXIS2_PLACEMENT_3D('',#520,#426,#427);
#355=AXIS2_PLACEMENT_3D('',#521,#428,#429);
#356=AXIS2_PLACEMENT_3D('',#522,#430,#431);
#357=AXIS2_PLACEMENT_3D('',#524,#432,#433);
#358=AXIS2_PLACEMENT_3D('',#527,#434,#435);
#359=AXIS2_PLACEMENT_3D('',#528,#436,#437);
#360=AXIS2_PLACEMENT_3D('',#529,#438,#439);
#361=AXIS2_PLACEMENT_3D('',#531,#440,#441);
#362=AXIS2_PLACEMENT_3D('',#532,#442,#443);
#363=AXIS2_PLACEMENT_3D('',#534,#444,#445);
#364=AXIS2_PLACEMENT_3D('',#535,#446,#447);
#365=AXIS2_PLACEMENT_3D('',#536,#448,#449);
#366=AXIS2_PLACEMENT_3D('',#537,#450,#451);
#367=AXIS2_PLACEMENT_3D('',#538,#452,#453);
#368=AXIS2_PLACEMENT_3D('',#539,#454,#455);
#369=AXIS2_PLACEMENT_3D('',#540,#456,#457);
#370=AXIS2_PLACEMENT_3D('',#549,#462,#463);
#371=AXIS2_PLACEMENT_3D('',#550,#464,#465);
#372=DIRECTION('',(0.,0.,1.));
#373=DIRECTION('',(1.,0.,0.));
#374=DIRECTION('',(0.,0.,1.));
#375=DIRECTION('',(1.,0.,0.));
#376=DIRECTION('',(0.,0.,1.));
#377=DIRECTION('',(1.,0.,0.));
#378=DIRECTION('',(0.,0.,1.));
#379=DIRECTION('',(1.,0.,0.));
#380=DIRECTION('',(-8.02141468094043E-17,0.,-1.));
#381=DIRECTION('',(-1.,0.,0.));
#382=DIRECTION('',(0.078459095727845,-9.60846804471012E-18,-0.996917333733128));
#383=DIRECTION('',(-8.02141468094043E-17,0.,-1.));
#384=DIRECTION('',(-1.,0.,0.));
#385=DIRECTION('',(-0.0784590957278451,0.,-0.996917333733128));
#386=DIRECTION('',(8.02141468094043E-17,0.,1.));
#387=DIRECTION('',(-1.,0.,5.51243399756229E-16));
#388=DIRECTION('',(-0.0500361105131097,0.,-0.998747409330667));
#389=DIRECTION('',(8.02141468094043E-17,0.,1.));
#390=DIRECTION('',(1.,0.,-8.0243171530409E-17));
#391=DIRECTION('',(0.0500361105131095,6.12765625816629E-18,-0.998747409330667));
#392=DIRECTION('',(8.02141468094043E-17,0.,1.));
#393=DIRECTION('',(1.,0.,-8.0243171530409E-17));
#394=DIRECTION('',(-8.02141468094043E-17,0.,-1.));
#395=DIRECTION('',(1.,0.,0.));
#396=DIRECTION('',(-0.0500361105131097,0.,-0.998747409330667));
#397=DIRECTION('',(0.0500361105131095,6.12765625816629E-18,-0.998747409330667));
#398=DIRECTION('',(-8.02141468094043E-17,0.,-1.));
#399=DIRECTION('',(1.,0.,4.84348672071258E-16));
#400=DIRECTION('',(8.02141468094043E-17,0.,1.));
#401=DIRECTION('',(1.,0.,-5.51230847148652E-17));
#402=DIRECTION('',(-8.02141468094043E-17,0.,-1.));
#403=DIRECTION('',(8.02141468094043E-17,0.,1.));
#404=DIRECTION('',(1.,0.,-8.01007324762885E-17));
#405=DIRECTION('',(-8.02141468094043E-17,0.,-1.));
#406=DIRECTION('',(8.02141468094043E-17,0.,1.));
#407=DIRECTION('',(1.,0.,-8.01007324762885E-17));
#408=DIRECTION('',(-8.02141468094043E-17,0.,-1.));
#409=DIRECTION('',(1.,0.,0.));
#410=DIRECTION('',(-8.02141468094043E-17,0.,-1.));
#411=DIRECTION('',(-1.,0.,1.22921061185248E-16));
#412=DIRECTION('',(-8.02141468094043E-17,0.,-1.));
#413=DIRECTION('',(-1.,0.,1.19894299666605E-16));
#414=DIRECTION('',(-8.02141468094043E-17,0.,-1.));
#415=DIRECTION('',(1.,0.,-7.97972798949331E-17));
#416=DIRECTION('',(8.02141468094043E-17,0.,1.));
#417=DIRECTION('',(-1.,0.,3.5463065367313E-17));
#418=DIRECTION('',(-8.02141468094043E-17,0.,-1.));
#419=DIRECTION('',(-1.,0.,1.26276504165737E-16));
#420=DIRECTION('',(-8.02141468094043E-17,0.,-1.));
#421=DIRECTION('',(1.,0.,-1.19739325347838E-16));
#422=DIRECTION('',(-8.02141468094043E-17,0.,-1.));
#423=DIRECTION('',(-1.,0.,1.26276504165737E-16));
#424=DIRECTION('',(-8.02141468094043E-17,0.,-1.));
#425=DIRECTION('',(-1.,0.,1.22921061185248E-16));
#426=DIRECTION('',(-8.02141468094043E-17,0.,-1.));
#427=DIRECTION('',(1.,0.,-1.19739325347838E-16));
#428=DIRECTION('',(-8.02141468094043E-17,0.,-1.));
#429=DIRECTION('',(1.,0.,0.));
#430=DIRECTION('',(-8.02141468094043E-17,0.,-1.));
#431=DIRECTION('',(-1.,0.,1.1024616942973E-16));
#432=DIRECTION('',(-8.02141468094043E-17,0.,-1.));
#433=DIRECTION('',(-1.,0.,1.30922526488816E-16));
#434=DIRECTION('',(-8.02141468094043E-17,0.,-1.));
#435=DIRECTION('',(-1.,0.,1.30922526488816E-16));
#436=DIRECTION('',(-8.02141468094043E-17,0.,-1.));
#437=DIRECTION('',(1.,0.,-7.97972798949331E-17));
#438=DIRECTION('',(-8.02141468094043E-17,0.,-1.));
#439=DIRECTION('',(-1.,0.,1.1024616942973E-16));
#440=DIRECTION('',(-8.02141468094043E-17,0.,-1.));
#441=DIRECTION('',(1.,0.,0.));
#442=DIRECTION('',(-8.02141468094043E-17,0.,-1.));
#443=DIRECTION('',(-1.,0.,1.19894299666605E-16));
#444=DIRECTION('',(-8.02141468094043E-17,0.,-1.));
#445=DIRECTION('',(1.,0.,-9.049769024834E-17));
#446=DIRECTION('',(8.02141468094043E-17,0.,1.));
#447=DIRECTION('',(-1.,0.,7.97972798949331E-17));
#448=DIRECTION('',(8.02141468094043E-17,0.,1.));
#449=DIRECTION('',(-1.,0.,8.32667268468867E-17));
#450=DIRECTION('',(-8.02141468094043E-17,0.,-1.));
#451=DIRECTION('',(-1.,0.,0.));
#452=DIRECTION('',(-8.02141468094043E-17,0.,-1.));
#453=DIRECTION('',(1.,0.,-8.32667268468867E-17));
#454=DIRECTION('',(-8.02141468094043E-17,0.,-1.));
#455=DIRECTION('',(-1.,0.,0.));
#456=DIRECTION('',(8.02141468094043E-17,0.,1.));
#457=DIRECTION('',(-1.,0.,5.51243399756229E-16));
#458=DIRECTION('',(-8.02141468094043E-17,0.,-1.));
#459=DIRECTION('',(-8.02141468094043E-17,0.,-1.));
#460=DIRECTION('',(-8.02141468094043E-17,0.,-1.));
#461=DIRECTION('',(-8.02141468094043E-17,0.,-1.));
#462=DIRECTION('',(-8.02141468094043E-17,0.,-1.));
#463=DIRECTION('',(1.,0.,0.));
#464=DIRECTION('',(8.02141468094043E-17,0.,1.));
#465=DIRECTION('',(-1.,0.,8.02174082367713E-17));
#466=CARTESIAN_POINT('',(0.,0.,0.));
#467=CARTESIAN_POINT('',(0.,0.,0.));
#468=CARTESIAN_POINT('',(0.,0.,-160.));
#469=CARTESIAN_POINT('',(0.,0.,0.));
#470=CARTESIAN_POINT('',(-0.170769074054272,-0.170769074054271,-159.9));
#471=CARTESIAN_POINT('',(-22.1707690740543,-0.170769074054268,-159.9));
#472=CARTESIAN_POINT('',(21.8292309259457,-0.170769074054271,-159.9));
#473=CARTESIAN_POINT('',(-22.1707690740543,-0.170769074054268,-159.9));
#474=CARTESIAN_POINT('',(-26.6707690740543,-0.170769074054267,-102.722078687214));
#475=CARTESIAN_POINT('',(-0.170769074054268,-0.170769074054271,-102.722078687214));
#476=CARTESIAN_POINT('',(26.3292309259458,-0.170769074054271,-102.722078687214));
#477=CARTESIAN_POINT('',(21.8292309259457,-0.170769074054271,-159.9));
#478=CARTESIAN_POINT('',(-0.170769074054272,-0.170769074054271,-159.9));
#479=CARTESIAN_POINT('',(-24.3892600271992,-0.170769074054271,2.13860689445197));
#480=CARTESIAN_POINT('',(-24.2752001915059,-0.17076907405427,4.41530195006546));
#481=CARTESIAN_POINT('',(-24.4913919165143,-0.170769074054274,0.100000000000006));
#482=CARTESIAN_POINT('',(-0.170769074054259,-0.170769074054271,0.100000000000004));
#483=CARTESIAN_POINT('',(24.1498537684058,-0.170769074054271,0.100000000000002));
#484=CARTESIAN_POINT('',(24.0477218790906,-0.170769074054268,2.13860689445196));
#485=CARTESIAN_POINT('',(23.9336620433974,-0.170769074054269,4.41530195006544));
#486=CARTESIAN_POINT('',(-0.170769074054259,-0.170769074054271,0.100000000000004));
#487=CARTESIAN_POINT('',(-0.170769074054257,-0.170769074054271,32.));
#488=CARTESIAN_POINT('',(22.5517000105524,-0.170769074054271,32.));
#489=CARTESIAN_POINT('',(-24.3892600271992,-0.170769074054271,2.13860689445197));
#490=CARTESIAN_POINT('',(-23.2226372841409,-0.170769074054271,25.4250180552566));
#491=CARTESIAN_POINT('',(-23.8281983748069,-0.170769074054271,13.3376962332355));
#492=CARTESIAN_POINT('',(24.0477218790906,-0.170769074054268,2.13860689445196));
#493=CARTESIAN_POINT('',(23.0814945915625,-0.170769074054268,21.4250180552566));
#494=CARTESIAN_POINT('',(23.4866602266984,-0.170769074054269,13.3376962332356));
#495=CARTESIAN_POINT('',(-0.170769074054259,-0.170769074054271,2.13860689445196));
#496=CARTESIAN_POINT('',(-0.170769074054261,-0.170769074054271,-14.5253876765867));
#497=CARTESIAN_POINT('',(31.2992309259457,-0.170769074054271,-14.5253876765867));
#498=CARTESIAN_POINT('',(-31.6407690740543,-0.170769074054271,-159.9));
#499=CARTESIAN_POINT('',(-31.6407690740543,-0.170769074054271,0.100000000000017));
#500=CARTESIAN_POINT('',(-31.6407690740543,-0.170769074066183,-4.69556259664604));
#501=CARTESIAN_POINT('',(-0.170769074054259,-0.170769074054271,0.100000000000017));
#502=CARTESIAN_POINT('',(31.2992309259457,-0.170769074054267,0.100000000000017));
#503=CARTESIAN_POINT('',(31.2992309259457,-0.170769074054267,-159.9));
#504=CARTESIAN_POINT('',(31.2992309259457,-0.170769074054267,-4.68558263938868));
#505=CARTESIAN_POINT('',(-0.170769074054259,-0.170769074054271,0.100000000000017));
#506=CARTESIAN_POINT('',(-0.170769074054272,-0.170769074054271,-159.9));
#507=CARTESIAN_POINT('',(-0.170769074054261,-0.170769074054271,-15.9875));
#508=CARTESIAN_POINT('',(-28.3957690740543,-0.170769074054271,-15.9875));
#509=CARTESIAN_POINT('',(-0.170769074054261,-0.170769074054271,-15.9875));
#510=CARTESIAN_POINT('',(-29.1083162435297,-0.170769074054271,-15.9875));
#511=CARTESIAN_POINT('',(-28.3957690740543,-0.170769074054271,-15.9875));
#512=CARTESIAN_POINT('',(-0.170769074054261,-0.170769074054271,-15.9875));
#513=CARTESIAN_POINT('',(-0.170769074054261,-0.170769074054271,-16.7375));
#514=CARTESIAN_POINT('',(-27.6457690740543,-0.170769074054271,-16.7375));
#515=CARTESIAN_POINT('',(-0.17076907405426,-0.170769074054271,-16.7375));
#516=CARTESIAN_POINT('',(-0.170769074054261,-0.170769074054271,-19.0625));
#517=CARTESIAN_POINT('',(-27.6457690740543,-0.170769074054271,-19.0625));
#518=CARTESIAN_POINT('',(-0.170769074054261,-0.170769074054271,-19.8125));
#519=CARTESIAN_POINT('',(-28.3957690740543,-0.170769074054271,-19.8125));
#520=CARTESIAN_POINT('',(-0.17076907405426,-0.170769074054271,-19.0625));
#521=CARTESIAN_POINT('',(-0.170769074054272,-0.170769074054271,-159.9));
#522=CARTESIAN_POINT('',(-0.170769074054262,-0.170769074054271,-25.85));
#523=CARTESIAN_POINT('',(-31.6407690740543,-0.170769074054271,-25.85));
#524=CARTESIAN_POINT('',(-0.170769074054262,-0.170769074054271,-25.85));
#525=CARTESIAN_POINT('',(-26.6707690740543,-0.170769074054271,-25.85));
#526=CARTESIAN_POINT('',(26.3292309259457,-0.170769074054271,-25.85));
#527=CARTESIAN_POINT('',(-0.170769074054262,-0.170769074054271,-25.85));
#528=CARTESIAN_POINT('',(-26.6707690740543,-0.170769074054271,-25.85));
#529=CARTESIAN_POINT('',(-0.170769074054261,-0.170769074054271,-21.2746123234134));
#530=CARTESIAN_POINT('',(-31.6407690740543,-0.170769074054271,-21.2746123234134));
#531=CARTESIAN_POINT('',(-0.170769074054272,-0.170769074054271,-159.9));
#532=CARTESIAN_POINT('',(-0.170769074054261,-0.170769074054271,-19.8125));
#533=CARTESIAN_POINT('',(-29.1083162435297,-0.170769074054271,-19.8125));
#534=CARTESIAN_POINT('',(-0.170769074054261,-0.170769074054271,-21.2746123234134));
#535=CARTESIAN_POINT('',(-29.1083162435297,-0.170769074054271,-19.8125));
#536=CARTESIAN_POINT('',(-22.8932381586609,-0.170769074054271,32.));
#537=CARTESIAN_POINT('',(-0.170769074054272,-0.170769074054271,-159.9));
#538=CARTESIAN_POINT('',(-22.1707690740543,-0.170769074054271,-159.9));
#539=CARTESIAN_POINT('',(-0.170769074054268,-0.170769074054271,-102.722078687214));
#540=CARTESIAN_POINT('',(-0.170769074054272,-0.170769074054271,-159.9));
#541=CARTESIAN_POINT('',(26.3292309259457,-0.170769074054267,-159.9));
#542=CARTESIAN_POINT('',(26.3292309259457,-0.170769074054269,-84.375));
#543=CARTESIAN_POINT('',(-26.6707690740543,-0.170769074054271,-159.9));
#544=CARTESIAN_POINT('',(-26.6707690740543,-0.170769074054271,-84.375));
#545=CARTESIAN_POINT('',(26.3292309259457,-0.170769074054267,-159.9));
#546=CARTESIAN_POINT('',(26.3292309259457,-0.17076907405427,-88.425));
#547=CARTESIAN_POINT('',(-26.6707690740543,-0.170769074054271,-159.9));
#548=CARTESIAN_POINT('',(-26.6707690740543,-0.17076907405427,-88.425));
#549=CARTESIAN_POINT('',(-0.170769074054272,-0.170769074054271,-159.9));
#550=CARTESIAN_POINT('',(-31.6407690740543,-0.170769074054271,0.100000000000007));
#551=MECHANICAL_DESIGN_GEOMETRIC_PRESENTATION_REPRESENTATION('',(#315,#316,
#317,#318),#552);
#552=(
GEOMETRIC_REPRESENTATION_CONTEXT(3)
GLOBAL_UNCERTAINTY_ASSIGNED_CONTEXT((#553))
GLOBAL_UNIT_ASSIGNED_CONTEXT((#559,#555,#554))
REPRESENTATION_CONTEXT('HSK.63A-SC.25.160','TOP_LEVEL_ASSEMBLY_PART')
);
#553=UNCERTAINTY_MEASURE_WITH_UNIT(LENGTH_MEASURE(2.E-5),#559,
'DISTANCE_ACCURACY_VALUE','Maximum Tolerance applied to model');
#554=(
NAMED_UNIT(*)
SI_UNIT($,.STERADIAN.)
SOLID_ANGLE_UNIT()
);
#555=(
CONVERSION_BASED_UNIT('DEGREE',#557)
NAMED_UNIT(#556)
PLANE_ANGLE_UNIT()
);
#556=DIMENSIONAL_EXPONENTS(0.,0.,0.,0.,0.,0.,0.);
#557=PLANE_ANGLE_MEASURE_WITH_UNIT(PLANE_ANGLE_MEASURE(0.0174532925),#558);
#558=(
NAMED_UNIT(*)
PLANE_ANGLE_UNIT()
SI_UNIT($,.RADIAN.)
);
#559=(
LENGTH_UNIT()
NAMED_UNIT(*)
SI_UNIT(.MILLI.,.METRE.)
);
ENDSEC;
END-ISO-10303-21;
