ISO-10303-21;
HEADER;
/* Generated by software containing ST-Developer
 * from STEP Tools, Inc. (www.steptools.com) 
 */
/* OPTION: using custom schema-name function */

FILE_DESCRIPTION(
/* description */ (''),
/* implementation_level */ '2;1');

FILE_NAME(
/* name */ 'HSK.63A-SC.10.085.C.stp',
/* time_stamp */ '2024-07-21T13:48:12+02:00',
/* author */ (''),
/* organization */ (''),
/* preprocessor_version */ 'ST-DEVELOPER v16.7',
/* originating_system */ 'SIEMENS PLM Software NX 12.0',
/* authorisation */ '');

FILE_SCHEMA (('AUTOMOTIVE_DESIGN { 1 0 10303 214 3 1 1 1 }'));
ENDSEC;

DATA;
#10=CONSTRUCTIVE_GEOMETRY_REPRESENTATION_RELATIONSHIP(
'supplemental geometry','',#32,#11);
#11=CONSTRUCTIVE_GEOMETRY_REPRESENTATION('supplemental geometry',(#353,
#354,#355),#605);
#12=PROPERTY_DEFINITION_REPRESENTATION(#16,#14);
#13=PROPERTY_DEFINITION_REPRESENTATION(#17,#15);
#14=REPRESENTATION('',(#18),#605);
#15=REPRESENTATION('',(#19),#605);
#16=PROPERTY_DEFINITION('pmi validation property','',#23);
#17=PROPERTY_DEFINITION('pmi validation property','',#23);
#18=VALUE_REPRESENTATION_ITEM('number of annotations',COUNT_MEASURE(0.));
#19=VALUE_REPRESENTATION_ITEM('number of views',COUNT_MEASURE(0.));
#20=SHAPE_REPRESENTATION_RELATIONSHIP('None',
'relationship between pf6612088076yp1q-None and pf6612088076yp1q-None',
#32,#21);
#21=ADVANCED_BREP_SHAPE_REPRESENTATION('pf6612088076yp1q-None',(#38),#605);
#22=SHAPE_DEFINITION_REPRESENTATION(#23,#32);
#23=PRODUCT_DEFINITION_SHAPE('','',#24);
#24=PRODUCT_DEFINITION(' ','',#26,#25);
#25=PRODUCT_DEFINITION_CONTEXT('part definition',#31,'design');
#26=PRODUCT_DEFINITION_FORMATION_WITH_SPECIFIED_SOURCE(' ',' ',#28,
 .NOT_KNOWN.);
#27=PRODUCT_RELATED_PRODUCT_CATEGORY('part','',(#28));
#28=PRODUCT('pf6612088076yp1q','pf6612088076yp1q',' ',(#29));
#29=PRODUCT_CONTEXT(' ',#31,'mechanical');
#30=APPLICATION_PROTOCOL_DEFINITION('international standard',
'automotive_design',2010,#31);
#31=APPLICATION_CONTEXT(
'core data for automotive mechanical design processes');
#32=SHAPE_REPRESENTATION('pf6612088076yp1q-None',(#352),#605);
#33=SURFACE_STYLE_USAGE(.BOTH.,#34);
#34=SURFACE_SIDE_STYLE('',(#35));
#35=SURFACE_STYLE_FILL_AREA(#36);
#36=FILL_AREA_STYLE('',(#37));
#37=FILL_AREA_STYLE_COLOUR('',#348);
#38=MANIFOLD_SOLID_BREP('',#39);
#39=CLOSED_SHELL('',(#85,#86,#87,#88,#89,#90,#91,#92,#93,#94,#95,#96,#97,
#98,#99,#100,#101,#102,#103,#104));
#40=TOROIDAL_SURFACE('',#379,28.,0.5);
#41=TOROIDAL_SURFACE('',#382,28.,0.5);
#42=TOROIDAL_SURFACE('',#386,19.,3.);
#43=TOROIDAL_SURFACE('',#388,19.,3.);
#44=FACE_OUTER_BOUND('',#143,.T.);
#45=FACE_OUTER_BOUND('',#154,.T.);
#46=FACE_OUTER_BOUND('',#155,.T.);
#47=FACE_OUTER_BOUND('',#156,.T.);
#48=FACE_OUTER_BOUND('',#157,.T.);
#49=FACE_OUTER_BOUND('',#160,.T.);
#50=FACE_OUTER_BOUND('',#161,.T.);
#51=FACE_OUTER_BOUND('',#162,.T.);
#52=FACE_OUTER_BOUND('',#163,.T.);
#53=LINE('',#542,#64);
#54=LINE('',#546,#65);
#55=LINE('',#549,#66);
#56=LINE('',#576,#67);
#57=LINE('',#577,#68);
#58=LINE('',#581,#69);
#59=LINE('',#583,#70);
#60=LINE('',#585,#71);
#61=LINE('',#590,#72);
#62=LINE('',#600,#73);
#63=LINE('',#601,#74);
#64=VECTOR('',#440,1.);
#65=VECTOR('',#443,1.);
#66=VECTOR('',#446,1.);
#67=VECTOR('',#481,1.);
#68=VECTOR('',#482,1.);
#69=VECTOR('',#489,1.);
#70=VECTOR('',#490,1.);
#71=VECTOR('',#491,1.);
#72=VECTOR('',#494,1.);
#73=VECTOR('',#507,1.);
#74=VECTOR('',#508,1.);
#75=CONICAL_SURFACE('',#368,30.1987976321,60.);
#76=CONICAL_SURFACE('',#375,30.1987976321,60.);
#77=CONICAL_SURFACE('',#395,14.03626342104,4.5);
#78=CONICAL_SURFACE('',#400,23.49748952252,2.8681);
#79=CONICAL_SURFACE('',#401,23.49748952252,2.8681);
#80=CYLINDRICAL_SURFACE('',#366,31.5);
#81=CYLINDRICAL_SURFACE('',#373,31.5);
#82=CYLINDRICAL_SURFACE('',#381,27.5);
#83=CYLINDRICAL_SURFACE('',#390,16.);
#84=CYLINDRICAL_SURFACE('',#392,16.);
#85=ADVANCED_FACE('',(#111,#112),#105,.F.);
#86=ADVANCED_FACE('',(#113,#114),#106,.T.);
#87=ADVANCED_FACE('',(#115,#116),#80,.T.);
#88=ADVANCED_FACE('',(#117,#118),#75,.T.);
#89=ADVANCED_FACE('',(#119,#120),#107,.F.);
#90=ADVANCED_FACE('',(#44),#81,.T.);
#91=ADVANCED_FACE('',(#121,#122),#76,.T.);
#92=ADVANCED_FACE('',(#123,#124),#108,.T.);
#93=ADVANCED_FACE('',(#125,#126),#40,.F.);
#94=ADVANCED_FACE('',(#127,#128),#82,.T.);
#95=ADVANCED_FACE('',(#129,#130),#41,.F.);
#96=ADVANCED_FACE('',(#45),#42,.F.);
#97=ADVANCED_FACE('',(#46),#43,.F.);
#98=ADVANCED_FACE('',(#47),#83,.T.);
#99=ADVANCED_FACE('',(#48),#84,.T.);
#100=ADVANCED_FACE('',(#131,#132),#77,.T.);
#101=ADVANCED_FACE('',(#49),#109,.T.);
#102=ADVANCED_FACE('',(#50),#110,.F.);
#103=ADVANCED_FACE('',(#51),#78,.T.);
#104=ADVANCED_FACE('',(#52),#79,.T.);
#105=PLANE('',#360);
#106=PLANE('',#364);
#107=PLANE('',#370);
#108=PLANE('',#377);
#109=PLANE('',#396);
#110=PLANE('',#399);
#111=FACE_BOUND('',#133,.T.);
#112=FACE_BOUND('',#134,.T.);
#113=FACE_BOUND('',#135,.T.);
#114=FACE_BOUND('',#136,.T.);
#115=FACE_BOUND('',#137,.T.);
#116=FACE_BOUND('',#138,.T.);
#117=FACE_BOUND('',#139,.T.);
#118=FACE_BOUND('',#140,.T.);
#119=FACE_BOUND('',#141,.T.);
#120=FACE_BOUND('',#142,.T.);
#121=FACE_BOUND('',#144,.T.);
#122=FACE_BOUND('',#145,.T.);
#123=FACE_BOUND('',#146,.T.);
#124=FACE_BOUND('',#147,.T.);
#125=FACE_BOUND('',#148,.T.);
#126=FACE_BOUND('',#149,.T.);
#127=FACE_BOUND('',#150,.T.);
#128=FACE_BOUND('',#151,.T.);
#129=FACE_BOUND('',#152,.T.);
#130=FACE_BOUND('',#153,.T.);
#131=FACE_BOUND('',#158,.T.);
#132=FACE_BOUND('',#159,.T.);
#133=EDGE_LOOP('',(#164,#165));
#134=EDGE_LOOP('',(#166,#167));
#135=EDGE_LOOP('',(#168));
#136=EDGE_LOOP('',(#169,#170));
#137=EDGE_LOOP('',(#171));
#138=EDGE_LOOP('',(#172));
#139=EDGE_LOOP('',(#173));
#140=EDGE_LOOP('',(#174));
#141=EDGE_LOOP('',(#175));
#142=EDGE_LOOP('',(#176));
#143=EDGE_LOOP('',(#177,#178,#179,#180,#181,#182,#183,#184,#185,#186));
#144=EDGE_LOOP('',(#187));
#145=EDGE_LOOP('',(#188,#189));
#146=EDGE_LOOP('',(#190));
#147=EDGE_LOOP('',(#191));
#148=EDGE_LOOP('',(#192));
#149=EDGE_LOOP('',(#193));
#150=EDGE_LOOP('',(#194));
#151=EDGE_LOOP('',(#195));
#152=EDGE_LOOP('',(#196));
#153=EDGE_LOOP('',(#197));
#154=EDGE_LOOP('',(#198,#199,#200,#201));
#155=EDGE_LOOP('',(#202,#203,#204,#205));
#156=EDGE_LOOP('',(#206,#207,#208,#209));
#157=EDGE_LOOP('',(#210,#211,#212,#213));
#158=EDGE_LOOP('',(#214,#215,#216,#217,#218,#219));
#159=EDGE_LOOP('',(#220,#221,#222,#223,#224,#225));
#160=EDGE_LOOP('',(#226,#227));
#161=EDGE_LOOP('',(#228,#229));
#162=EDGE_LOOP('',(#230,#231,#232,#233));
#163=EDGE_LOOP('',(#234,#235,#236,#237));
#164=ORIENTED_EDGE('',*,*,#268,.T.);
#165=ORIENTED_EDGE('',*,*,#269,.T.);
#166=ORIENTED_EDGE('',*,*,#270,.T.);
#167=ORIENTED_EDGE('',*,*,#271,.T.);
#168=ORIENTED_EDGE('',*,*,#272,.F.);
#169=ORIENTED_EDGE('',*,*,#273,.F.);
#170=ORIENTED_EDGE('',*,*,#274,.F.);
#171=ORIENTED_EDGE('',*,*,#275,.T.);
#172=ORIENTED_EDGE('',*,*,#272,.T.);
#173=ORIENTED_EDGE('',*,*,#276,.T.);
#174=ORIENTED_EDGE('',*,*,#275,.F.);
#175=ORIENTED_EDGE('',*,*,#277,.T.);
#176=ORIENTED_EDGE('',*,*,#276,.F.);
#177=ORIENTED_EDGE('',*,*,#278,.F.);
#178=ORIENTED_EDGE('',*,*,#279,.F.);
#179=ORIENTED_EDGE('',*,*,#280,.T.);
#180=ORIENTED_EDGE('',*,*,#280,.F.);
#181=ORIENTED_EDGE('',*,*,#281,.F.);
#182=ORIENTED_EDGE('',*,*,#278,.T.);
#183=ORIENTED_EDGE('',*,*,#269,.F.);
#184=ORIENTED_EDGE('',*,*,#282,.F.);
#185=ORIENTED_EDGE('',*,*,#282,.T.);
#186=ORIENTED_EDGE('',*,*,#268,.F.);
#187=ORIENTED_EDGE('',*,*,#283,.F.);
#188=ORIENTED_EDGE('',*,*,#279,.T.);
#189=ORIENTED_EDGE('',*,*,#281,.T.);
#190=ORIENTED_EDGE('',*,*,#284,.T.);
#191=ORIENTED_EDGE('',*,*,#283,.T.);
#192=ORIENTED_EDGE('',*,*,#285,.F.);
#193=ORIENTED_EDGE('',*,*,#284,.F.);
#194=ORIENTED_EDGE('',*,*,#285,.T.);
#195=ORIENTED_EDGE('',*,*,#286,.T.);
#196=ORIENTED_EDGE('',*,*,#286,.F.);
#197=ORIENTED_EDGE('',*,*,#277,.F.);
#198=ORIENTED_EDGE('',*,*,#287,.T.);
#199=ORIENTED_EDGE('',*,*,#288,.F.);
#200=ORIENTED_EDGE('',*,*,#289,.F.);
#201=ORIENTED_EDGE('',*,*,#274,.T.);
#202=ORIENTED_EDGE('',*,*,#289,.T.);
#203=ORIENTED_EDGE('',*,*,#290,.T.);
#204=ORIENTED_EDGE('',*,*,#287,.F.);
#205=ORIENTED_EDGE('',*,*,#273,.T.);
#206=ORIENTED_EDGE('',*,*,#291,.T.);
#207=ORIENTED_EDGE('',*,*,#292,.F.);
#208=ORIENTED_EDGE('',*,*,#290,.F.);
#209=ORIENTED_EDGE('',*,*,#293,.T.);
#210=ORIENTED_EDGE('',*,*,#288,.T.);
#211=ORIENTED_EDGE('',*,*,#292,.T.);
#212=ORIENTED_EDGE('',*,*,#294,.F.);
#213=ORIENTED_EDGE('',*,*,#293,.F.);
#214=ORIENTED_EDGE('',*,*,#295,.T.);
#215=ORIENTED_EDGE('',*,*,#295,.F.);
#216=ORIENTED_EDGE('',*,*,#294,.T.);
#217=ORIENTED_EDGE('',*,*,#296,.T.);
#218=ORIENTED_EDGE('',*,*,#296,.F.);
#219=ORIENTED_EDGE('',*,*,#291,.F.);
#220=ORIENTED_EDGE('',*,*,#297,.T.);
#221=ORIENTED_EDGE('',*,*,#298,.T.);
#222=ORIENTED_EDGE('',*,*,#299,.F.);
#223=ORIENTED_EDGE('',*,*,#299,.T.);
#224=ORIENTED_EDGE('',*,*,#300,.T.);
#225=ORIENTED_EDGE('',*,*,#297,.F.);
#226=ORIENTED_EDGE('',*,*,#298,.F.);
#227=ORIENTED_EDGE('',*,*,#300,.F.);
#228=ORIENTED_EDGE('',*,*,#301,.T.);
#229=ORIENTED_EDGE('',*,*,#302,.T.);
#230=ORIENTED_EDGE('',*,*,#302,.F.);
#231=ORIENTED_EDGE('',*,*,#303,.T.);
#232=ORIENTED_EDGE('',*,*,#270,.F.);
#233=ORIENTED_EDGE('',*,*,#304,.F.);
#234=ORIENTED_EDGE('',*,*,#301,.F.);
#235=ORIENTED_EDGE('',*,*,#304,.T.);
#236=ORIENTED_EDGE('',*,*,#271,.F.);
#237=ORIENTED_EDGE('',*,*,#303,.F.);
#238=VERTEX_POINT('',#518);
#239=VERTEX_POINT('',#519);
#240=VERTEX_POINT('',#522);
#241=VERTEX_POINT('',#523);
#242=VERTEX_POINT('',#527);
#243=VERTEX_POINT('',#529);
#244=VERTEX_POINT('',#530);
#245=VERTEX_POINT('',#534);
#246=VERTEX_POINT('',#537);
#247=VERTEX_POINT('',#540);
#248=VERTEX_POINT('',#543);
#249=VERTEX_POINT('',#545);
#250=VERTEX_POINT('',#547);
#251=VERTEX_POINT('',#550);
#252=VERTEX_POINT('',#553);
#253=VERTEX_POINT('',#556);
#254=VERTEX_POINT('',#559);
#255=VERTEX_POINT('',#562);
#256=VERTEX_POINT('',#566);
#257=VERTEX_POINT('',#568);
#258=VERTEX_POINT('',#574);
#259=VERTEX_POINT('',#575);
#260=VERTEX_POINT('',#582);
#261=VERTEX_POINT('',#584);
#262=VERTEX_POINT('',#586);
#263=VERTEX_POINT('',#587);
#264=VERTEX_POINT('',#589);
#265=VERTEX_POINT('',#591);
#266=VERTEX_POINT('',#596);
#267=VERTEX_POINT('',#597);
#268=EDGE_CURVE('',#238,#239,#305,.T.);
#269=EDGE_CURVE('',#239,#238,#306,.T.);
#270=EDGE_CURVE('',#240,#241,#307,.T.);
#271=EDGE_CURVE('',#241,#240,#308,.T.);
#272=EDGE_CURVE('',#242,#242,#309,.T.);
#273=EDGE_CURVE('',#243,#244,#310,.T.);
#274=EDGE_CURVE('',#244,#243,#311,.T.);
#275=EDGE_CURVE('',#245,#245,#312,.T.);
#276=EDGE_CURVE('',#246,#246,#313,.T.);
#277=EDGE_CURVE('',#247,#247,#314,.T.);
#278=EDGE_CURVE('',#248,#238,#53,.T.);
#279=EDGE_CURVE('',#249,#248,#315,.T.);
#280=EDGE_CURVE('',#249,#250,#54,.T.);
#281=EDGE_CURVE('',#248,#249,#316,.T.);
#282=EDGE_CURVE('',#251,#239,#55,.T.);
#283=EDGE_CURVE('',#252,#252,#317,.T.);
#284=EDGE_CURVE('',#253,#253,#318,.T.);
#285=EDGE_CURVE('',#254,#254,#319,.T.);
#286=EDGE_CURVE('',#255,#255,#320,.T.);
#287=EDGE_CURVE('',#243,#256,#321,.T.);
#288=EDGE_CURVE('',#257,#256,#322,.T.);
#289=EDGE_CURVE('',#244,#257,#323,.T.);
#290=EDGE_CURVE('',#257,#256,#324,.T.);
#291=EDGE_CURVE('',#258,#259,#325,.T.);
#292=EDGE_CURVE('',#256,#259,#56,.T.);
#293=EDGE_CURVE('',#257,#258,#57,.T.);
#294=EDGE_CURVE('',#258,#259,#326,.T.);
#295=EDGE_CURVE('',#258,#260,#58,.T.);
#296=EDGE_CURVE('',#259,#261,#59,.T.);
#297=EDGE_CURVE('',#262,#263,#60,.T.);
#298=EDGE_CURVE('',#263,#264,#327,.T.);
#299=EDGE_CURVE('',#265,#264,#61,.T.);
#300=EDGE_CURVE('',#264,#263,#328,.T.);
#301=EDGE_CURVE('',#266,#267,#329,.T.);
#302=EDGE_CURVE('',#267,#266,#330,.T.);
#303=EDGE_CURVE('',#267,#241,#62,.T.);
#304=EDGE_CURVE('',#266,#240,#63,.T.);
#305=CIRCLE('',#356,31.5);
#306=CIRCLE('',#357,31.5);
#307=CIRCLE('',#358,24.3206277416436);
#308=CIRCLE('',#359,24.3206277416436);
#309=CIRCLE('',#361,31.5);
#310=CIRCLE('',#362,19.);
#311=CIRCLE('',#363,19.);
#312=CIRCLE('',#365,31.5);
#313=CIRCLE('',#367,28.89759526419);
#314=CIRCLE('',#369,28.);
#315=CIRCLE('',#371,31.5);
#316=CIRCLE('',#372,31.5);
#317=CIRCLE('',#374,28.89759526419);
#318=CIRCLE('',#376,28.);
#319=CIRCLE('',#378,27.5);
#320=CIRCLE('',#380,27.5);
#321=CIRCLE('',#383,3.);
#322=CIRCLE('',#384,16.);
#323=CIRCLE('',#385,3.);
#324=CIRCLE('',#387,16.);
#325=CIRCLE('',#389,16.);
#326=CIRCLE('',#391,16.);
#327=CIRCLE('',#393,12.0000000000022);
#328=CIRCLE('',#394,12.0000000000022);
#329=CIRCLE('',#397,22.7174392126387);
#330=CIRCLE('',#398,22.7174392126387);
#331=INVISIBILITY((#332,#333,#334,#335));
#332=PRESENTATION_LAYER_ASSIGNMENT('100','Layer 100',(#353));
#333=PRESENTATION_LAYER_ASSIGNMENT('101','Layer 101',(#354));
#334=PRESENTATION_LAYER_ASSIGNMENT('102','Layer 102',(#355));
#335=PRESENTATION_LAYER_ASSIGNMENT('98','Layer 98',(#38));
#336=STYLED_ITEM('',(#340),#353);
#337=STYLED_ITEM('',(#341),#354);
#338=STYLED_ITEM('',(#342),#355);
#339=STYLED_ITEM('',(#343),#38);
#340=PRESENTATION_STYLE_ASSIGNMENT((#344));
#341=PRESENTATION_STYLE_ASSIGNMENT((#345));
#342=PRESENTATION_STYLE_ASSIGNMENT((#346));
#343=PRESENTATION_STYLE_ASSIGNMENT((#33));
#344=CURVE_STYLE('',#349,POSITIVE_LENGTH_MEASURE(0.7),#347);
#345=CURVE_STYLE('',#350,POSITIVE_LENGTH_MEASURE(0.7),#347);
#346=CURVE_STYLE('',#351,POSITIVE_LENGTH_MEASURE(0.7),#347);
#347=COLOUR_RGB('Medium Maroon',0.6,0.4,0.4);
#348=COLOUR_RGB('Medium Gray',0.490196078431373,0.490196078431373,0.490196078431373);
#349=DRAUGHTING_PRE_DEFINED_CURVE_FONT('continuous');
#350=DRAUGHTING_PRE_DEFINED_CURVE_FONT('continuous');
#351=DRAUGHTING_PRE_DEFINED_CURVE_FONT('continuous');
#352=AXIS2_PLACEMENT_3D('',#513,#402,#403);
#353=AXIS2_PLACEMENT_3D('PCS',#514,#404,#405);
#354=AXIS2_PLACEMENT_3D('CSW',#515,#406,#407);
#355=AXIS2_PLACEMENT_3D('MCS',#516,#408,#409);
#356=AXIS2_PLACEMENT_3D('',#517,#410,#411);
#357=AXIS2_PLACEMENT_3D('',#520,#412,#413);
#358=AXIS2_PLACEMENT_3D('',#521,#414,#415);
#359=AXIS2_PLACEMENT_3D('',#524,#416,#417);
#360=AXIS2_PLACEMENT_3D('',#525,#418,#419);
#361=AXIS2_PLACEMENT_3D('',#526,#420,#421);
#362=AXIS2_PLACEMENT_3D('',#528,#422,#423);
#363=AXIS2_PLACEMENT_3D('',#531,#424,#425);
#364=AXIS2_PLACEMENT_3D('',#532,#426,#427);
#365=AXIS2_PLACEMENT_3D('',#533,#428,#429);
#366=AXIS2_PLACEMENT_3D('',#535,#430,#431);
#367=AXIS2_PLACEMENT_3D('',#536,#432,#433);
#368=AXIS2_PLACEMENT_3D('',#538,#434,#435);
#369=AXIS2_PLACEMENT_3D('',#539,#436,#437);
#370=AXIS2_PLACEMENT_3D('',#541,#438,#439);
#371=AXIS2_PLACEMENT_3D('',#544,#441,#442);
#372=AXIS2_PLACEMENT_3D('',#548,#444,#445);
#373=AXIS2_PLACEMENT_3D('',#551,#447,#448);
#374=AXIS2_PLACEMENT_3D('',#552,#449,#450);
#375=AXIS2_PLACEMENT_3D('',#554,#451,#452);
#376=AXIS2_PLACEMENT_3D('',#555,#453,#454);
#377=AXIS2_PLACEMENT_3D('',#557,#455,#456);
#378=AXIS2_PLACEMENT_3D('',#558,#457,#458);
#379=AXIS2_PLACEMENT_3D('',#560,#459,#460);
#380=AXIS2_PLACEMENT_3D('',#561,#461,#462);
#381=AXIS2_PLACEMENT_3D('',#563,#463,#464);
#382=AXIS2_PLACEMENT_3D('',#564,#465,#466);
#383=AXIS2_PLACEMENT_3D('',#565,#467,#468);
#384=AXIS2_PLACEMENT_3D('',#567,#469,#470);
#385=AXIS2_PLACEMENT_3D('',#569,#471,#472);
#386=AXIS2_PLACEMENT_3D('',#570,#473,#474);
#387=AXIS2_PLACEMENT_3D('',#571,#475,#476);
#388=AXIS2_PLACEMENT_3D('',#572,#477,#478);
#389=AXIS2_PLACEMENT_3D('',#573,#479,#480);
#390=AXIS2_PLACEMENT_3D('',#578,#483,#484);
#391=AXIS2_PLACEMENT_3D('',#579,#485,#486);
#392=AXIS2_PLACEMENT_3D('',#580,#487,#488);
#393=AXIS2_PLACEMENT_3D('',#588,#492,#493);
#394=AXIS2_PLACEMENT_3D('',#592,#495,#496);
#395=AXIS2_PLACEMENT_3D('',#593,#497,#498);
#396=AXIS2_PLACEMENT_3D('',#594,#499,#500);
#397=AXIS2_PLACEMENT_3D('',#595,#501,#502);
#398=AXIS2_PLACEMENT_3D('',#598,#503,#504);
#399=AXIS2_PLACEMENT_3D('',#599,#505,#506);
#400=AXIS2_PLACEMENT_3D('',#602,#509,#510);
#401=AXIS2_PLACEMENT_3D('',#603,#511,#512);
#402=DIRECTION('',(0.,0.,1.));
#403=DIRECTION('',(1.,0.,0.));
#404=DIRECTION('',(0.,0.,1.));
#405=DIRECTION('',(1.,0.,0.));
#406=DIRECTION('',(0.,0.,1.));
#407=DIRECTION('',(1.,0.,0.));
#408=DIRECTION('',(0.,0.,1.));
#409=DIRECTION('',(1.,0.,0.));
#410=DIRECTION('',(0.,0.,1.));
#411=DIRECTION('',(-1.,0.,0.));
#412=DIRECTION('',(0.,0.,1.));
#413=DIRECTION('',(-1.,0.,0.));
#414=DIRECTION('',(0.,0.,-1.));
#415=DIRECTION('',(-1.,0.,0.));
#416=DIRECTION('',(0.,0.,-1.));
#417=DIRECTION('',(-1.,0.,0.));
#418=DIRECTION('',(0.,0.,-1.));
#419=DIRECTION('',(0.,-1.,0.));
#420=DIRECTION('',(0.,0.,1.));
#421=DIRECTION('',(-1.,0.,0.));
#422=DIRECTION('',(0.,0.,-1.));
#423=DIRECTION('',(0.,1.,0.));
#424=DIRECTION('',(0.,0.,-1.));
#425=DIRECTION('',(0.,-1.,0.));
#426=DIRECTION('',(0.,0.,-1.));
#427=DIRECTION('',(0.,-1.,0.));
#428=DIRECTION('',(0.,0.,-1.));
#429=DIRECTION('',(-0.967212554703614,0.253968253968304,0.));
#430=DIRECTION('',(0.,0.,-1.));
#431=DIRECTION('',(0.,-1.,0.));
#432=DIRECTION('',(0.,0.,-1.));
#433=DIRECTION('',(-0.960916131215481,0.276839644505394,0.));
#434=DIRECTION('',(0.,0.,-1.));
#435=DIRECTION('',(0.,-1.,5.51252866608657E-17));
#436=DIRECTION('',(0.,0.,-1.));
#437=DIRECTION('',(-0.958314847499905,0.285714285714302,0.));
#438=DIRECTION('',(0.,0.,-1.));
#439=DIRECTION('',(0.,-1.,0.));
#440=DIRECTION('',(3.308477055609E-14,0.,1.));
#441=DIRECTION('',(0.,0.,-1.));
#442=DIRECTION('',(0.,-1.,0.));
#443=DIRECTION('',(0.,0.,1.));
#444=DIRECTION('',(0.,0.,-1.));
#445=DIRECTION('',(0.958314847499905,0.285714285714302,0.));
#446=DIRECTION('',(-9.33264607387E-13,2.13162820728E-14,1.));
#447=DIRECTION('',(0.,0.,-1.));
#448=DIRECTION('',(0.,-1.,0.));
#449=DIRECTION('',(0.,0.,-1.));
#450=DIRECTION('',(-0.960916131215481,0.276839644505394,0.));
#451=DIRECTION('',(0.,0.,1.));
#452=DIRECTION('',(0.,1.,-8.85942107049627E-18));
#453=DIRECTION('',(0.,0.,1.));
#454=DIRECTION('',(0.946933827397333,0.321428571428611,0.));
#455=DIRECTION('',(0.,0.,-1.));
#456=DIRECTION('',(0.,-1.,0.));
#457=DIRECTION('',(0.,0.,-1.));
#458=DIRECTION('',(-0.96363636363636,0.267217062849089,0.));
#459=DIRECTION('',(0.,0.,-1.));
#460=DIRECTION('',(-0.00403519109815584,0.999991858583259,0.));
#461=DIRECTION('',(0.,0.,1.));
#462=DIRECTION('',(-0.96363636363636,-0.267217062849089,0.));
#463=DIRECTION('',(0.,0.,-1.));
#464=DIRECTION('',(0.,-1.,0.));
#465=DIRECTION('',(0.,0.,-1.));
#466=DIRECTION('',(-0.00422980117842993,0.999991054350983,0.));
#467=DIRECTION('',(1.,0.,0.));
#468=DIRECTION('',(0.,-1.,0.));
#469=DIRECTION('',(0.,0.,-1.));
#470=DIRECTION('',(0.,-1.,0.));
#471=DIRECTION('',(-1.,0.,0.));
#472=DIRECTION('',(0.,1.,0.));
#473=DIRECTION('',(0.,0.,-1.));
#474=DIRECTION('',(0.,-1.,0.));
#475=DIRECTION('',(0.,0.,1.));
#476=DIRECTION('',(0.,-1.,0.));
#477=DIRECTION('',(0.,0.,-1.));
#478=DIRECTION('',(0.,-1.,0.));
#479=DIRECTION('',(0.,0.,1.));
#480=DIRECTION('',(0.,-1.,0.));
#481=DIRECTION('',(0.,0.,-1.));
#482=DIRECTION('',(0.,0.,-1.));
#483=DIRECTION('',(0.,0.,-1.));
#484=DIRECTION('',(0.,-1.,0.));
#485=DIRECTION('',(0.,0.,-1.));
#486=DIRECTION('',(0.,-1.,0.));
#487=DIRECTION('',(0.,0.,-1.));
#488=DIRECTION('',(0.,-1.,0.));
#489=DIRECTION('',(0.,0.0784590957278422,-0.996917333733128));
#490=DIRECTION('',(0.,-0.0784590957278422,-0.996917333733128));
#491=DIRECTION('',(0.,-0.0784590957278422,-0.996917333733128));
#492=DIRECTION('',(0.,0.,1.));
#493=DIRECTION('',(-1.,0.,0.));
#494=DIRECTION('',(0.,0.0784590957278422,-0.996917333733128));
#495=DIRECTION('',(0.,0.,1.));
#496=DIRECTION('',(-1.,0.,0.));
#497=DIRECTION('',(0.,0.,1.));
#498=DIRECTION('',(0.,1.,4.48935460989264E-16));
#499=DIRECTION('',(0.,0.,-1.));
#500=DIRECTION('',(0.,-1.,0.));
#501=DIRECTION('',(0.,0.,1.));
#502=DIRECTION('',(-1.,0.,0.));
#503=DIRECTION('',(0.,0.,1.));
#504=DIRECTION('',(-1.,0.,0.));
#505=DIRECTION('',(0.,0.,-1.));
#506=DIRECTION('',(0.,-1.,0.));
#507=DIRECTION('',(-1.84941077733493E-14,0.0500368852433481,-0.998747370517262));
#508=DIRECTION('',(1.87233229922393E-14,-0.0500368852433381,-0.998747370517262));
#509=DIRECTION('',(0.,0.,-1.));
#510=DIRECTION('',(0.,-1.,-3.77128499686941E-16));
#511=DIRECTION('',(0.,0.,-1.));
#512=DIRECTION('',(0.,-1.,-3.77128499686941E-16));
#513=CARTESIAN_POINT('',(0.,0.,0.));
#514=CARTESIAN_POINT('',(0.,0.,0.));
#515=CARTESIAN_POINT('',(0.,0.,-85.));
#516=CARTESIAN_POINT('',(0.,0.,0.));
#517=CARTESIAN_POINT('',(0.,0.,0.));
#518=CARTESIAN_POINT('',(4.83782088067779E-13,31.5,0.));
#519=CARTESIAN_POINT('',(-1.3998969110805E-12,-31.5,0.));
#520=CARTESIAN_POINT('',(0.,0.,0.));
#521=CARTESIAN_POINT('',(0.,0.,0.));
#522=CARTESIAN_POINT('',(0.,-24.3206277416436,0.));
#523=CARTESIAN_POINT('',(2.67034791029395E-13,24.3206277416436,0.));
#524=CARTESIAN_POINT('',(0.,0.,0.));
#525=CARTESIAN_POINT('',(0.,0.,0.));
#526=CARTESIAN_POINT('',(0.,0.,-26.));
#527=CARTESIAN_POINT('',(-31.5,0.,-26.));
#528=CARTESIAN_POINT('',(0.,0.,-26.));
#529=CARTESIAN_POINT('',(0.,19.,-26.));
#530=CARTESIAN_POINT('',(0.,-19.,-26.));
#531=CARTESIAN_POINT('',(0.,0.,-26.));
#532=CARTESIAN_POINT('',(0.,0.,-26.));
#533=CARTESIAN_POINT('',(0.,0.,-21.377499074759));
#534=CARTESIAN_POINT('',(-30.4671954731638,8.00000000000156,-21.377499074759));
#535=CARTESIAN_POINT('',(0.,0.,34.9));
#536=CARTESIAN_POINT('',(0.,0.,-19.875));
#537=CARTESIAN_POINT('',(-27.7681654426962,7.99999999999913,-19.875));
#538=CARTESIAN_POINT('',(0.,0.,-20.62624953738));
#539=CARTESIAN_POINT('',(0.,0.,-19.875));
#540=CARTESIAN_POINT('',(-26.8328157299973,8.00000000000044,-19.875));
#541=CARTESIAN_POINT('',(0.,0.,-19.875));
#542=CARTESIAN_POINT('',(0.,31.5,-14.62250092524));
#543=CARTESIAN_POINT('',(0.,31.5,-14.62250092524));
#544=CARTESIAN_POINT('',(0.,0.,-14.62250092524));
#545=CARTESIAN_POINT('',(0.,-31.5,-14.62250092524));
#546=CARTESIAN_POINT('',(0.,-31.5,-14.62250092524));
#547=CARTESIAN_POINT('',(0.,-31.5,-12.5));
#548=CARTESIAN_POINT('',(0.,0.,-14.62250092524));
#549=CARTESIAN_POINT('',(0.,-31.5,-1.5));
#550=CARTESIAN_POINT('',(1.64425221160302E-26,-31.5,-1.50000000000004));
#551=CARTESIAN_POINT('',(0.,0.,34.9));
#552=CARTESIAN_POINT('',(0.,0.,-16.125));
#553=CARTESIAN_POINT('',(-27.7681654426962,7.99999999999913,-16.125));
#554=CARTESIAN_POINT('',(0.,0.,-15.37375046262));
#555=CARTESIAN_POINT('',(0.,0.,-16.125));
#556=CARTESIAN_POINT('',(26.5141471671253,9.00000000000112,-16.125));
#557=CARTESIAN_POINT('',(0.,0.,-16.125));
#558=CARTESIAN_POINT('',(0.,0.,-16.625));
#559=CARTESIAN_POINT('',(-26.4999999999999,7.34846922834994,-16.625));
#560=CARTESIAN_POINT('',(0.,0.,-16.625));
#561=CARTESIAN_POINT('',(0.,0.,-19.375));
#562=CARTESIAN_POINT('',(-26.4999999999999,-7.34846922834994,-19.375));
#563=CARTESIAN_POINT('',(0.,0.,34.9));
#564=CARTESIAN_POINT('',(0.,0.,-19.375));
#565=CARTESIAN_POINT('',(0.,19.,-29.));
#566=CARTESIAN_POINT('',(0.,16.,-29.));
#567=CARTESIAN_POINT('',(0.,0.,-29.));
#568=CARTESIAN_POINT('',(0.,-16.,-29.));
#569=CARTESIAN_POINT('',(0.,-19.,-29.));
#570=CARTESIAN_POINT('',(0.,0.,-29.));
#571=CARTESIAN_POINT('',(0.,0.,-29.));
#572=CARTESIAN_POINT('',(0.,0.,-29.));
#573=CARTESIAN_POINT('',(0.,0.,-34.175181055301));
#574=CARTESIAN_POINT('',(0.,-16.,-34.175181055301));
#575=CARTESIAN_POINT('',(0.,16.,-34.175181055301));
#576=CARTESIAN_POINT('',(0.,16.,-34.175181055301));
#577=CARTESIAN_POINT('',(0.,-16.,-34.175181055301));
#578=CARTESIAN_POINT('',(0.,0.,-23.05));
#579=CARTESIAN_POINT('',(0.,0.,-34.175181055301));
#580=CARTESIAN_POINT('',(0.,0.,-23.05));
#581=CARTESIAN_POINT('',(0.,-15.22676997981,-44.));
#582=CARTESIAN_POINT('',(-2.95630246463441E-29,-15.2267699798108,-44.));
#583=CARTESIAN_POINT('',(0.,15.22676997981,-44.));
#584=CARTESIAN_POINT('',(0.,15.2267699798108,-44.));
#585=CARTESIAN_POINT('',(-2.023221884262E-13,12.07252684207,-84.07845909573));
#586=CARTESIAN_POINT('',(-1.011610942131E-13,14.9119631525095,-48.));
#587=CARTESIAN_POINT('',(-2.023221884262E-13,11.9999999999953,-85.));
#588=CARTESIAN_POINT('',(0.,0.,-85.));
#589=CARTESIAN_POINT('',(2.026883135131E-13,-11.9999999999953,-85.));
#590=CARTESIAN_POINT('',(2.026883135131E-13,-12.07252684207,-84.07845909573));
#591=CARTESIAN_POINT('',(5.0672078378275E-14,-14.9119631525095,-48.));
#592=CARTESIAN_POINT('',(0.,0.,-85.));
#593=CARTESIAN_POINT('',(0.,0.,-59.12682007551));
#594=CARTESIAN_POINT('',(0.,0.,-85.));
#595=CARTESIAN_POINT('',(0.,0.,32.));
#596=CARTESIAN_POINT('',(-5.62404173816516E-13,-22.7174392126482,32.));
#597=CARTESIAN_POINT('',(5.55519092794337E-13,22.7174392126479,32.));
#598=CARTESIAN_POINT('',(0.,0.,32.));
#599=CARTESIAN_POINT('',(0.,0.,32.));
#600=CARTESIAN_POINT('',(0.,24.22042845859,2.));
#601=CARTESIAN_POINT('',(0.,-24.22042845859,2.));
#602=CARTESIAN_POINT('',(0.,0.,16.43002213115));
#603=CARTESIAN_POINT('',(0.,0.,16.43002213115));
#604=MECHANICAL_DESIGN_GEOMETRIC_PRESENTATION_REPRESENTATION('',(#336,#337,
#338,#339),#605);
#605=(
GEOMETRIC_REPRESENTATION_CONTEXT(3)
GLOBAL_UNCERTAINTY_ASSIGNED_CONTEXT((#606))
GLOBAL_UNIT_ASSIGNED_CONTEXT((#612,#608,#607))
REPRESENTATION_CONTEXT('HSK.63A-SC.10.085','TOP_LEVEL_ASSEMBLY_PART')
);
#606=UNCERTAINTY_MEASURE_WITH_UNIT(LENGTH_MEASURE(2.E-5),#612,
'DISTANCE_ACCURACY_VALUE','Maximum Tolerance applied to model');
#607=(
NAMED_UNIT(*)
SI_UNIT($,.STERADIAN.)
SOLID_ANGLE_UNIT()
);
#608=(
CONVERSION_BASED_UNIT('DEGREE',#610)
NAMED_UNIT(#609)
PLANE_ANGLE_UNIT()
);
#609=DIMENSIONAL_EXPONENTS(0.,0.,0.,0.,0.,0.,0.);
#610=PLANE_ANGLE_MEASURE_WITH_UNIT(PLANE_ANGLE_MEASURE(0.0174532925),#611);
#611=(
NAMED_UNIT(*)
PLANE_ANGLE_UNIT()
SI_UNIT($,.RADIAN.)
);
#612=(
LENGTH_UNIT()
NAMED_UNIT(*)
SI_UNIT(.MILLI.,.METRE.)
);
ENDSEC;
END-ISO-10303-21;
