ISO-10303-21;
HEADER;
/* Generated by software containing ST-Developer
 * from STEP Tools, Inc. (www.steptools.com) 
 */
/* OPTION: using custom schema-name function */

FILE_DESCRIPTION(
/* description */ (''),
/* implementation_level */ '2;1');

FILE_NAME(
/* name */ 'HSK.63A-CC.ER32.200.stp',
/* time_stamp */ '2024-07-21T10:52:54+02:00',
/* author */ (''),
/* organization */ (''),
/* preprocessor_version */ 'ST-DEVELOPER v16.7',
/* originating_system */ 'SIEMENS PLM Software NX 12.0',
/* authorisation */ '');

FILE_SCHEMA (('AUTOMOTIVE_DESIGN { 1 0 10303 214 3 1 1 1 }'));
ENDSEC;

DATA;
#10=CONSTRUCTIVE_GEOMETRY_REPRESENTATION_RELATIONSHIP(
'supplemental geometry','',#32,#11);
#11=CONSTRUCTIVE_GEOMETRY_REPRESENTATION('supplemental geometry',(#380,
#381,#382),#655);
#12=PROPERTY_DEFINITION_REPRESENTATION(#16,#14);
#13=PROPERTY_DEFINITION_REPRESENTATION(#17,#15);
#14=REPRESENTATION('',(#18),#655);
#15=REPRESENTATION('',(#19),#655);
#16=PROPERTY_DEFINITION('pmi validation property','',#23);
#17=PROPERTY_DEFINITION('pmi validation property','',#23);
#18=VALUE_REPRESENTATION_ITEM('number of annotations',COUNT_MEASURE(0.));
#19=VALUE_REPRESENTATION_ITEM('number of views',COUNT_MEASURE(0.));
#20=SHAPE_REPRESENTATION_RELATIONSHIP('None',
'relationship between pf6612088076yo9w-None and pf6612088076yo9w-None',
#32,#21);
#21=ADVANCED_BREP_SHAPE_REPRESENTATION('pf6612088076yo9w-None',(#38),#655);
#22=SHAPE_DEFINITION_REPRESENTATION(#23,#32);
#23=PRODUCT_DEFINITION_SHAPE('','',#24);
#24=PRODUCT_DEFINITION(' ','',#26,#25);
#25=PRODUCT_DEFINITION_CONTEXT('part definition',#31,'design');
#26=PRODUCT_DEFINITION_FORMATION_WITH_SPECIFIED_SOURCE(' ',' ',#28,
 .NOT_KNOWN.);
#27=PRODUCT_RELATED_PRODUCT_CATEGORY('part','',(#28));
#28=PRODUCT('pf6612088076yo9w','pf6612088076yo9w',' ',(#29));
#29=PRODUCT_CONTEXT(' ',#31,'mechanical');
#30=APPLICATION_PROTOCOL_DEFINITION('international standard',
'automotive_design',2010,#31);
#31=APPLICATION_CONTEXT(
'core data for automotive mechanical design processes');
#32=SHAPE_REPRESENTATION('pf6612088076yo9w-None',(#379),#655);
#33=SURFACE_STYLE_USAGE(.BOTH.,#34);
#34=SURFACE_SIDE_STYLE('',(#35));
#35=SURFACE_STYLE_FILL_AREA(#36);
#36=FILL_AREA_STYLE('',(#37));
#37=FILL_AREA_STYLE_COLOUR('',#375);
#38=MANIFOLD_SOLID_BREP('',#39);
#39=CLOSED_SHELL('',(#82,#83,#84,#85,#86,#87,#88,#89,#90,#91,#92,#93,#94,
#95,#96,#97,#98,#99,#100,#101,#102,#103));
#40=TOROIDAL_SURFACE('',#405,28.,0.5);
#41=TOROIDAL_SURFACE('',#414,28.,0.5);
#42=TOROIDAL_SURFACE('',#418,23.,3.);
#43=TOROIDAL_SURFACE('',#419,23.,3.);
#44=CONICAL_SURFACE('',#398,30.1987976321,60.);
#45=CONICAL_SURFACE('',#409,30.1987976321,60.);
#46=CONICAL_SURFACE('',#423,23.49748952252,2.8681);
#47=CONICAL_SURFACE('',#424,23.49748952252,2.8681);
#48=CONICAL_SURFACE('',#429,21.95705080757,60.);
#49=PLANE('',#393);
#50=PLANE('',#402);
#51=PLANE('',#407);
#52=PLANE('',#412);
#53=PLANE('',#422);
#54=PLANE('',#427);
#55=PLANE('',#433);
#56=FACE_BOUND('',#121,.T.);
#57=FACE_BOUND('',#122,.T.);
#58=FACE_BOUND('',#124,.T.);
#59=FACE_BOUND('',#125,.T.);
#60=FACE_BOUND('',#126,.T.);
#61=FACE_BOUND('',#127,.T.);
#62=FACE_BOUND('',#128,.T.);
#63=FACE_BOUND('',#129,.T.);
#64=FACE_BOUND('',#130,.T.);
#65=FACE_BOUND('',#131,.T.);
#66=FACE_BOUND('',#132,.T.);
#67=FACE_BOUND('',#133,.T.);
#68=FACE_BOUND('',#134,.T.);
#69=FACE_BOUND('',#135,.T.);
#70=FACE_BOUND('',#136,.T.);
#71=FACE_BOUND('',#137,.T.);
#72=FACE_BOUND('',#138,.T.);
#73=FACE_BOUND('',#139,.T.);
#74=FACE_BOUND('',#140,.T.);
#75=FACE_BOUND('',#141,.T.);
#76=FACE_BOUND('',#148,.T.);
#77=FACE_BOUND('',#149,.T.);
#78=FACE_BOUND('',#150,.T.);
#79=FACE_BOUND('',#151,.T.);
#80=FACE_BOUND('',#152,.T.);
#81=FACE_BOUND('',#153,.T.);
#82=ADVANCED_FACE('',(#110),#104,.T.);
#83=ADVANCED_FACE('',(#111),#105,.T.);
#84=ADVANCED_FACE('',(#56,#57),#49,.F.);
#85=ADVANCED_FACE('',(#112),#106,.T.);
#86=ADVANCED_FACE('',(#58,#59),#44,.T.);
#87=ADVANCED_FACE('',(#60,#61),#50,.T.);
#88=ADVANCED_FACE('',(#62,#63),#40,.F.);
#89=ADVANCED_FACE('',(#64,#65),#51,.F.);
#90=ADVANCED_FACE('',(#66,#67),#45,.T.);
#91=ADVANCED_FACE('',(#68,#69),#107,.T.);
#92=ADVANCED_FACE('',(#70,#71),#52,.T.);
#93=ADVANCED_FACE('',(#72,#73),#41,.F.);
#94=ADVANCED_FACE('',(#74,#75),#108,.T.);
#95=ADVANCED_FACE('',(#113),#42,.F.);
#96=ADVANCED_FACE('',(#114),#43,.F.);
#97=ADVANCED_FACE('',(#115),#53,.F.);
#98=ADVANCED_FACE('',(#116),#46,.T.);
#99=ADVANCED_FACE('',(#117),#47,.T.);
#100=ADVANCED_FACE('',(#118),#54,.T.);
#101=ADVANCED_FACE('',(#76,#77),#48,.T.);
#102=ADVANCED_FACE('',(#78,#79),#109,.T.);
#103=ADVANCED_FACE('',(#80,#81),#55,.F.);
#104=CYLINDRICAL_SURFACE('',#385,20.);
#105=CYLINDRICAL_SURFACE('',#388,20.);
#106=CYLINDRICAL_SURFACE('',#396,31.5);
#107=CYLINDRICAL_SURFACE('',#410,31.5);
#108=CYLINDRICAL_SURFACE('',#415,27.5);
#109=CYLINDRICAL_SURFACE('',#432,24.95);
#110=FACE_OUTER_BOUND('',#119,.T.);
#111=FACE_OUTER_BOUND('',#120,.T.);
#112=FACE_OUTER_BOUND('',#123,.T.);
#113=FACE_OUTER_BOUND('',#142,.T.);
#114=FACE_OUTER_BOUND('',#143,.T.);
#115=FACE_OUTER_BOUND('',#144,.T.);
#116=FACE_OUTER_BOUND('',#145,.T.);
#117=FACE_OUTER_BOUND('',#146,.T.);
#118=FACE_OUTER_BOUND('',#147,.T.);
#119=EDGE_LOOP('',(#183,#184,#185,#186));
#120=EDGE_LOOP('',(#187,#188,#189,#190));
#121=EDGE_LOOP('',(#191,#192));
#122=EDGE_LOOP('',(#193,#194));
#123=EDGE_LOOP('',(#195,#196,#197,#198,#199,#200,#201,#202,#203,#204));
#124=EDGE_LOOP('',(#205,#206));
#125=EDGE_LOOP('',(#207));
#126=EDGE_LOOP('',(#208));
#127=EDGE_LOOP('',(#209,#210));
#128=EDGE_LOOP('',(#211));
#129=EDGE_LOOP('',(#212));
#130=EDGE_LOOP('',(#213));
#131=EDGE_LOOP('',(#214));
#132=EDGE_LOOP('',(#215));
#133=EDGE_LOOP('',(#216));
#134=EDGE_LOOP('',(#217));
#135=EDGE_LOOP('',(#218));
#136=EDGE_LOOP('',(#219));
#137=EDGE_LOOP('',(#220));
#138=EDGE_LOOP('',(#221));
#139=EDGE_LOOP('',(#222));
#140=EDGE_LOOP('',(#223));
#141=EDGE_LOOP('',(#224));
#142=EDGE_LOOP('',(#225,#226,#227,#228));
#143=EDGE_LOOP('',(#229,#230,#231,#232));
#144=EDGE_LOOP('',(#233,#234));
#145=EDGE_LOOP('',(#235,#236,#237,#238));
#146=EDGE_LOOP('',(#239,#240,#241,#242));
#147=EDGE_LOOP('',(#243,#244));
#148=EDGE_LOOP('',(#245));
#149=EDGE_LOOP('',(#246,#247,#248,#249,#250,#251));
#150=EDGE_LOOP('',(#252));
#151=EDGE_LOOP('',(#253,#254,#255,#256,#257,#258));
#152=EDGE_LOOP('',(#259,#260));
#153=EDGE_LOOP('',(#261,#262));
#154=CIRCLE('',#383,20.);
#155=CIRCLE('',#384,20.);
#156=CIRCLE('',#386,20.);
#157=CIRCLE('',#387,20.);
#158=CIRCLE('',#389,31.5);
#159=CIRCLE('',#390,31.5);
#160=CIRCLE('',#391,24.3206277416436);
#161=CIRCLE('',#392,24.3206277416436);
#162=CIRCLE('',#394,31.5);
#163=CIRCLE('',#395,31.5);
#164=CIRCLE('',#397,28.89759526419);
#165=CIRCLE('',#399,31.5);
#166=CIRCLE('',#400,23.);
#167=CIRCLE('',#401,23.);
#168=CIRCLE('',#403,27.5);
#169=CIRCLE('',#404,28.);
#170=CIRCLE('',#406,28.89759526419);
#171=CIRCLE('',#408,31.5);
#172=CIRCLE('',#411,28.);
#173=CIRCLE('',#413,27.5);
#174=CIRCLE('',#416,3.);
#175=CIRCLE('',#417,3.);
#176=CIRCLE('',#420,22.7174392126387);
#177=CIRCLE('',#421,22.7174392126387);
#178=CIRCLE('',#425,19.4999999999361);
#179=CIRCLE('',#426,19.4999999999361);
#180=CIRCLE('',#428,24.95);
#181=CIRCLE('',#430,24.95);
#182=CIRCLE('',#431,24.95);
#183=ORIENTED_EDGE('',*,*,#296,.T.);
#184=ORIENTED_EDGE('',*,*,#297,.T.);
#185=ORIENTED_EDGE('',*,*,#298,.F.);
#186=ORIENTED_EDGE('',*,*,#299,.F.);
#187=ORIENTED_EDGE('',*,*,#298,.T.);
#188=ORIENTED_EDGE('',*,*,#300,.T.);
#189=ORIENTED_EDGE('',*,*,#296,.F.);
#190=ORIENTED_EDGE('',*,*,#301,.T.);
#191=ORIENTED_EDGE('',*,*,#302,.T.);
#192=ORIENTED_EDGE('',*,*,#303,.T.);
#193=ORIENTED_EDGE('',*,*,#304,.T.);
#194=ORIENTED_EDGE('',*,*,#305,.T.);
#195=ORIENTED_EDGE('',*,*,#306,.T.);
#196=ORIENTED_EDGE('',*,*,#307,.F.);
#197=ORIENTED_EDGE('',*,*,#308,.T.);
#198=ORIENTED_EDGE('',*,*,#308,.F.);
#199=ORIENTED_EDGE('',*,*,#309,.F.);
#200=ORIENTED_EDGE('',*,*,#306,.F.);
#201=ORIENTED_EDGE('',*,*,#303,.F.);
#202=ORIENTED_EDGE('',*,*,#310,.T.);
#203=ORIENTED_EDGE('',*,*,#310,.F.);
#204=ORIENTED_EDGE('',*,*,#302,.F.);
#205=ORIENTED_EDGE('',*,*,#307,.T.);
#206=ORIENTED_EDGE('',*,*,#309,.T.);
#207=ORIENTED_EDGE('',*,*,#311,.F.);
#208=ORIENTED_EDGE('',*,*,#312,.F.);
#209=ORIENTED_EDGE('',*,*,#313,.F.);
#210=ORIENTED_EDGE('',*,*,#314,.F.);
#211=ORIENTED_EDGE('',*,*,#315,.F.);
#212=ORIENTED_EDGE('',*,*,#316,.F.);
#213=ORIENTED_EDGE('',*,*,#317,.F.);
#214=ORIENTED_EDGE('',*,*,#316,.T.);
#215=ORIENTED_EDGE('',*,*,#318,.F.);
#216=ORIENTED_EDGE('',*,*,#317,.T.);
#217=ORIENTED_EDGE('',*,*,#312,.T.);
#218=ORIENTED_EDGE('',*,*,#318,.T.);
#219=ORIENTED_EDGE('',*,*,#311,.T.);
#220=ORIENTED_EDGE('',*,*,#319,.T.);
#221=ORIENTED_EDGE('',*,*,#320,.F.);
#222=ORIENTED_EDGE('',*,*,#319,.F.);
#223=ORIENTED_EDGE('',*,*,#320,.T.);
#224=ORIENTED_EDGE('',*,*,#315,.T.);
#225=ORIENTED_EDGE('',*,*,#321,.T.);
#226=ORIENTED_EDGE('',*,*,#301,.F.);
#227=ORIENTED_EDGE('',*,*,#322,.F.);
#228=ORIENTED_EDGE('',*,*,#314,.T.);
#229=ORIENTED_EDGE('',*,*,#322,.T.);
#230=ORIENTED_EDGE('',*,*,#299,.T.);
#231=ORIENTED_EDGE('',*,*,#321,.F.);
#232=ORIENTED_EDGE('',*,*,#313,.T.);
#233=ORIENTED_EDGE('',*,*,#323,.T.);
#234=ORIENTED_EDGE('',*,*,#324,.T.);
#235=ORIENTED_EDGE('',*,*,#324,.F.);
#236=ORIENTED_EDGE('',*,*,#325,.T.);
#237=ORIENTED_EDGE('',*,*,#305,.F.);
#238=ORIENTED_EDGE('',*,*,#326,.F.);
#239=ORIENTED_EDGE('',*,*,#323,.F.);
#240=ORIENTED_EDGE('',*,*,#326,.T.);
#241=ORIENTED_EDGE('',*,*,#304,.F.);
#242=ORIENTED_EDGE('',*,*,#325,.F.);
#243=ORIENTED_EDGE('',*,*,#327,.T.);
#244=ORIENTED_EDGE('',*,*,#328,.T.);
#245=ORIENTED_EDGE('',*,*,#329,.T.);
#246=ORIENTED_EDGE('',*,*,#330,.F.);
#247=ORIENTED_EDGE('',*,*,#330,.T.);
#248=ORIENTED_EDGE('',*,*,#328,.F.);
#249=ORIENTED_EDGE('',*,*,#331,.F.);
#250=ORIENTED_EDGE('',*,*,#331,.T.);
#251=ORIENTED_EDGE('',*,*,#327,.F.);
#252=ORIENTED_EDGE('',*,*,#329,.F.);
#253=ORIENTED_EDGE('',*,*,#332,.F.);
#254=ORIENTED_EDGE('',*,*,#332,.T.);
#255=ORIENTED_EDGE('',*,*,#333,.T.);
#256=ORIENTED_EDGE('',*,*,#334,.F.);
#257=ORIENTED_EDGE('',*,*,#334,.T.);
#258=ORIENTED_EDGE('',*,*,#335,.T.);
#259=ORIENTED_EDGE('',*,*,#297,.F.);
#260=ORIENTED_EDGE('',*,*,#300,.F.);
#261=ORIENTED_EDGE('',*,*,#335,.F.);
#262=ORIENTED_EDGE('',*,*,#333,.F.);
#263=VERTEX_POINT('',#560);
#264=VERTEX_POINT('',#561);
#265=VERTEX_POINT('',#563);
#266=VERTEX_POINT('',#565);
#267=VERTEX_POINT('',#572);
#268=VERTEX_POINT('',#573);
#269=VERTEX_POINT('',#576);
#270=VERTEX_POINT('',#577);
#271=VERTEX_POINT('',#581);
#272=VERTEX_POINT('',#583);
#273=VERTEX_POINT('',#585);
#274=VERTEX_POINT('',#588);
#275=VERTEX_POINT('',#591);
#276=VERTEX_POINT('',#594);
#277=VERTEX_POINT('',#596);
#278=VERTEX_POINT('',#597);
#279=VERTEX_POINT('',#601);
#280=VERTEX_POINT('',#603);
#281=VERTEX_POINT('',#606);
#282=VERTEX_POINT('',#609);
#283=VERTEX_POINT('',#613);
#284=VERTEX_POINT('',#616);
#285=VERTEX_POINT('',#624);
#286=VERTEX_POINT('',#625);
#287=VERTEX_POINT('',#633);
#288=VERTEX_POINT('',#634);
#289=VERTEX_POINT('',#638);
#290=VERTEX_POINT('',#640);
#291=VERTEX_POINT('',#642);
#292=VERTEX_POINT('',#645);
#293=VERTEX_POINT('',#646);
#294=VERTEX_POINT('',#648);
#295=VERTEX_POINT('',#650);
#296=EDGE_CURVE('',#263,#264,#336,.T.);
#297=EDGE_CURVE('',#264,#265,#154,.T.);
#298=EDGE_CURVE('',#266,#265,#337,.T.);
#299=EDGE_CURVE('',#263,#266,#155,.T.);
#300=EDGE_CURVE('',#265,#264,#156,.T.);
#301=EDGE_CURVE('',#263,#266,#157,.T.);
#302=EDGE_CURVE('',#267,#268,#158,.T.);
#303=EDGE_CURVE('',#268,#267,#159,.T.);
#304=EDGE_CURVE('',#269,#270,#160,.T.);
#305=EDGE_CURVE('',#270,#269,#161,.T.);
#306=EDGE_CURVE('',#267,#271,#338,.T.);
#307=EDGE_CURVE('',#272,#271,#162,.T.);
#308=EDGE_CURVE('',#272,#273,#339,.T.);
#309=EDGE_CURVE('',#271,#272,#163,.T.);
#310=EDGE_CURVE('',#268,#274,#340,.T.);
#311=EDGE_CURVE('',#275,#275,#164,.T.);
#312=EDGE_CURVE('',#276,#276,#165,.T.);
#313=EDGE_CURVE('',#277,#278,#166,.T.);
#314=EDGE_CURVE('',#278,#277,#167,.T.);
#315=EDGE_CURVE('',#279,#279,#168,.T.);
#316=EDGE_CURVE('',#280,#280,#169,.T.);
#317=EDGE_CURVE('',#281,#281,#170,.T.);
#318=EDGE_CURVE('',#282,#282,#171,.T.);
#319=EDGE_CURVE('',#283,#283,#172,.T.);
#320=EDGE_CURVE('',#284,#284,#173,.T.);
#321=EDGE_CURVE('',#277,#266,#174,.T.);
#322=EDGE_CURVE('',#278,#263,#175,.T.);
#323=EDGE_CURVE('',#285,#286,#176,.T.);
#324=EDGE_CURVE('',#286,#285,#177,.T.);
#325=EDGE_CURVE('',#286,#269,#341,.T.);
#326=EDGE_CURVE('',#285,#270,#342,.T.);
#327=EDGE_CURVE('',#287,#288,#178,.T.);
#328=EDGE_CURVE('',#288,#287,#179,.T.);
#329=EDGE_CURVE('',#289,#289,#180,.T.);
#330=EDGE_CURVE('',#290,#287,#343,.T.);
#331=EDGE_CURVE('',#291,#288,#344,.T.);
#332=EDGE_CURVE('',#292,#293,#345,.T.);
#333=EDGE_CURVE('',#293,#294,#181,.T.);
#334=EDGE_CURVE('',#295,#294,#346,.T.);
#335=EDGE_CURVE('',#294,#293,#182,.T.);
#336=LINE('',#559,#347);
#337=LINE('',#564,#348);
#338=LINE('',#580,#349);
#339=LINE('',#584,#350);
#340=LINE('',#587,#351);
#341=LINE('',#628,#352);
#342=LINE('',#629,#353);
#343=LINE('',#639,#354);
#344=LINE('',#641,#355);
#345=LINE('',#644,#356);
#346=LINE('',#649,#357);
#347=VECTOR('',#442,1.);
#348=VECTOR('',#445,1.);
#349=VECTOR('',#466,1.);
#350=VECTOR('',#469,1.);
#351=VECTOR('',#472,1.);
#352=VECTOR('',#527,1.);
#353=VECTOR('',#528,1.);
#354=VECTOR('',#541,1.);
#355=VECTOR('',#542,1.);
#356=VECTOR('',#545,1.);
#357=VECTOR('',#548,1.);
#358=INVISIBILITY((#359,#360,#361,#362));
#359=PRESENTATION_LAYER_ASSIGNMENT('100','Layer 100',(#380));
#360=PRESENTATION_LAYER_ASSIGNMENT('101','Layer 101',(#381));
#361=PRESENTATION_LAYER_ASSIGNMENT('102','Layer 102',(#382));
#362=PRESENTATION_LAYER_ASSIGNMENT('98','Layer 98',(#38));
#363=STYLED_ITEM('',(#367),#380);
#364=STYLED_ITEM('',(#368),#381);
#365=STYLED_ITEM('',(#369),#382);
#366=STYLED_ITEM('',(#370),#38);
#367=PRESENTATION_STYLE_ASSIGNMENT((#371));
#368=PRESENTATION_STYLE_ASSIGNMENT((#372));
#369=PRESENTATION_STYLE_ASSIGNMENT((#373));
#370=PRESENTATION_STYLE_ASSIGNMENT((#33));
#371=CURVE_STYLE('',#376,POSITIVE_LENGTH_MEASURE(0.7),#374);
#372=CURVE_STYLE('',#377,POSITIVE_LENGTH_MEASURE(0.7),#374);
#373=CURVE_STYLE('',#378,POSITIVE_LENGTH_MEASURE(0.7),#374);
#374=COLOUR_RGB('Medium Maroon',0.6,0.4,0.4);
#375=COLOUR_RGB('Medium Gray',0.490196078431373,0.490196078431373,0.490196078431373);
#376=DRAUGHTING_PRE_DEFINED_CURVE_FONT('continuous');
#377=DRAUGHTING_PRE_DEFINED_CURVE_FONT('continuous');
#378=DRAUGHTING_PRE_DEFINED_CURVE_FONT('continuous');
#379=AXIS2_PLACEMENT_3D('',#555,#434,#435);
#380=AXIS2_PLACEMENT_3D('PCS',#556,#436,#437);
#381=AXIS2_PLACEMENT_3D('CSW',#557,#438,#439);
#382=AXIS2_PLACEMENT_3D('MCS',#558,#440,#441);
#383=AXIS2_PLACEMENT_3D('',#562,#443,#444);
#384=AXIS2_PLACEMENT_3D('',#566,#446,#447);
#385=AXIS2_PLACEMENT_3D('',#567,#448,#449);
#386=AXIS2_PLACEMENT_3D('',#568,#450,#451);
#387=AXIS2_PLACEMENT_3D('',#569,#452,#453);
#388=AXIS2_PLACEMENT_3D('',#570,#454,#455);
#389=AXIS2_PLACEMENT_3D('',#571,#456,#457);
#390=AXIS2_PLACEMENT_3D('',#574,#458,#459);
#391=AXIS2_PLACEMENT_3D('',#575,#460,#461);
#392=AXIS2_PLACEMENT_3D('',#578,#462,#463);
#393=AXIS2_PLACEMENT_3D('',#579,#464,#465);
#394=AXIS2_PLACEMENT_3D('',#582,#467,#468);
#395=AXIS2_PLACEMENT_3D('',#586,#470,#471);
#396=AXIS2_PLACEMENT_3D('',#589,#473,#474);
#397=AXIS2_PLACEMENT_3D('',#590,#475,#476);
#398=AXIS2_PLACEMENT_3D('',#592,#477,#478);
#399=AXIS2_PLACEMENT_3D('',#593,#479,#480);
#400=AXIS2_PLACEMENT_3D('',#595,#481,#482);
#401=AXIS2_PLACEMENT_3D('',#598,#483,#484);
#402=AXIS2_PLACEMENT_3D('',#599,#485,#486);
#403=AXIS2_PLACEMENT_3D('',#600,#487,#488);
#404=AXIS2_PLACEMENT_3D('',#602,#489,#490);
#405=AXIS2_PLACEMENT_3D('',#604,#491,#492);
#406=AXIS2_PLACEMENT_3D('',#605,#493,#494);
#407=AXIS2_PLACEMENT_3D('',#607,#495,#496);
#408=AXIS2_PLACEMENT_3D('',#608,#497,#498);
#409=AXIS2_PLACEMENT_3D('',#610,#499,#500);
#410=AXIS2_PLACEMENT_3D('',#611,#501,#502);
#411=AXIS2_PLACEMENT_3D('',#612,#503,#504);
#412=AXIS2_PLACEMENT_3D('',#614,#505,#506);
#413=AXIS2_PLACEMENT_3D('',#615,#507,#508);
#414=AXIS2_PLACEMENT_3D('',#617,#509,#510);
#415=AXIS2_PLACEMENT_3D('',#618,#511,#512);
#416=AXIS2_PLACEMENT_3D('',#619,#513,#514);
#417=AXIS2_PLACEMENT_3D('',#620,#515,#516);
#418=AXIS2_PLACEMENT_3D('',#621,#517,#518);
#419=AXIS2_PLACEMENT_3D('',#622,#519,#520);
#420=AXIS2_PLACEMENT_3D('',#623,#521,#522);
#421=AXIS2_PLACEMENT_3D('',#626,#523,#524);
#422=AXIS2_PLACEMENT_3D('',#627,#525,#526);
#423=AXIS2_PLACEMENT_3D('',#630,#529,#530);
#424=AXIS2_PLACEMENT_3D('',#631,#531,#532);
#425=AXIS2_PLACEMENT_3D('',#632,#533,#534);
#426=AXIS2_PLACEMENT_3D('',#635,#535,#536);
#427=AXIS2_PLACEMENT_3D('',#636,#537,#538);
#428=AXIS2_PLACEMENT_3D('',#637,#539,#540);
#429=AXIS2_PLACEMENT_3D('',#643,#543,#544);
#430=AXIS2_PLACEMENT_3D('',#647,#546,#547);
#431=AXIS2_PLACEMENT_3D('',#651,#549,#550);
#432=AXIS2_PLACEMENT_3D('',#652,#551,#552);
#433=AXIS2_PLACEMENT_3D('',#653,#553,#554);
#434=DIRECTION('',(0.,0.,1.));
#435=DIRECTION('',(1.,0.,0.));
#436=DIRECTION('',(0.,0.,1.));
#437=DIRECTION('',(1.,0.,0.));
#438=DIRECTION('',(0.,0.,1.));
#439=DIRECTION('',(1.,0.,0.));
#440=DIRECTION('',(0.,0.,1.));
#441=DIRECTION('',(1.,0.,0.));
#442=DIRECTION('',(0.,0.,-1.));
#443=DIRECTION('',(0.,0.,1.));
#444=DIRECTION('',(-1.,0.,0.));
#445=DIRECTION('',(0.,0.,-1.));
#446=DIRECTION('',(0.,0.,1.));
#447=DIRECTION('',(0.,-1.,0.));
#448=DIRECTION('',(0.,0.,-1.));
#449=DIRECTION('',(0.,-1.,0.));
#450=DIRECTION('',(0.,0.,1.));
#451=DIRECTION('',(-1.,0.,0.));
#452=DIRECTION('',(0.,0.,-1.));
#453=DIRECTION('',(0.,-1.,0.));
#454=DIRECTION('',(0.,0.,-1.));
#455=DIRECTION('',(0.,-1.,0.));
#456=DIRECTION('',(0.,0.,1.));
#457=DIRECTION('',(-1.,0.,0.));
#458=DIRECTION('',(0.,0.,1.));
#459=DIRECTION('',(-1.,0.,0.));
#460=DIRECTION('',(0.,0.,-1.));
#461=DIRECTION('',(-1.,0.,0.));
#462=DIRECTION('',(0.,0.,-1.));
#463=DIRECTION('',(-1.,0.,0.));
#464=DIRECTION('',(0.,0.,-1.));
#465=DIRECTION('',(0.,-1.,0.));
#466=DIRECTION('',(-3.308477055609E-14,0.,-1.));
#467=DIRECTION('',(0.,0.,-1.));
#468=DIRECTION('',(0.,-1.,0.));
#469=DIRECTION('',(0.,0.,1.));
#470=DIRECTION('',(0.,0.,-1.));
#471=DIRECTION('',(0.958314847499905,0.285714285714302,0.));
#472=DIRECTION('',(9.33264607387E-13,-2.13162820728E-14,-1.));
#473=DIRECTION('',(0.,0.,-1.));
#474=DIRECTION('',(0.,-1.,0.));
#475=DIRECTION('',(0.,0.,-1.));
#476=DIRECTION('',(-0.960916131215481,0.276839644505394,0.));
#477=DIRECTION('',(0.,0.,1.));
#478=DIRECTION('',(0.,1.,-7.87504095155224E-18));
#479=DIRECTION('',(0.,0.,1.));
#480=DIRECTION('',(-1.,0.,0.));
#481=DIRECTION('',(0.,0.,-1.));
#482=DIRECTION('',(0.,1.,0.));
#483=DIRECTION('',(0.,0.,-1.));
#484=DIRECTION('',(0.,-1.,0.));
#485=DIRECTION('',(0.,0.,-1.));
#486=DIRECTION('',(0.,-1.,0.));
#487=DIRECTION('',(0.,0.,1.));
#488=DIRECTION('',(0.96363636363636,0.267217062849089,0.));
#489=DIRECTION('',(0.,0.,-1.));
#490=DIRECTION('',(-0.958314847499905,0.285714285714302,0.));
#491=DIRECTION('',(0.,0.,-1.));
#492=DIRECTION('',(-0.00422980117842993,0.999991054350983,0.));
#493=DIRECTION('',(0.,0.,-1.));
#494=DIRECTION('',(-0.960916131215481,0.276839644505394,0.));
#495=DIRECTION('',(0.,0.,-1.));
#496=DIRECTION('',(0.,-1.,0.));
#497=DIRECTION('',(0.,0.,-1.));
#498=DIRECTION('',(-0.967212554703614,0.253968253968304,0.));
#499=DIRECTION('',(0.,0.,-1.));
#500=DIRECTION('',(0.,-1.,5.51252866608657E-17));
#501=DIRECTION('',(0.,0.,-1.));
#502=DIRECTION('',(0.,-1.,0.));
#503=DIRECTION('',(0.,0.,1.));
#504=DIRECTION('',(0.946933827397333,0.321428571428611,0.));
#505=DIRECTION('',(0.,0.,-1.));
#506=DIRECTION('',(0.,-1.,0.));
#507=DIRECTION('',(0.,0.,-1.));
#508=DIRECTION('',(-0.96363636363636,0.267217062849089,0.));
#509=DIRECTION('',(0.,0.,-1.));
#510=DIRECTION('',(-0.00403519109815584,0.999991858583259,0.));
#511=DIRECTION('',(0.,0.,-1.));
#512=DIRECTION('',(0.,-1.,0.));
#513=DIRECTION('',(1.,0.,0.));
#514=DIRECTION('',(0.,-1.,0.));
#515=DIRECTION('',(-1.,0.,0.));
#516=DIRECTION('',(0.,1.,0.));
#517=DIRECTION('',(0.,0.,-1.));
#518=DIRECTION('',(0.,-1.,0.));
#519=DIRECTION('',(0.,0.,-1.));
#520=DIRECTION('',(0.,-1.,0.));
#521=DIRECTION('',(0.,0.,1.));
#522=DIRECTION('',(-1.,0.,0.));
#523=DIRECTION('',(0.,0.,1.));
#524=DIRECTION('',(-1.,0.,0.));
#525=DIRECTION('',(0.,0.,-1.));
#526=DIRECTION('',(0.,-1.,0.));
#527=DIRECTION('',(1.87233229922393E-14,-0.0500368852433381,-0.998747370517262));
#528=DIRECTION('',(-1.84941077733493E-14,0.0500368852433481,-0.998747370517262));
#529=DIRECTION('',(0.,0.,-1.));
#530=DIRECTION('',(0.,-1.,-3.77128499686941E-16));
#531=DIRECTION('',(0.,0.,-1.));
#532=DIRECTION('',(0.,-1.,-3.77128499686941E-16));
#533=DIRECTION('',(0.,0.,-1.));
#534=DIRECTION('',(-1.,0.,0.));
#535=DIRECTION('',(0.,0.,-1.));
#536=DIRECTION('',(-1.,0.,0.));
#537=DIRECTION('',(0.,0.,-1.));
#538=DIRECTION('',(0.,1.,0.));
#539=DIRECTION('',(0.,0.,-1.));
#540=DIRECTION('',(1.,0.,0.));
#541=DIRECTION('',(-4.26177158807214E-14,-0.866025403784429,-0.500000000000017));
#542=DIRECTION('',(4.35743536838215E-14,0.866025403784429,-0.500000000000017));
#543=DIRECTION('',(0.,0.,1.));
#544=DIRECTION('',(0.,-1.,-3.1648177039891E-17));
#545=DIRECTION('',(0.,0.,1.));
#546=DIRECTION('',(0.,0.,-1.));
#547=DIRECTION('',(-1.,0.,0.));
#548=DIRECTION('',(1.020758022592E-14,0.,1.));
#549=DIRECTION('',(0.,0.,-1.));
#550=DIRECTION('',(-1.,0.,0.));
#551=DIRECTION('',(0.,0.,-1.));
#552=DIRECTION('',(0.,1.,0.));
#553=DIRECTION('',(0.,0.,-1.));
#554=DIRECTION('',(0.,1.,0.));
#555=CARTESIAN_POINT('',(0.,0.,0.));
#556=CARTESIAN_POINT('',(0.,0.,0.));
#557=CARTESIAN_POINT('',(0.,0.,-187.));
#558=CARTESIAN_POINT('',(0.,0.,0.));
#559=CARTESIAN_POINT('',(-3.46944695195361E-15,-20.,-177.5003751221));
#560=CARTESIAN_POINT('',(-3.46944695195361E-15,-20.,-29.));
#561=CARTESIAN_POINT('',(-3.46944695195361E-15,-20.,-177.1));
#562=CARTESIAN_POINT('',(-3.46944695195361E-15,8.77607757058376E-30,-177.1));
#563=CARTESIAN_POINT('',(-3.46944695195361E-15,20.,-177.1));
#564=CARTESIAN_POINT('',(-3.46944695195361E-15,20.,-177.5003751221));
#565=CARTESIAN_POINT('',(-3.46944695195361E-15,20.,-29.));
#566=CARTESIAN_POINT('',(-3.46944695195361E-15,8.77607757058376E-30,-29.));
#567=CARTESIAN_POINT('',(-3.46944695195361E-15,8.77607757058376E-30,-17.95));
#568=CARTESIAN_POINT('',(-3.46944695195361E-15,8.77607757058376E-30,-177.1));
#569=CARTESIAN_POINT('',(-3.46944695195361E-15,8.77607757058376E-30,-29.));
#570=CARTESIAN_POINT('',(-3.46944695195361E-15,8.77607757058376E-30,-17.95));
#571=CARTESIAN_POINT('',(-3.46944695195361E-15,8.77607757058376E-30,0.));
#572=CARTESIAN_POINT('',(4.80312641115826E-13,31.5,0.));
#573=CARTESIAN_POINT('',(-1.40336635803245E-12,-31.5,0.));
#574=CARTESIAN_POINT('',(-3.46944695195361E-15,8.77607757058376E-30,0.));
#575=CARTESIAN_POINT('',(-3.46944695195361E-15,8.77607757058376E-30,0.));
#576=CARTESIAN_POINT('',(-3.46944695195361E-15,-24.3206277416436,0.));
#577=CARTESIAN_POINT('',(2.63565344077441E-13,24.3206277416436,0.));
#578=CARTESIAN_POINT('',(-3.46944695195361E-15,8.77607757058376E-30,0.));
#579=CARTESIAN_POINT('',(-3.46944695195361E-15,8.77607757058376E-30,0.));
#580=CARTESIAN_POINT('',(-3.46944695195361E-15,31.5,-14.62250092524));
#581=CARTESIAN_POINT('',(-3.46944695195361E-15,31.5,-14.62250092524));
#582=CARTESIAN_POINT('',(-3.46944695195361E-15,8.77607757058376E-30,-14.62250092524));
#583=CARTESIAN_POINT('',(-3.46944695195361E-15,-31.5,-14.62250092524));
#584=CARTESIAN_POINT('',(-3.46944695195361E-15,-31.5,-14.62250092524));
#585=CARTESIAN_POINT('',(-3.46944695195361E-15,-31.5,-12.5));
#586=CARTESIAN_POINT('',(-3.46944695195361E-15,8.77607757058376E-30,-14.62250092524));
#587=CARTESIAN_POINT('',(-3.46944695195361E-15,-31.5,-1.5));
#588=CARTESIAN_POINT('',(-3.46944695195361E-15,-31.5,-1.5));
#589=CARTESIAN_POINT('',(-3.46944695195361E-15,8.77607757058376E-30,34.9));
#590=CARTESIAN_POINT('',(-3.46944695195361E-15,8.77607757058376E-30,-16.125));
#591=CARTESIAN_POINT('',(-27.7681654426963,7.99999999999913,-16.125));
#592=CARTESIAN_POINT('',(-3.46944695195361E-15,8.77607757058376E-30,-15.37375046262));
#593=CARTESIAN_POINT('',(-3.46944695195361E-15,8.77607757058376E-30,-26.));
#594=CARTESIAN_POINT('',(-31.5,8.77607757058376E-30,-26.));
#595=CARTESIAN_POINT('',(-3.46944695195361E-15,8.77607757058376E-30,-26.));
#596=CARTESIAN_POINT('',(-3.46944695195361E-15,23.,-26.));
#597=CARTESIAN_POINT('',(-3.46944695195361E-15,-23.,-26.));
#598=CARTESIAN_POINT('',(-3.46944695195361E-15,8.77607757058376E-30,-26.));
#599=CARTESIAN_POINT('',(-3.46944695195361E-15,8.77607757058376E-30,-26.));
#600=CARTESIAN_POINT('',(-3.46944695195361E-15,8.77607757058376E-30,-19.375));
#601=CARTESIAN_POINT('',(26.4999999999999,7.34846922834994,-19.375));
#602=CARTESIAN_POINT('',(-3.46944695195361E-15,8.77607757058376E-30,-19.875));
#603=CARTESIAN_POINT('',(-26.8328157299973,8.00000000000044,-19.875));
#604=CARTESIAN_POINT('',(-3.46944695195361E-15,8.77607757058376E-30,-19.375));
#605=CARTESIAN_POINT('',(-3.46944695195361E-15,8.77607757058376E-30,-19.875));
#606=CARTESIAN_POINT('',(-27.7681654426963,7.99999999999913,-19.875));
#607=CARTESIAN_POINT('',(-3.46944695195361E-15,8.77607757058376E-30,-19.875));
#608=CARTESIAN_POINT('',(-3.46944695195361E-15,8.77607757058376E-30,-21.377499074759));
#609=CARTESIAN_POINT('',(-30.4671954731638,8.00000000000156,-21.377499074759));
#610=CARTESIAN_POINT('',(-3.46944695195361E-15,8.77607757058376E-30,-20.62624953738));
#611=CARTESIAN_POINT('',(-3.46944695195361E-15,8.77607757058376E-30,34.9));
#612=CARTESIAN_POINT('',(-3.46944695195361E-15,8.77607757058376E-30,-16.125));
#613=CARTESIAN_POINT('',(26.5141471671253,9.00000000000112,-16.125));
#614=CARTESIAN_POINT('',(-3.46944695195361E-15,8.77607757058376E-30,-16.125));
#615=CARTESIAN_POINT('',(-3.46944695195361E-15,8.77607757058376E-30,-16.625));
#616=CARTESIAN_POINT('',(-26.4999999999999,7.34846922834994,-16.625));
#617=CARTESIAN_POINT('',(-3.46944695195361E-15,8.77607757058376E-30,-16.625));
#618=CARTESIAN_POINT('',(-3.46944695195361E-15,8.77607757058376E-30,34.9));
#619=CARTESIAN_POINT('',(-3.46944695195361E-15,23.,-29.));
#620=CARTESIAN_POINT('',(-3.46944695195361E-15,-23.,-29.));
#621=CARTESIAN_POINT('',(-3.46944695195361E-15,8.77607757058376E-30,-29.));
#622=CARTESIAN_POINT('',(-3.46944695195361E-15,8.77607757058376E-30,-29.));
#623=CARTESIAN_POINT('',(-3.46944695195361E-15,8.77607757058376E-30,32.));
#624=CARTESIAN_POINT('',(5.52049645842383E-13,22.7174392126479,32.));
#625=CARTESIAN_POINT('',(-5.6587362076847E-13,-22.7174392126482,32.));
#626=CARTESIAN_POINT('',(-3.46944695195361E-15,8.77607757058376E-30,32.));
#627=CARTESIAN_POINT('',(-3.46944695195361E-15,8.77607757058376E-30,32.));
#628=CARTESIAN_POINT('',(-3.46944695195361E-15,-24.22042845859,2.));
#629=CARTESIAN_POINT('',(-3.46944695195361E-15,24.22042845859,2.));
#630=CARTESIAN_POINT('',(-3.46944695195361E-15,8.77607757058376E-30,16.43002213115));
#631=CARTESIAN_POINT('',(-3.46944695195361E-15,8.77607757058376E-30,16.43002213115));
#632=CARTESIAN_POINT('',(-3.46944695195361E-15,8.77607757058376E-30,-200.));
#633=CARTESIAN_POINT('',(-2.63082120562993E-14,19.5000000000561,-200.));
#634=CARTESIAN_POINT('',(1.98819788059121E-14,-19.5000000000561,-200.));
#635=CARTESIAN_POINT('',(-3.46944695195361E-15,8.77607757058376E-30,-200.));
#636=CARTESIAN_POINT('',(-3.46944695195361E-15,8.77607757058376E-30,-200.));
#637=CARTESIAN_POINT('',(-3.46944695195361E-15,8.77607757058376E-30,-196.85344103288));
#638=CARTESIAN_POINT('',(24.95,8.77607757058376E-30,-196.85344103288));
#639=CARTESIAN_POINT('',(-3.46944695195361E-15,19.96410161514,-199.7320508076));
#640=CARTESIAN_POINT('',(8.79932102238964E-14,21.77301270189,-198.6876755047));
#641=CARTESIAN_POINT('',(-3.46944695195361E-15,-19.96410161514,-199.7320508076));
#642=CARTESIAN_POINT('',(-9.69303219185136E-14,-21.77301270189,-198.6876755047));
#643=CARTESIAN_POINT('',(-3.46944695195361E-15,8.77607757058376E-30,-198.5814210548));
#644=CARTESIAN_POINT('',(-3.46944695195361E-15,24.95,-182.3));
#645=CARTESIAN_POINT('',(-3.46944695195361E-15,24.95,-182.3));
#646=CARTESIAN_POINT('',(-3.46944695195361E-15,24.95,-177.1));
#647=CARTESIAN_POINT('',(-3.46944695195361E-15,8.77607757058376E-30,-177.1));
#648=CARTESIAN_POINT('',(1.27443895745865E-14,-24.95,-177.1));
#649=CARTESIAN_POINT('',(-6.38124621198136E-14,-24.95,-184.6));
#650=CARTESIAN_POINT('',(-1.15242346845834E-13,-24.95,-184.6));
#651=CARTESIAN_POINT('',(-3.46944695195361E-15,8.77607757058376E-30,-177.1));
#652=CARTESIAN_POINT('',(-3.46944695195361E-15,8.77607757058376E-30,-207.97));
#653=CARTESIAN_POINT('',(-3.46944695195361E-15,8.77607757058376E-30,-177.1));
#654=MECHANICAL_DESIGN_GEOMETRIC_PRESENTATION_REPRESENTATION('',(#363,#364,
#365,#366),#655);
#655=(
GEOMETRIC_REPRESENTATION_CONTEXT(3)
GLOBAL_UNCERTAINTY_ASSIGNED_CONTEXT((#656))
GLOBAL_UNIT_ASSIGNED_CONTEXT((#662,#658,#657))
REPRESENTATION_CONTEXT('HSK.63A-CC.ER32','TOP_LEVEL_ASSEMBLY_PART')
);
#656=UNCERTAINTY_MEASURE_WITH_UNIT(LENGTH_MEASURE(2.E-5),#662,
'DISTANCE_ACCURACY_VALUE','Maximum Tolerance applied to model');
#657=(
NAMED_UNIT(*)
SI_UNIT($,.STERADIAN.)
SOLID_ANGLE_UNIT()
);
#658=(
CONVERSION_BASED_UNIT('DEGREE',#660)
NAMED_UNIT(#659)
PLANE_ANGLE_UNIT()
);
#659=DIMENSIONAL_EXPONENTS(0.,0.,0.,0.,0.,0.,0.);
#660=PLANE_ANGLE_MEASURE_WITH_UNIT(PLANE_ANGLE_MEASURE(0.0174532925),#661);
#661=(
NAMED_UNIT(*)
PLANE_ANGLE_UNIT()
SI_UNIT($,.RADIAN.)
);
#662=(
LENGTH_UNIT()
NAMED_UNIT(*)
SI_UNIT(.MILLI.,.METRE.)
);
ENDSEC;
END-ISO-10303-21;
