ISO-10303-21;
HEADER;
/* Generated by software containing ST-Developer
 * from STEP Tools, Inc. (www.steptools.com) 
 */
/* OPTION: using custom schema-name function */

FILE_DESCRIPTION(
/* description */ (''),
/* implementation_level */ '2;1');

FILE_NAME(
/* name */ 'H85533.5-R95033.5_3D_LIGHT.STP',
/* time_stamp */ '2022-09-02T21:57:01+02:00',
/* author */ (''),
/* organization */ ('SMS'),
/* preprocessor_version */ 'ST-DEVELOPER v16.7',
/* originating_system */ 'SIEMENS PLM Software NX 12.0',
/* authorisation */ '');

FILE_SCHEMA (('AUTOMOTIVE_DESIGN { 1 0 10303 214 3 1 1 1 }'));
ENDSEC;

DATA;
#10=CONSTRUCTIVE_GEOMETRY_REPRESENTATION_RELATIONSHIP(
'supplemental geometry','',#26,#11);
#11=CONSTRUCTIVE_GEOMETRY_REPRESENTATION('supplemental geometry',(#248,
#249,#250),#459);
#12=GEOMETRICALLY_BOUNDED_WIREFRAME_SHAPE_REPRESENTATION(
'H85533.5-R95033.5_3D_light-None',(#27),#459);
#13=SHAPE_REPRESENTATION_RELATIONSHIP('None',
'relationship between H85533.5-R95033.5_3D_light-None and H85533.5-R95
033.5_3D_light-None',#26,#15);
#14=SHAPE_REPRESENTATION_RELATIONSHIP('None',
'relationship between H85533.5-R95033.5_3D_light-None and H85533.5-R95
033.5_3D_light-None',#26,#12);
#15=ADVANCED_BREP_SHAPE_REPRESENTATION(
'H85533.5-R95033.5_3D_light-None',(#39,#40),#459);
#16=SHAPE_DEFINITION_REPRESENTATION(#17,#26);
#17=PRODUCT_DEFINITION_SHAPE('','',#18);
#18=PRODUCT_DEFINITION(' ','',#20,#19);
#19=PRODUCT_DEFINITION_CONTEXT('part definition',#25,'design');
#20=PRODUCT_DEFINITION_FORMATION_WITH_SPECIFIED_SOURCE(' ',' ',#22,
 .NOT_KNOWN.);
#21=PRODUCT_RELATED_PRODUCT_CATEGORY('part','',(#22));
#22=PRODUCT('H85533.5-R95033.5_3D_light','H85533.5-R95033.5_3D_light',
' ',(#23));
#23=PRODUCT_CONTEXT(' ',#25,'mechanical');
#24=APPLICATION_PROTOCOL_DEFINITION('international standard',
'automotive_design',2010,#25);
#25=APPLICATION_CONTEXT(
'core data for automotive mechanical design processes');
#26=SHAPE_REPRESENTATION('H85533.5-R95033.5_3D_light-None',(#247),#459);
#27=GEOMETRIC_CURVE_SET('None',(#339,#340,#341,#212));
#28=VERTEX_LOOP('',#177);
#29=SURFACE_STYLE_USAGE(.BOTH.,#31);
#30=SURFACE_STYLE_USAGE(.BOTH.,#32);
#31=SURFACE_SIDE_STYLE('',(#33));
#32=SURFACE_SIDE_STYLE('',(#34));
#33=SURFACE_STYLE_FILL_AREA(#35);
#34=SURFACE_STYLE_FILL_AREA(#36);
#35=FILL_AREA_STYLE('',(#37));
#36=FILL_AREA_STYLE('',(#38));
#37=FILL_AREA_STYLE_COLOUR('',#246);
#38=FILL_AREA_STYLE_COLOUR('',#246);
#39=MANIFOLD_SOLID_BREP('NOCUT',#41);
#40=MANIFOLD_SOLID_BREP('CUT',#42);
#41=CLOSED_SHELL('',(#73,#74,#75,#76,#77,#78,#79,#80,#81,#82,#83));
#42=CLOSED_SHELL('',(#84,#85,#86));
#43=LINE('',#440,#47);
#44=LINE('',#442,#48);
#45=LINE('',#443,#49);
#46=LINE('',#445,#50);
#47=VECTOR('',#312,1.);
#48=VECTOR('',#315,1.);
#49=VECTOR('',#316,1.);
#50=VECTOR('',#319,1.);
#51=ELLIPSE('',#260,458.459333565501,16.);
#52=ELLIPSE('',#261,23.4604669702339,16.);
#53=ELLIPSE('',#262,458.459333565501,16.);
#54=ELLIPSE('',#263,21.8772393775775,16.);
#55=PLANE('',#257);
#56=PLANE('',#265);
#57=PLANE('',#266);
#58=PLANE('',#267);
#59=PLANE('',#270);
#60=PLANE('',#274);
#61=FACE_OUTER_BOUND('',#108,.T.);
#62=FACE_OUTER_BOUND('',#114,.T.);
#63=FACE_OUTER_BOUND('',#115,.T.);
#64=FACE_OUTER_BOUND('',#116,.T.);
#65=FACE_OUTER_BOUND('',#117,.T.);
#66=FACE_OUTER_BOUND('',#118,.T.);
#67=FACE_OUTER_BOUND('',#119,.T.);
#68=FACE_OUTER_BOUND('',#122,.T.);
#69=CONICAL_SURFACE('',#255,16.65,3.71899397315803);
#70=CONICAL_SURFACE('',#259,16.,44.9999999999999);
#71=CONICAL_SURFACE('',#273,16.7518,0.010313240200983);
#72=CONICAL_SURFACE('',#275,3.29429988970638E-14,69.9999999999999);
#73=ADVANCED_FACE('',(#91,#92),#87,.T.);
#74=ADVANCED_FACE('',(#93,#94),#69,.T.);
#75=ADVANCED_FACE('',(#61),#55,.T.);
#76=ADVANCED_FACE('',(#95,#96),#70,.T.);
#77=ADVANCED_FACE('CYL_FACE',(#97,#98,#99),#88,.T.);
#78=ADVANCED_FACE('',(#62),#56,.F.);
#79=ADVANCED_FACE('',(#63),#57,.F.);
#80=ADVANCED_FACE('',(#64),#58,.F.);
#81=ADVANCED_FACE('',(#65),#89,.F.);
#82=ADVANCED_FACE('',(#66),#90,.F.);
#83=ADVANCED_FACE('',(#67),#59,.T.);
#84=ADVANCED_FACE('',(#100,#101),#71,.T.);
#85=ADVANCED_FACE('',(#68),#60,.F.);
#86=ADVANCED_FACE('',(#102,#103),#72,.T.);
#87=CYLINDRICAL_SURFACE('',#253,16.65);
#88=CYLINDRICAL_SURFACE('',#264,16.);
#89=CYLINDRICAL_SURFACE('',#268,1.6);
#90=CYLINDRICAL_SURFACE('',#269,1.6);
#91=FACE_BOUND('',#104,.T.);
#92=FACE_BOUND('',#105,.T.);
#93=FACE_BOUND('',#106,.T.);
#94=FACE_BOUND('',#107,.T.);
#95=FACE_BOUND('',#109,.T.);
#96=FACE_BOUND('',#110,.T.);
#97=FACE_BOUND('',#111,.T.);
#98=FACE_BOUND('',#112,.T.);
#99=FACE_BOUND('',#113,.T.);
#100=FACE_BOUND('',#120,.T.);
#101=FACE_BOUND('',#121,.T.);
#102=FACE_BOUND('',#28,.T.);
#103=FACE_BOUND('',#123,.T.);
#104=EDGE_LOOP('',(#124));
#105=EDGE_LOOP('',(#125));
#106=EDGE_LOOP('',(#126));
#107=EDGE_LOOP('',(#127));
#108=EDGE_LOOP('',(#128));
#109=EDGE_LOOP('',(#129));
#110=EDGE_LOOP('',(#130));
#111=EDGE_LOOP('',(#131,#132,#133,#134,#135,#136,#137,#138));
#112=EDGE_LOOP('',(#139));
#113=EDGE_LOOP('',(#140));
#114=EDGE_LOOP('',(#141,#142));
#115=EDGE_LOOP('',(#143,#144,#145,#146));
#116=EDGE_LOOP('',(#147,#148));
#117=EDGE_LOOP('',(#149,#150,#151,#152));
#118=EDGE_LOOP('',(#153,#154,#155,#156));
#119=EDGE_LOOP('',(#157));
#120=EDGE_LOOP('',(#158));
#121=EDGE_LOOP('',(#159));
#122=EDGE_LOOP('',(#160));
#123=EDGE_LOOP('',(#161));
#124=ORIENTED_EDGE('',*,*,#178,.F.);
#125=ORIENTED_EDGE('',*,*,#179,.F.);
#126=ORIENTED_EDGE('',*,*,#180,.T.);
#127=ORIENTED_EDGE('',*,*,#179,.T.);
#128=ORIENTED_EDGE('',*,*,#181,.F.);
#129=ORIENTED_EDGE('',*,*,#181,.T.);
#130=ORIENTED_EDGE('',*,*,#182,.F.);
#131=ORIENTED_EDGE('',*,*,#183,.F.);
#132=ORIENTED_EDGE('',*,*,#184,.F.);
#133=ORIENTED_EDGE('',*,*,#185,.F.);
#134=ORIENTED_EDGE('',*,*,#186,.F.);
#135=ORIENTED_EDGE('',*,*,#187,.F.);
#136=ORIENTED_EDGE('',*,*,#188,.F.);
#137=ORIENTED_EDGE('',*,*,#189,.F.);
#138=ORIENTED_EDGE('',*,*,#190,.F.);
#139=ORIENTED_EDGE('',*,*,#182,.T.);
#140=ORIENTED_EDGE('',*,*,#180,.F.);
#141=ORIENTED_EDGE('',*,*,#190,.T.);
#142=ORIENTED_EDGE('',*,*,#191,.T.);
#143=ORIENTED_EDGE('',*,*,#184,.T.);
#144=ORIENTED_EDGE('',*,*,#192,.T.);
#145=ORIENTED_EDGE('',*,*,#188,.T.);
#146=ORIENTED_EDGE('',*,*,#193,.T.);
#147=ORIENTED_EDGE('',*,*,#186,.T.);
#148=ORIENTED_EDGE('',*,*,#194,.T.);
#149=ORIENTED_EDGE('',*,*,#183,.T.);
#150=ORIENTED_EDGE('',*,*,#191,.F.);
#151=ORIENTED_EDGE('',*,*,#189,.T.);
#152=ORIENTED_EDGE('',*,*,#192,.F.);
#153=ORIENTED_EDGE('',*,*,#185,.T.);
#154=ORIENTED_EDGE('',*,*,#193,.F.);
#155=ORIENTED_EDGE('',*,*,#187,.T.);
#156=ORIENTED_EDGE('',*,*,#194,.F.);
#157=ORIENTED_EDGE('',*,*,#178,.T.);
#158=ORIENTED_EDGE('',*,*,#195,.T.);
#159=ORIENTED_EDGE('',*,*,#196,.T.);
#160=ORIENTED_EDGE('',*,*,#196,.F.);
#161=ORIENTED_EDGE('',*,*,#195,.F.);
#162=VERTEX_POINT('',#359);
#163=VERTEX_POINT('',#361);
#164=VERTEX_POINT('',#364);
#165=VERTEX_POINT('',#367);
#166=VERTEX_POINT('',#370);
#167=VERTEX_POINT('',#385);
#168=VERTEX_POINT('',#386);
#169=VERTEX_POINT('',#388);
#170=VERTEX_POINT('',#402);
#171=VERTEX_POINT('',#404);
#172=VERTEX_POINT('',#418);
#173=VERTEX_POINT('',#420);
#174=VERTEX_POINT('',#437);
#175=VERTEX_POINT('',#451);
#176=VERTEX_POINT('',#453);
#177=VERTEX_POINT('',#456);
#178=EDGE_CURVE('',#162,#162,#197,.T.);
#179=EDGE_CURVE('',#163,#163,#198,.T.);
#180=EDGE_CURVE('',#164,#164,#199,.T.);
#181=EDGE_CURVE('',#165,#165,#200,.T.);
#182=EDGE_CURVE('',#166,#166,#201,.T.);
#183=EDGE_CURVE('',#167,#168,#213,.T.);
#184=EDGE_CURVE('',#169,#167,#51,.T.);
#185=EDGE_CURVE('',#170,#169,#214,.T.);
#186=EDGE_CURVE('',#171,#170,#52,.T.);
#187=EDGE_CURVE('',#172,#171,#215,.T.);
#188=EDGE_CURVE('',#173,#172,#53,.T.);
#189=EDGE_CURVE('',#174,#173,#216,.T.);
#190=EDGE_CURVE('',#168,#174,#54,.T.);
#191=EDGE_CURVE('',#174,#168,#43,.T.);
#192=EDGE_CURVE('',#167,#173,#44,.T.);
#193=EDGE_CURVE('',#172,#169,#45,.T.);
#194=EDGE_CURVE('',#170,#171,#46,.T.);
#195=EDGE_CURVE('',#175,#175,#202,.T.);
#196=EDGE_CURVE('',#176,#176,#203,.T.);
#197=CIRCLE('',#251,16.65);
#198=CIRCLE('',#252,16.65);
#199=CIRCLE('',#254,16.);
#200=CIRCLE('',#256,15.);
#201=CIRCLE('',#258,16.);
#202=CIRCLE('',#271,16.75);
#203=CIRCLE('',#272,16.7469573702563);
#204=CURVE_STYLE('',#208,POSITIVE_LENGTH_MEASURE(0.18),#218);
#205=CURVE_STYLE('',#209,POSITIVE_LENGTH_MEASURE(0.13),#245);
#206=CURVE_STYLE('',#210,POSITIVE_LENGTH_MEASURE(0.18),#244);
#207=CURVE_STYLE('',#211,POSITIVE_LENGTH_MEASURE(0.18),#244);
#208=DRAUGHTING_PRE_DEFINED_CURVE_FONT('continuous');
#209=DRAUGHTING_PRE_DEFINED_CURVE_FONT('continuous');
#210=DRAUGHTING_PRE_DEFINED_CURVE_FONT('continuous');
#211=DRAUGHTING_PRE_DEFINED_CURVE_FONT('continuous');
#212=B_SPLINE_CURVE_WITH_KNOTS('CUTTING PART LINE',3,(#342,#343,#344,#345,
#346,#347,#348,#349,#350,#351,#352,#353,#354),.UNSPECIFIED.,.T.,.F.,(4,
3,3,3,4),(0.,0.308826666631229,0.533692189277062,0.760659632937434,1.),
 .UNSPECIFIED.);
#213=B_SPLINE_CURVE_WITH_KNOTS('',3,(#372,#373,#374,#375,#376,#377,#378,
#379,#380,#381,#382,#383,#384),.UNSPECIFIED.,.F.,.F.,(4,3,3,3,4),(0.,0.098190794124154,
0.22534338125502,0.448505422443371,1.),.UNSPECIFIED.);
#214=B_SPLINE_CURVE_WITH_KNOTS('',3,(#389,#390,#391,#392,#393,#394,#395,
#396,#397,#398,#399,#400,#401),.UNSPECIFIED.,.F.,.F.,(4,3,3,3,4),(0.,0.417392864732184,
0.664904253509579,0.869204552832243,1.),.UNSPECIFIED.);
#215=B_SPLINE_CURVE_WITH_KNOTS('',3,(#405,#406,#407,#408,#409,#410,#411,
#412,#413,#414,#415,#416,#417),.UNSPECIFIED.,.F.,.F.,(4,3,3,3,4),(0.,0.190725953457415,
0.380210617369595,0.677552516524712,1.),.UNSPECIFIED.);
#216=B_SPLINE_CURVE_WITH_KNOTS('',3,(#421,#422,#423,#424,#425,#426,#427,
#428,#429,#430,#431,#432,#433,#434,#435,#436),.UNSPECIFIED.,.F.,.F.,(4,
3,3,3,3,4),(0.,0.482288237617618,0.6620123998792,0.844157231180555,0.943841010710753,
1.),.UNSPECIFIED.);
#217=DRAUGHTING_PRE_DEFINED_COLOUR('white');
#218=DRAUGHTING_PRE_DEFINED_COLOUR('blue');
#219=PRESENTATION_LAYER_ASSIGNMENT('1','Layer 1',(#339,#340,#341,#212,#248,
#249,#250,#39,#40));
#220=STYLED_ITEM('',(#229),#339);
#221=STYLED_ITEM('',(#230),#340);
#222=STYLED_ITEM('',(#231),#341);
#223=STYLED_ITEM('',(#232),#212);
#224=STYLED_ITEM('',(#233),#248);
#225=STYLED_ITEM('',(#234),#249);
#226=STYLED_ITEM('',(#235),#250);
#227=STYLED_ITEM('',(#236),#39);
#228=STYLED_ITEM('',(#237),#40);
#229=PRESENTATION_STYLE_ASSIGNMENT((#238));
#230=PRESENTATION_STYLE_ASSIGNMENT((#239));
#231=PRESENTATION_STYLE_ASSIGNMENT((#240));
#232=PRESENTATION_STYLE_ASSIGNMENT((#204));
#233=PRESENTATION_STYLE_ASSIGNMENT((#205));
#234=PRESENTATION_STYLE_ASSIGNMENT((#206));
#235=PRESENTATION_STYLE_ASSIGNMENT((#207));
#236=PRESENTATION_STYLE_ASSIGNMENT((#29));
#237=PRESENTATION_STYLE_ASSIGNMENT((#30));
#238=POINT_STYLE('',#241,POSITIVE_LENGTH_MEASURE(3.),#244);
#239=POINT_STYLE('',#242,POSITIVE_LENGTH_MEASURE(3.),#217);
#240=POINT_STYLE('',#243,POSITIVE_LENGTH_MEASURE(3.),#244);
#241=PRE_DEFINED_POINT_MARKER_SYMBOL('plus');
#242=PRE_DEFINED_POINT_MARKER_SYMBOL('plus');
#243=PRE_DEFINED_POINT_MARKER_SYMBOL('plus');
#244=COLOUR_RGB('Medium Maroon',0.6,0.4,0.4);
#245=COLOUR_RGB('Silver Gray',0.6,0.6,0.6);
#246=COLOUR_RGB('Pale Sky',0.882337682154574,0.960769054703594,1.);
#247=AXIS2_PLACEMENT_3D('',#338,#276,#277);
#248=AXIS2_PLACEMENT_3D('PCS',#355,#278,#279);
#249=AXIS2_PLACEMENT_3D('MCS',#356,#280,#281);
#250=AXIS2_PLACEMENT_3D('CIP',#357,#282,#283);
#251=AXIS2_PLACEMENT_3D('',#358,#284,#285);
#252=AXIS2_PLACEMENT_3D('',#360,#286,#287);
#253=AXIS2_PLACEMENT_3D('',#362,#288,#289);
#254=AXIS2_PLACEMENT_3D('',#363,#290,#291);
#255=AXIS2_PLACEMENT_3D('',#365,#292,#293);
#256=AXIS2_PLACEMENT_3D('',#366,#294,#295);
#257=AXIS2_PLACEMENT_3D('',#368,#296,#297);
#258=AXIS2_PLACEMENT_3D('',#369,#298,#299);
#259=AXIS2_PLACEMENT_3D('',#371,#300,#301);
#260=AXIS2_PLACEMENT_3D('',#387,#302,#303);
#261=AXIS2_PLACEMENT_3D('',#403,#304,#305);
#262=AXIS2_PLACEMENT_3D('',#419,#306,#307);
#263=AXIS2_PLACEMENT_3D('',#438,#308,#309);
#264=AXIS2_PLACEMENT_3D('',#439,#310,#311);
#265=AXIS2_PLACEMENT_3D('',#441,#313,#314);
#266=AXIS2_PLACEMENT_3D('',#444,#317,#318);
#267=AXIS2_PLACEMENT_3D('',#446,#320,#321);
#268=AXIS2_PLACEMENT_3D('',#447,#322,#323);
#269=AXIS2_PLACEMENT_3D('',#448,#324,#325);
#270=AXIS2_PLACEMENT_3D('',#449,#326,#327);
#271=AXIS2_PLACEMENT_3D('',#450,#328,#329);
#272=AXIS2_PLACEMENT_3D('',#452,#330,#331);
#273=AXIS2_PLACEMENT_3D('',#454,#332,#333);
#274=AXIS2_PLACEMENT_3D('',#455,#334,#335);
#275=AXIS2_PLACEMENT_3D('',#457,#336,#337);
#276=DIRECTION('',(0.,0.,1.));
#277=DIRECTION('',(1.,0.,0.));
#278=DIRECTION('',(0.,0.,1.));
#279=DIRECTION('',(1.,0.,0.));
#280=DIRECTION('',(0.,0.,1.));
#281=DIRECTION('',(1.,0.,0.));
#282=DIRECTION('',(0.,0.,1.));
#283=DIRECTION('',(1.,0.,0.));
#284=DIRECTION('',(0.,0.,-1.));
#285=DIRECTION('',(1.,0.,0.));
#286=DIRECTION('',(0.,0.,1.));
#287=DIRECTION('',(-1.,0.,0.));
#288=DIRECTION('',(0.,0.,1.));
#289=DIRECTION('',(1.,0.,0.));
#290=DIRECTION('',(0.,0.,-1.));
#291=DIRECTION('',(-1.,0.,0.));
#292=DIRECTION('',(0.,0.,-1.));
#293=DIRECTION('',(-1.,0.,-6.79867130817611E-16));
#294=DIRECTION('',(0.,0.,-1.));
#295=DIRECTION('',(-1.,0.,0.));
#296=DIRECTION('',(0.,0.,1.));
#297=DIRECTION('',(1.,0.,0.));
#298=DIRECTION('',(0.,0.,-1.));
#299=DIRECTION('',(-1.,0.,0.));
#300=DIRECTION('',(0.,0.,-1.));
#301=DIRECTION('',(-1.,0.,1.09273919746571E-16));
#302=DIRECTION('',(0.,0.999390827019096,-0.034899496702501));
#303=DIRECTION('',(0.,-0.034899496702501,-0.999390827019096));
#304=DIRECTION('',(0.,0.731353701619168,0.681998360062501));
#305=DIRECTION('',(0.,0.681998360062501,-0.731353701619168));
#306=DIRECTION('',(0.,0.999390827019096,-0.034899496702501));
#307=DIRECTION('',(0.,-0.034899496702501,-0.999390827019096));
#308=DIRECTION('',(0.,0.681998360062498,-0.731353701619171));
#309=DIRECTION('',(0.,-0.731353701619171,-0.681998360062498));
#310=DIRECTION('',(0.,0.,-1.));
#311=DIRECTION('',(-1.,0.,0.));
#312=DIRECTION('',(-1.,0.,0.));
#313=DIRECTION('',(0.,-0.681998360062498,0.731353701619171));
#314=DIRECTION('',(0.,0.731353701619171,0.681998360062498));
#315=DIRECTION('',(1.,0.,0.));
#316=DIRECTION('',(-1.,0.,0.));
#317=DIRECTION('',(0.,-0.999390827019096,0.034899496702501));
#318=DIRECTION('',(0.,0.034899496702501,0.999390827019096));
#319=DIRECTION('',(1.,0.,0.));
#320=DIRECTION('',(0.,-0.731353701619168,-0.681998360062501));
#321=DIRECTION('',(0.,-0.681998360062501,0.731353701619168));
#322=DIRECTION('',(1.,0.,0.));
#323=DIRECTION('',(0.,0.,-1.));
#324=DIRECTION('',(1.,0.,0.));
#325=DIRECTION('',(0.,0.,-0.999999999999998));
#326=DIRECTION('',(0.,0.,-1.));
#327=DIRECTION('',(-1.,0.,0.));
#328=DIRECTION('',(0.,0.,1.));
#329=DIRECTION('',(1.,0.,0.));
#330=DIRECTION('',(0.,0.,-1.));
#331=DIRECTION('',(1.,0.,0.));
#332=DIRECTION('',(0.,0.,-1.));
#333=DIRECTION('',(-1.,0.,-3.27851446575421E-15));
#334=DIRECTION('',(0.,0.,-1.));
#335=DIRECTION('',(-1.,0.,0.));
#336=DIRECTION('',(0.,0.,1.));
#337=DIRECTION('',(1.,0.,-2.02044067180276E-17));
#338=CARTESIAN_POINT('',(0.,0.,0.));
#339=CARTESIAN_POINT('',(0.,0.,-60.));
#340=CARTESIAN_POINT('CRP',(-16.75,0.,-265.403498576041));
#341=CARTESIAN_POINT('CIP_DCSYS',(0.,0.,-271.5));
#342=CARTESIAN_POINT('',(0.,0.,-271.5));
#343=CARTESIAN_POINT('',(0.,0.,-263.833333333333));
#344=CARTESIAN_POINT('',(0.,0.,-256.166666666667));
#345=CARTESIAN_POINT('',(0.,0.,-248.5));
#346=CARTESIAN_POINT('',(-5.58231912341877,0.,-248.5));
#347=CARTESIAN_POINT('',(-11.1646382468375,0.,-248.5));
#348=CARTESIAN_POINT('',(-16.7469573702563,0.,-248.500000000009));
#349=CARTESIAN_POINT('',(-16.7479715801709,0.,-254.134499525359));
#350=CARTESIAN_POINT('',(-16.7489857900854,0.,-259.7689990507));
#351=CARTESIAN_POINT('',(-16.75,0.,-265.403498576041));
#352=CARTESIAN_POINT('',(-11.1666666666667,0.,-267.435665717361));
#353=CARTESIAN_POINT('',(-5.58333333333333,0.,-269.46783285868));
#354=CARTESIAN_POINT('',(0.,0.,-271.5));
#355=CARTESIAN_POINT('',(0.,0.,0.));
#356=CARTESIAN_POINT('',(0.,0.,-60.));
#357=CARTESIAN_POINT('',(0.,0.,-271.5));
#358=CARTESIAN_POINT('',(0.,0.,-248.5));
#359=CARTESIAN_POINT('',(16.65,0.,-248.5));
#360=CARTESIAN_POINT('',(0.,0.,-70.));
#361=CARTESIAN_POINT('',(-16.65,0.,-70.));
#362=CARTESIAN_POINT('',(0.,0.,20.9080749503476));
#363=CARTESIAN_POINT('',(0.,0.,-60.));
#364=CARTESIAN_POINT('',(-16.,0.,-60.));
#365=CARTESIAN_POINT('',(0.,0.,-70.));
#366=CARTESIAN_POINT('',(0.,0.,0.));
#367=CARTESIAN_POINT('',(-15.,0.,0.));
#368=CARTESIAN_POINT('',(-15.,0.,8.32667268468867E-16));
#369=CARTESIAN_POINT('',(0.,0.,-1.));
#370=CARTESIAN_POINT('',(-16.,0.,-1.));
#371=CARTESIAN_POINT('',(0.,0.,-1.));
#372=CARTESIAN_POINT('',(-5.39045045482675,15.0646288999782,-4.51301716791262));
#373=CARTESIAN_POINT('',(-5.38336936807677,15.0671626661629,-4.4404595976873));
#374=CARTESIAN_POINT('',(-5.36187522166332,15.0748590212785,-4.36863024139355));
#375=CARTESIAN_POINT('',(-5.33088378005514,15.0858104894482,-4.30350913383527));
#376=CARTESIAN_POINT('',(-5.29074093694812,15.0999957949944,-4.21915854322004));
#377=CARTESIAN_POINT('',(-5.23418252138736,15.119781857223,-4.14296598053895));
#378=CARTESIAN_POINT('',(-5.17091173140114,15.1413893637955,-4.07620060270335));
#379=CARTESIAN_POINT('',(-5.06020595948086,15.1791963153903,-3.95938030233329));
#380=CARTESIAN_POINT('',(-4.92628383276862,15.2234349964364,-3.86617783348767));
#381=CARTESIAN_POINT('',(-4.78720263485791,15.2670459137585,-3.78816101234017));
#382=CARTESIAN_POINT('',(-4.44558483947572,15.3741651049502,-3.59653241808368));
#383=CARTESIAN_POINT('',(-4.0605078892338,15.4812772391999,-3.48371679996908));
#384=CARTESIAN_POINT('',(-3.67404242557648,15.5724568471087,-3.39869044004595));
#385=CARTESIAN_POINT('',(-5.39045045482675,15.0646288999782,-4.51301716791262));
#386=CARTESIAN_POINT('',(-3.67404242557648,15.5724568471087,-3.39869044004595));
#387=CARTESIAN_POINT('',(0.,0.,-435.907545960818));
#388=CARTESIAN_POINT('',(-8.33463752287951,13.6577383692253,-44.801090747888));
#389=CARTESIAN_POINT('',(-7.58734230610621,14.0865977698652,-45.948127318712));
#390=CARTESIAN_POINT('',(-7.75212490229818,13.9978423454665,-45.8529487787419));
#391=CARTESIAN_POINT('',(-7.90892912456779,13.9093997531712,-45.735470777438));
#392=CARTESIAN_POINT('',(-8.03879906141891,13.8339332675176,-45.5887452074641));
#393=CARTESIAN_POINT('',(-8.11615313545508,13.7889833717986,-45.5013514589341));
#394=CARTESIAN_POINT('',(-8.18500244660927,13.7480674272843,-45.4017367751423));
#395=CARTESIAN_POINT('',(-8.23660581726443,13.7170814902809,-45.2921065921528));
#396=CARTESIAN_POINT('',(-8.27918407554366,13.6915148032214,-45.2016500543867));
#397=CARTESIAN_POINT('',(-8.31060765116349,13.6723849630141,-45.1022192599686));
#398=CARTESIAN_POINT('',(-8.3256456454834,13.6632216034815,-45.0005391716581));
#399=CARTESIAN_POINT('',(-8.33534740580156,13.6573098631255,-44.9349402742964));
#400=CARTESIAN_POINT('',(-8.33843868327078,13.6554187103498,-44.8675170869769));
#401=CARTESIAN_POINT('',(-8.33463752287951,13.6577383692253,-44.801090747888));
#402=CARTESIAN_POINT('',(-7.58734230610621,14.0865977698652,-45.948127318712));
#403=CARTESIAN_POINT('',(0.,0.,-30.8421006396052));
#404=CARTESIAN_POINT('',(7.58734230610621,14.0865977698652,-45.948127318712));
#405=CARTESIAN_POINT('',(8.33463752287951,13.6577383692253,-44.801090747888));
#406=CARTESIAN_POINT('',(8.34013347045377,13.6543844661384,-44.8971339661699));
#407=CARTESIAN_POINT('',(8.33091284684311,13.6600355382101,-44.9955967931902));
#408=CARTESIAN_POINT('',(8.30863146732458,13.6735746291957,-45.088257394449));
#409=CARTESIAN_POINT('',(8.28643022080476,13.6870650280453,-45.1805847501008));
#410=CARTESIAN_POINT('',(8.25106554703892,13.708484370905,-45.2693556857611));
#411=CARTESIAN_POINT('',(8.20707264243256,13.7347718816817,-45.3504286031335));
#412=CARTESIAN_POINT('',(8.13838960695556,13.7758127279599,-45.4770020610567));
#413=CARTESIAN_POINT('',(8.04733059966241,13.8294554376399,-45.5884652713946));
#414=CARTESIAN_POINT('',(7.94698241007609,13.8868812400028,-45.6836233963548));
#415=CARTESIAN_POINT('',(7.83773345070941,13.9494006454331,-45.7872219382919));
#416=CARTESIAN_POINT('',(7.71527826557661,14.0176887306763,-45.8742314212479));
#417=CARTESIAN_POINT('',(7.58734230610621,14.0865977698652,-45.948127318712));
#418=CARTESIAN_POINT('',(8.33463752287951,13.6577383692253,-44.801090747888));
#419=CARTESIAN_POINT('',(0.,0.,-435.907545960818));
#420=CARTESIAN_POINT('',(5.39045045482675,15.0646288999782,-4.51301716791262));
#421=CARTESIAN_POINT('',(3.67404242557648,15.5724568471087,-3.39869044004595));
#422=CARTESIAN_POINT('',(4.01276128152894,15.4925421965606,-3.47321205728547));
#423=CARTESIAN_POINT('',(4.34832874378216,15.4011742872174,-3.57010493151581));
#424=CARTESIAN_POINT('',(4.65705236814442,15.3072487155713,-3.72023153454654));
#425=CARTESIAN_POINT('',(4.77274655487153,15.2720501050118,-3.77649148316441));
#426=CARTESIAN_POINT('',(4.88519211669812,15.2363658096054,-3.84094609623311));
#427=CARTESIAN_POINT('',(4.98903669914807,15.2022864337755,-3.91739325239406));
#428=CARTESIAN_POINT('',(5.09364832181034,15.1679553331944,-3.99440507973487));
#429=CARTESIAN_POINT('',(5.1919988501508,15.134379825439,-4.08537802938074));
#430=CARTESIAN_POINT('',(5.26697588138398,15.1082416271689,-4.19376749839025));
#431=CARTESIAN_POINT('',(5.30827044602909,15.0938456781641,-4.25346439304244));
#432=CARTESIAN_POINT('',(5.34287006244838,15.0815879122911,-4.31975744082793));
#433=CARTESIAN_POINT('',(5.36505381012947,15.0736922356274,-4.38991257803782));
#434=CARTESIAN_POINT('',(5.3776466805801,15.0692101600659,-4.42973698313972));
#435=CARTESIAN_POINT('',(5.38637265167415,15.0660880262537,-4.47123325831566));
#436=CARTESIAN_POINT('',(5.39045045482675,15.0646288999782,-4.51301716791262));
#437=CARTESIAN_POINT('',(3.67404242557648,15.5724568471087,-3.39869044004595));
#438=CARTESIAN_POINT('',(0.,0.,-17.9202413782026));
#439=CARTESIAN_POINT('',(0.,0.,20.9080749503476));
#440=CARTESIAN_POINT('',(-20.,15.5724568471087,-3.39869044004595));
#441=CARTESIAN_POINT('',(-20.,17.,-2.06748491386234));
#442=CARTESIAN_POINT('',(-20.,15.0646288999782,-4.51301716791262));
#443=CARTESIAN_POINT('',(-20.,13.6577383692253,-44.801090747888));
#444=CARTESIAN_POINT('',(-20.,15.0877582517449,-3.8506791924525));
#445=CARTESIAN_POINT('',(-20.,14.0865977698652,-45.948127318712));
#446=CARTESIAN_POINT('',(-20.,13.6346090174586,-45.4634287233481));
#447=CARTESIAN_POINT('',(-20.,16.6636542232087,-4.56885636263662));
#448=CARTESIAN_POINT('',(-20.,15.2567636924559,-44.856929942612));
#449=CARTESIAN_POINT('',(0.,0.,-248.5));
#450=CARTESIAN_POINT('',(0.,0.,-265.403498576035));
#451=CARTESIAN_POINT('',(16.75,0.,-265.403498576035));
#452=CARTESIAN_POINT('',(0.,0.,-248.5));
#453=CARTESIAN_POINT('',(16.7469573702563,0.,-248.5));
#454=CARTESIAN_POINT('',(0.,0.,-275.403498576041));
#455=CARTESIAN_POINT('',(-16.7469573702563,0.,-248.5));
#456=CARTESIAN_POINT('',(-3.29429988970638E-14,0.,-271.5));
#457=CARTESIAN_POINT('',(0.,0.,-271.5));
#458=MECHANICAL_DESIGN_GEOMETRIC_PRESENTATION_REPRESENTATION('',(#220,#221,
#222,#223,#224,#225,#226,#227,#228),#459);
#459=(
GEOMETRIC_REPRESENTATION_CONTEXT(3)
GLOBAL_UNCERTAINTY_ASSIGNED_CONTEXT((#460))
GLOBAL_UNIT_ASSIGNED_CONTEXT((#466,#462,#461))
REPRESENTATION_CONTEXT('H85533.5-R95033','TOP_LEVEL_ASSEMBLY_PART')
);
#460=UNCERTAINTY_MEASURE_WITH_UNIT(LENGTH_MEASURE(0.0508),#466,
'DISTANCE_ACCURACY_VALUE','Maximum Tolerance applied to model');
#461=(
NAMED_UNIT(*)
SI_UNIT($,.STERADIAN.)
SOLID_ANGLE_UNIT()
);
#462=(
CONVERSION_BASED_UNIT('DEGREE',#464)
NAMED_UNIT(#463)
PLANE_ANGLE_UNIT()
);
#463=DIMENSIONAL_EXPONENTS(0.,0.,0.,0.,0.,0.,0.);
#464=PLANE_ANGLE_MEASURE_WITH_UNIT(PLANE_ANGLE_MEASURE(0.0174532925),#465);
#465=(
NAMED_UNIT(*)
PLANE_ANGLE_UNIT()
SI_UNIT($,.RADIAN.)
);
#466=(
LENGTH_UNIT()
NAMED_UNIT(*)
SI_UNIT(.MILLI.,.METRE.)
);
ENDSEC;
END-ISO-10303-21;
