ISO-10303-21;
HEADER;
/* Generated by software containing ST-Developer
 * from STEP Tools, Inc. (www.steptools.com) 
 */
/* OPTION: using custom schema-name function */

FILE_DESCRIPTION(
/* description */ (''),
/* implementation_level */ '2;1');

FILE_NAME(
/* name */ 'h85530.0-r95030.0_3d_light.stp',
/* time_stamp */ '2021-09-03T16:34:26+02:00',
/* author */ (''),
/* organization */ ('SMS'),
/* preprocessor_version */ 'ST-DEVELOPER v16.7',
/* originating_system */ 'SIEMENS PLM Software NX 12.0',
/* authorisation */ '');

FILE_SCHEMA (('AUTOMOTIVE_DESIGN { 1 0 10303 214 3 1 1 1 }'));
ENDSEC;

DATA;
#10=CONSTRUCTIVE_GEOMETRY_REPRESENTATION_RELATIONSHIP(
'supplemental geometry','',#26,#11);
#11=CONSTRUCTIVE_GEOMETRY_REPRESENTATION('supplemental geometry',(#249,
#250,#251),#460);
#12=GEOMETRICALLY_BOUNDED_WIREFRAME_SHAPE_REPRESENTATION(
'H85530.0-R95030.0_3D_light-None',(#27),#460);
#13=SHAPE_REPRESENTATION_RELATIONSHIP('None',
'relationship between H85530.0-R95030.0_3D_light-None and H85530.0-R95
030.0_3D_light-None',#26,#15);
#14=SHAPE_REPRESENTATION_RELATIONSHIP('None',
'relationship between H85530.0-R95030.0_3D_light-None and H85530.0-R95
030.0_3D_light-None',#26,#12);
#15=ADVANCED_BREP_SHAPE_REPRESENTATION(
'H85530.0-R95030.0_3D_light-None',(#39,#40),#460);
#16=SHAPE_DEFINITION_REPRESENTATION(#17,#26);
#17=PRODUCT_DEFINITION_SHAPE('','',#18);
#18=PRODUCT_DEFINITION(' ','',#20,#19);
#19=PRODUCT_DEFINITION_CONTEXT('part definition',#25,'design');
#20=PRODUCT_DEFINITION_FORMATION_WITH_SPECIFIED_SOURCE(' ',' ',#22,
 .NOT_KNOWN.);
#21=PRODUCT_RELATED_PRODUCT_CATEGORY('part','',(#22));
#22=PRODUCT('H85530.0-R95030.0_3D_light','H85530.0-R95030.0_3D_light',
' ',(#23));
#23=PRODUCT_CONTEXT(' ',#25,'mechanical');
#24=APPLICATION_PROTOCOL_DEFINITION('international standard',
'automotive_design',2010,#25);
#25=APPLICATION_CONTEXT(
'core data for automotive mechanical design processes');
#26=SHAPE_REPRESENTATION('H85530.0-R95030.0_3D_light-None',(#248),#460);
#27=GEOMETRIC_CURVE_SET('None',(#340,#341,#342,#212));
#28=VERTEX_LOOP('',#177);
#29=SURFACE_STYLE_USAGE(.BOTH.,#31);
#30=SURFACE_STYLE_USAGE(.BOTH.,#32);
#31=SURFACE_SIDE_STYLE('',(#33));
#32=SURFACE_SIDE_STYLE('',(#34));
#33=SURFACE_STYLE_FILL_AREA(#35);
#34=SURFACE_STYLE_FILL_AREA(#36);
#35=FILL_AREA_STYLE('',(#37));
#36=FILL_AREA_STYLE('',(#38));
#37=FILL_AREA_STYLE_COLOUR('',#246);
#38=FILL_AREA_STYLE_COLOUR('',#247);
#39=MANIFOLD_SOLID_BREP('NOCUT',#41);
#40=MANIFOLD_SOLID_BREP('CUT',#42);
#41=CLOSED_SHELL('',(#73,#74,#75,#76,#77,#78,#79,#80,#81,#82,#83));
#42=CLOSED_SHELL('',(#84,#85,#86));
#43=LINE('',#441,#47);
#44=LINE('',#443,#48);
#45=LINE('',#444,#49);
#46=LINE('',#446,#50);
#47=VECTOR('',#313,1.);
#48=VECTOR('',#316,1.);
#49=VECTOR('',#317,1.);
#50=VECTOR('',#320,1.);
#51=ELLIPSE('',#261,21.8772393775775,16.);
#52=ELLIPSE('',#262,458.459333565503,16.);
#53=ELLIPSE('',#263,23.460466970234,16.);
#54=ELLIPSE('',#264,458.459333565503,16.);
#55=PLANE('',#258);
#56=PLANE('',#266);
#57=PLANE('',#267);
#58=PLANE('',#268);
#59=PLANE('',#271);
#60=PLANE('',#275);
#61=FACE_OUTER_BOUND('',#108,.T.);
#62=FACE_OUTER_BOUND('',#114,.T.);
#63=FACE_OUTER_BOUND('',#115,.T.);
#64=FACE_OUTER_BOUND('',#116,.T.);
#65=FACE_OUTER_BOUND('',#117,.T.);
#66=FACE_OUTER_BOUND('',#118,.T.);
#67=FACE_OUTER_BOUND('',#119,.T.);
#68=FACE_OUTER_BOUND('',#122,.T.);
#69=CONICAL_SURFACE('',#256,14.8,6.84277341263095);
#70=CONICAL_SURFACE('',#260,16.,44.9999999999999);
#71=CONICAL_SURFACE('',#274,15.0018,0.010313240200977);
#72=CONICAL_SURFACE('',#276,3.09223316784707E-14,70.);
#73=ADVANCED_FACE('',(#91,#92),#87,.T.);
#74=ADVANCED_FACE('',(#93,#94),#69,.T.);
#75=ADVANCED_FACE('',(#61),#55,.T.);
#76=ADVANCED_FACE('',(#95,#96),#70,.T.);
#77=ADVANCED_FACE('CYL_FACE',(#97,#98,#99),#88,.T.);
#78=ADVANCED_FACE('',(#62),#56,.T.);
#79=ADVANCED_FACE('',(#63),#57,.T.);
#80=ADVANCED_FACE('',(#64),#58,.T.);
#81=ADVANCED_FACE('',(#65),#89,.F.);
#82=ADVANCED_FACE('',(#66),#90,.F.);
#83=ADVANCED_FACE('',(#67),#59,.T.);
#84=ADVANCED_FACE('',(#100,#101),#71,.T.);
#85=ADVANCED_FACE('',(#68),#60,.F.);
#86=ADVANCED_FACE('',(#102,#103),#72,.T.);
#87=CYLINDRICAL_SURFACE('',#254,14.8);
#88=CYLINDRICAL_SURFACE('',#265,16.);
#89=CYLINDRICAL_SURFACE('',#269,1.6);
#90=CYLINDRICAL_SURFACE('',#270,1.6);
#91=FACE_BOUND('',#104,.T.);
#92=FACE_BOUND('',#105,.T.);
#93=FACE_BOUND('',#106,.T.);
#94=FACE_BOUND('',#107,.T.);
#95=FACE_BOUND('',#109,.T.);
#96=FACE_BOUND('',#110,.T.);
#97=FACE_BOUND('',#111,.T.);
#98=FACE_BOUND('',#112,.T.);
#99=FACE_BOUND('',#113,.T.);
#100=FACE_BOUND('',#120,.T.);
#101=FACE_BOUND('',#121,.T.);
#102=FACE_BOUND('',#28,.T.);
#103=FACE_BOUND('',#123,.T.);
#104=EDGE_LOOP('',(#124));
#105=EDGE_LOOP('',(#125));
#106=EDGE_LOOP('',(#126));
#107=EDGE_LOOP('',(#127));
#108=EDGE_LOOP('',(#128));
#109=EDGE_LOOP('',(#129));
#110=EDGE_LOOP('',(#130));
#111=EDGE_LOOP('',(#131,#132,#133,#134,#135,#136,#137,#138));
#112=EDGE_LOOP('',(#139));
#113=EDGE_LOOP('',(#140));
#114=EDGE_LOOP('',(#141,#142));
#115=EDGE_LOOP('',(#143,#144,#145,#146));
#116=EDGE_LOOP('',(#147,#148));
#117=EDGE_LOOP('',(#149,#150,#151,#152));
#118=EDGE_LOOP('',(#153,#154,#155,#156));
#119=EDGE_LOOP('',(#157));
#120=EDGE_LOOP('',(#158));
#121=EDGE_LOOP('',(#159));
#122=EDGE_LOOP('',(#160));
#123=EDGE_LOOP('',(#161));
#124=ORIENTED_EDGE('',*,*,#178,.F.);
#125=ORIENTED_EDGE('',*,*,#179,.F.);
#126=ORIENTED_EDGE('',*,*,#180,.T.);
#127=ORIENTED_EDGE('',*,*,#179,.T.);
#128=ORIENTED_EDGE('',*,*,#181,.F.);
#129=ORIENTED_EDGE('',*,*,#181,.T.);
#130=ORIENTED_EDGE('',*,*,#182,.F.);
#131=ORIENTED_EDGE('',*,*,#183,.F.);
#132=ORIENTED_EDGE('',*,*,#184,.T.);
#133=ORIENTED_EDGE('',*,*,#185,.F.);
#134=ORIENTED_EDGE('',*,*,#186,.T.);
#135=ORIENTED_EDGE('',*,*,#187,.F.);
#136=ORIENTED_EDGE('',*,*,#188,.T.);
#137=ORIENTED_EDGE('',*,*,#189,.F.);
#138=ORIENTED_EDGE('',*,*,#190,.T.);
#139=ORIENTED_EDGE('',*,*,#182,.T.);
#140=ORIENTED_EDGE('',*,*,#180,.F.);
#141=ORIENTED_EDGE('',*,*,#191,.T.);
#142=ORIENTED_EDGE('',*,*,#184,.F.);
#143=ORIENTED_EDGE('',*,*,#192,.T.);
#144=ORIENTED_EDGE('',*,*,#186,.F.);
#145=ORIENTED_EDGE('',*,*,#193,.T.);
#146=ORIENTED_EDGE('',*,*,#190,.F.);
#147=ORIENTED_EDGE('',*,*,#194,.T.);
#148=ORIENTED_EDGE('',*,*,#188,.F.);
#149=ORIENTED_EDGE('',*,*,#183,.T.);
#150=ORIENTED_EDGE('',*,*,#193,.F.);
#151=ORIENTED_EDGE('',*,*,#185,.T.);
#152=ORIENTED_EDGE('',*,*,#191,.F.);
#153=ORIENTED_EDGE('',*,*,#189,.T.);
#154=ORIENTED_EDGE('',*,*,#194,.F.);
#155=ORIENTED_EDGE('',*,*,#187,.T.);
#156=ORIENTED_EDGE('',*,*,#192,.F.);
#157=ORIENTED_EDGE('',*,*,#178,.T.);
#158=ORIENTED_EDGE('',*,*,#195,.T.);
#159=ORIENTED_EDGE('',*,*,#196,.T.);
#160=ORIENTED_EDGE('',*,*,#196,.F.);
#161=ORIENTED_EDGE('',*,*,#195,.F.);
#162=VERTEX_POINT('',#360);
#163=VERTEX_POINT('',#362);
#164=VERTEX_POINT('',#365);
#165=VERTEX_POINT('',#368);
#166=VERTEX_POINT('',#371);
#167=VERTEX_POINT('',#389);
#168=VERTEX_POINT('',#390);
#169=VERTEX_POINT('',#392);
#170=VERTEX_POINT('',#406);
#171=VERTEX_POINT('',#408);
#172=VERTEX_POINT('',#422);
#173=VERTEX_POINT('',#424);
#174=VERTEX_POINT('',#438);
#175=VERTEX_POINT('',#452);
#176=VERTEX_POINT('',#454);
#177=VERTEX_POINT('',#457);
#178=EDGE_CURVE('',#162,#162,#197,.T.);
#179=EDGE_CURVE('',#163,#163,#198,.T.);
#180=EDGE_CURVE('',#164,#164,#199,.T.);
#181=EDGE_CURVE('',#165,#165,#200,.T.);
#182=EDGE_CURVE('',#166,#166,#201,.T.);
#183=EDGE_CURVE('',#167,#168,#213,.T.);
#184=EDGE_CURVE('',#167,#169,#51,.T.);
#185=EDGE_CURVE('',#170,#169,#214,.T.);
#186=EDGE_CURVE('',#170,#171,#52,.T.);
#187=EDGE_CURVE('',#172,#171,#215,.T.);
#188=EDGE_CURVE('',#172,#173,#53,.T.);
#189=EDGE_CURVE('',#174,#173,#216,.T.);
#190=EDGE_CURVE('',#174,#168,#54,.T.);
#191=EDGE_CURVE('',#167,#169,#43,.T.);
#192=EDGE_CURVE('',#174,#171,#44,.T.);
#193=EDGE_CURVE('',#170,#168,#45,.T.);
#194=EDGE_CURVE('',#172,#173,#46,.T.);
#195=EDGE_CURVE('',#175,#175,#202,.T.);
#196=EDGE_CURVE('',#176,#176,#203,.T.);
#197=CIRCLE('',#252,14.8);
#198=CIRCLE('',#253,14.8);
#199=CIRCLE('',#255,16.);
#200=CIRCLE('',#257,15.);
#201=CIRCLE('',#259,16.);
#202=CIRCLE('',#272,15.);
#203=CIRCLE('',#273,14.9975627196325);
#204=CURVE_STYLE('',#208,POSITIVE_LENGTH_MEASURE(0.18),#218);
#205=CURVE_STYLE('',#209,POSITIVE_LENGTH_MEASURE(0.13),#245);
#206=CURVE_STYLE('',#210,POSITIVE_LENGTH_MEASURE(0.18),#244);
#207=CURVE_STYLE('',#211,POSITIVE_LENGTH_MEASURE(0.18),#244);
#208=DRAUGHTING_PRE_DEFINED_CURVE_FONT('continuous');
#209=DRAUGHTING_PRE_DEFINED_CURVE_FONT('continuous');
#210=DRAUGHTING_PRE_DEFINED_CURVE_FONT('continuous');
#211=DRAUGHTING_PRE_DEFINED_CURVE_FONT('continuous');
#212=B_SPLINE_CURVE_WITH_KNOTS('CUTTING PART LINE',3,(#343,#344,#345,#346,
#347,#348,#349,#350,#351,#352,#353,#354,#355),.UNSPECIFIED.,.T.,.F.,(4,
3,3,3,4),(0.,0.299209413083089,0.535388988821613,0.748622099958296,1.),
 .UNSPECIFIED.);
#213=B_SPLINE_CURVE_WITH_KNOTS('',3,(#373,#374,#375,#376,#377,#378,#379,
#380,#381,#382,#383,#384,#385,#386,#387,#388),.UNSPECIFIED.,.F.,.F.,(4,
3,3,3,3,4),(0.,0.482288237617616,0.662012399879199,0.844157231180557,0.943841010710756,
1.),.UNSPECIFIED.);
#214=B_SPLINE_CURVE_WITH_KNOTS('',3,(#393,#394,#395,#396,#397,#398,#399,
#400,#401,#402,#403,#404,#405),.UNSPECIFIED.,.F.,.F.,(4,3,3,3,4),(0.,0.0981907941241538,
0.225343381255018,0.448505422443364,1.),.UNSPECIFIED.);
#215=B_SPLINE_CURVE_WITH_KNOTS('',3,(#409,#410,#411,#412,#413,#414,#415,
#416,#417,#418,#419,#420,#421),.UNSPECIFIED.,.F.,.F.,(4,3,3,3,4),(0.,0.417392864732186,
0.664904253509585,0.869204552832247,1.),.UNSPECIFIED.);
#216=B_SPLINE_CURVE_WITH_KNOTS('',3,(#425,#426,#427,#428,#429,#430,#431,
#432,#433,#434,#435,#436,#437),.UNSPECIFIED.,.F.,.F.,(4,3,3,3,4),(0.,0.190725953457416,
0.380210617369604,0.677552516524726,1.),.UNSPECIFIED.);
#217=DRAUGHTING_PRE_DEFINED_COLOUR('white');
#218=DRAUGHTING_PRE_DEFINED_COLOUR('blue');
#219=PRESENTATION_LAYER_ASSIGNMENT('1','Layer 1',(#340,#341,#342,#212,#249,
#250,#251,#39,#40));
#220=STYLED_ITEM('',(#229),#340);
#221=STYLED_ITEM('',(#230),#341);
#222=STYLED_ITEM('',(#231),#342);
#223=STYLED_ITEM('',(#232),#212);
#224=STYLED_ITEM('',(#233),#249);
#225=STYLED_ITEM('',(#234),#250);
#226=STYLED_ITEM('',(#235),#251);
#227=STYLED_ITEM('',(#236),#39);
#228=STYLED_ITEM('',(#237),#40);
#229=PRESENTATION_STYLE_ASSIGNMENT((#238));
#230=PRESENTATION_STYLE_ASSIGNMENT((#239));
#231=PRESENTATION_STYLE_ASSIGNMENT((#240));
#232=PRESENTATION_STYLE_ASSIGNMENT((#204));
#233=PRESENTATION_STYLE_ASSIGNMENT((#205));
#234=PRESENTATION_STYLE_ASSIGNMENT((#206));
#235=PRESENTATION_STYLE_ASSIGNMENT((#207));
#236=PRESENTATION_STYLE_ASSIGNMENT((#29));
#237=PRESENTATION_STYLE_ASSIGNMENT((#30));
#238=POINT_STYLE('',#241,POSITIVE_LENGTH_MEASURE(3.),#244);
#239=POINT_STYLE('',#242,POSITIVE_LENGTH_MEASURE(3.),#217);
#240=POINT_STYLE('',#243,POSITIVE_LENGTH_MEASURE(3.),#244);
#241=PRE_DEFINED_POINT_MARKER_SYMBOL('plus');
#242=PRE_DEFINED_POINT_MARKER_SYMBOL('plus');
#243=PRE_DEFINED_POINT_MARKER_SYMBOL('plus');
#244=COLOUR_RGB('Medium Maroon',0.6,0.4,0.4);
#245=COLOUR_RGB('Silver Gray',0.6,0.6,0.6);
#246=COLOUR_RGB('TLS_NOCUT',0.498023956664378,0.498023956664378,0.498023956664378);
#247=COLOUR_RGB('TLS_CUT',0.8,0.8,0.8);
#248=AXIS2_PLACEMENT_3D('',#339,#277,#278);
#249=AXIS2_PLACEMENT_3D('PCS',#356,#279,#280);
#250=AXIS2_PLACEMENT_3D('MCS',#357,#281,#282);
#251=AXIS2_PLACEMENT_3D('CIP',#358,#283,#284);
#252=AXIS2_PLACEMENT_3D('',#359,#285,#286);
#253=AXIS2_PLACEMENT_3D('',#361,#287,#288);
#254=AXIS2_PLACEMENT_3D('',#363,#289,#290);
#255=AXIS2_PLACEMENT_3D('',#364,#291,#292);
#256=AXIS2_PLACEMENT_3D('',#366,#293,#294);
#257=AXIS2_PLACEMENT_3D('',#367,#295,#296);
#258=AXIS2_PLACEMENT_3D('',#369,#297,#298);
#259=AXIS2_PLACEMENT_3D('',#370,#299,#300);
#260=AXIS2_PLACEMENT_3D('',#372,#301,#302);
#261=AXIS2_PLACEMENT_3D('',#391,#303,#304);
#262=AXIS2_PLACEMENT_3D('',#407,#305,#306);
#263=AXIS2_PLACEMENT_3D('',#423,#307,#308);
#264=AXIS2_PLACEMENT_3D('',#439,#309,#310);
#265=AXIS2_PLACEMENT_3D('',#440,#311,#312);
#266=AXIS2_PLACEMENT_3D('',#442,#314,#315);
#267=AXIS2_PLACEMENT_3D('',#445,#318,#319);
#268=AXIS2_PLACEMENT_3D('',#447,#321,#322);
#269=AXIS2_PLACEMENT_3D('',#448,#323,#324);
#270=AXIS2_PLACEMENT_3D('',#449,#325,#326);
#271=AXIS2_PLACEMENT_3D('',#450,#327,#328);
#272=AXIS2_PLACEMENT_3D('',#451,#329,#330);
#273=AXIS2_PLACEMENT_3D('',#453,#331,#332);
#274=AXIS2_PLACEMENT_3D('',#455,#333,#334);
#275=AXIS2_PLACEMENT_3D('',#456,#335,#336);
#276=AXIS2_PLACEMENT_3D('',#458,#337,#338);
#277=DIRECTION('',(0.,0.,1.));
#278=DIRECTION('',(1.,0.,0.));
#279=DIRECTION('',(0.,0.,1.));
#280=DIRECTION('',(1.,0.,0.));
#281=DIRECTION('',(0.,0.,1.));
#282=DIRECTION('',(1.,0.,0.));
#283=DIRECTION('',(0.,0.,1.));
#284=DIRECTION('',(1.,0.,0.));
#285=DIRECTION('',(0.,0.,-1.));
#286=DIRECTION('',(1.,0.,0.));
#287=DIRECTION('',(0.,0.,1.));
#288=DIRECTION('',(-1.,0.,0.));
#289=DIRECTION('',(0.,0.,1.));
#290=DIRECTION('',(1.,0.,0.));
#291=DIRECTION('',(0.,0.,-1.));
#292=DIRECTION('',(-1.,0.,0.));
#293=DIRECTION('',(0.,0.,1.));
#294=DIRECTION('',(1.,0.,-4.11803792516749E-16));
#295=DIRECTION('',(0.,0.,-1.));
#296=DIRECTION('',(-1.,0.,0.));
#297=DIRECTION('',(0.,0.,1.));
#298=DIRECTION('',(1.,0.,0.));
#299=DIRECTION('',(0.,0.,-1.));
#300=DIRECTION('',(-1.,0.,0.));
#301=DIRECTION('',(0.,0.,-1.));
#302=DIRECTION('',(-1.,0.,1.09273919746571E-16));
#303=DIRECTION('',(0.,0.681998360062499,0.73135370161917));
#304=DIRECTION('',(0.,0.73135370161917,-0.681998360062499));
#305=DIRECTION('',(0.,0.999390827019096,0.0348994967025009));
#306=DIRECTION('',(0.,0.0348994967025009,-0.999390827019096));
#307=DIRECTION('',(0.,0.73135370161917,-0.681998360062499));
#308=DIRECTION('',(0.,-0.681998360062499,-0.73135370161917));
#309=DIRECTION('',(0.,0.999390827019096,0.0348994967025009));
#310=DIRECTION('',(0.,0.0348994967025009,-0.999390827019096));
#311=DIRECTION('',(0.,0.,-1.));
#312=DIRECTION('',(-1.,0.,0.));
#313=DIRECTION('',(1.,0.,0.));
#314=DIRECTION('',(0.,-0.681998360062499,-0.73135370161917));
#315=DIRECTION('',(0.,-0.73135370161917,0.681998360062499));
#316=DIRECTION('',(1.,0.,0.));
#317=DIRECTION('',(-1.,0.,0.));
#318=DIRECTION('',(0.,-0.999390827019096,-0.0348994967025009));
#319=DIRECTION('',(0.,-0.0348994967025009,0.999390827019096));
#320=DIRECTION('',(-1.,0.,0.));
#321=DIRECTION('',(0.,-0.73135370161917,0.681998360062499));
#322=DIRECTION('',(0.,0.681998360062499,0.73135370161917));
#323=DIRECTION('',(1.,0.,0.));
#324=DIRECTION('',(0.,0.,-1.));
#325=DIRECTION('',(1.,0.,0.));
#326=DIRECTION('',(0.,0.,-0.999999999999998));
#327=DIRECTION('',(0.,0.,-1.));
#328=DIRECTION('',(-1.,0.,0.));
#329=DIRECTION('',(0.,0.,1.));
#330=DIRECTION('',(1.,0.,0.));
#331=DIRECTION('',(0.,0.,-1.));
#332=DIRECTION('',(1.,0.,0.));
#333=DIRECTION('',(0.,0.,-1.));
#334=DIRECTION('',(-1.,0.,3.65642751394811E-15));
#335=DIRECTION('',(0.,0.,-1.));
#336=DIRECTION('',(-1.,0.,0.));
#337=DIRECTION('',(0.,0.,1.));
#338=DIRECTION('',(1.,0.,0.));
#339=CARTESIAN_POINT('',(0.,0.,0.));
#340=CARTESIAN_POINT('',(0.,0.,-60.));
#341=CARTESIAN_POINT('CRP',(-15.,0.,-249.540446486007));
#342=CARTESIAN_POINT('CIP_DCSYS',(0.,0.,-255.));
#343=CARTESIAN_POINT('',(0.,0.,-255.));
#344=CARTESIAN_POINT('',(0.,0.,-248.666666666667));
#345=CARTESIAN_POINT('',(0.,0.,-242.333333333333));
#346=CARTESIAN_POINT('',(0.,0.,-236.));
#347=CARTESIAN_POINT('',(-4.99918757321084,0.,-236.));
#348=CARTESIAN_POINT('',(-9.99837514642168,0.,-236.));
#349=CARTESIAN_POINT('',(-14.9975627196325,0.,-236.000000000012));
#350=CARTESIAN_POINT('',(-14.9983751464217,0.,-240.513482162019));
#351=CARTESIAN_POINT('',(-14.9991875732108,0.,-245.026964324013));
#352=CARTESIAN_POINT('',(-15.,0.,-249.540446486007));
#353=CARTESIAN_POINT('',(-10.,0.,-251.360297657338));
#354=CARTESIAN_POINT('',(-5.,0.,-253.180148828669));
#355=CARTESIAN_POINT('',(0.,0.,-255.));
#356=CARTESIAN_POINT('',(0.,0.,0.));
#357=CARTESIAN_POINT('',(0.,0.,-60.));
#358=CARTESIAN_POINT('',(0.,0.,-255.));
#359=CARTESIAN_POINT('',(0.,0.,-236.));
#360=CARTESIAN_POINT('',(14.8,0.,-236.));
#361=CARTESIAN_POINT('',(0.,0.,-70.));
#362=CARTESIAN_POINT('',(-14.8,0.,-70.));
#363=CARTESIAN_POINT('',(0.,0.,20.9080749503476));
#364=CARTESIAN_POINT('',(0.,0.,-60.));
#365=CARTESIAN_POINT('',(-16.,0.,-60.));
#366=CARTESIAN_POINT('',(0.,0.,-70.));
#367=CARTESIAN_POINT('',(0.,0.,0.));
#368=CARTESIAN_POINT('',(-15.,0.,0.));
#369=CARTESIAN_POINT('',(-15.,0.,8.32667268468867E-16));
#370=CARTESIAN_POINT('',(0.,0.,-1.));
#371=CARTESIAN_POINT('',(-16.,0.,-1.));
#372=CARTESIAN_POINT('',(0.,0.,-1.));
#373=CARTESIAN_POINT('',(-3.67404242557649,-15.5724568471087,-3.39869044004595));
#374=CARTESIAN_POINT('',(-4.01276128152894,-15.4925421965606,-3.47321205728547));
#375=CARTESIAN_POINT('',(-4.34832874378216,-15.4011742872174,-3.57010493151581));
#376=CARTESIAN_POINT('',(-4.65705236814442,-15.3072487155713,-3.72023153454654));
#377=CARTESIAN_POINT('',(-4.77274655487153,-15.2720501050118,-3.77649148316441));
#378=CARTESIAN_POINT('',(-4.88519211669812,-15.2363658096054,-3.84094609623311));
#379=CARTESIAN_POINT('',(-4.98903669914807,-15.2022864337755,-3.91739325239406));
#380=CARTESIAN_POINT('',(-5.09364832181035,-15.1679553331944,-3.99440507973487));
#381=CARTESIAN_POINT('',(-5.19199885015079,-15.134379825439,-4.08537802938075));
#382=CARTESIAN_POINT('',(-5.26697588138398,-15.1082416271689,-4.19376749839025));
#383=CARTESIAN_POINT('',(-5.30827044602909,-15.0938456781641,-4.25346439304244));
#384=CARTESIAN_POINT('',(-5.34287006244837,-15.0815879122911,-4.31975744082794));
#385=CARTESIAN_POINT('',(-5.36505381012947,-15.0736922356274,-4.38991257803783));
#386=CARTESIAN_POINT('',(-5.3776466805801,-15.0692101600659,-4.42973698313973));
#387=CARTESIAN_POINT('',(-5.38637265167416,-15.0660880262537,-4.47123325831567));
#388=CARTESIAN_POINT('',(-5.39045045482675,-15.0646288999782,-4.51301716791262));
#389=CARTESIAN_POINT('',(-3.67404242557649,-15.5724568471087,-3.39869044004595));
#390=CARTESIAN_POINT('',(-5.39045045482675,-15.0646288999782,-4.51301716791262));
#391=CARTESIAN_POINT('',(0.,0.,-17.9202413782026));
#392=CARTESIAN_POINT('',(3.67404242557649,-15.5724568471087,-3.39869044004595));
#393=CARTESIAN_POINT('',(5.39045045482675,-15.0646288999782,-4.51301716791262));
#394=CARTESIAN_POINT('',(5.38336936807677,-15.0671626661629,-4.4404595976873));
#395=CARTESIAN_POINT('',(5.36187522166332,-15.0748590212785,-4.36863024139355));
#396=CARTESIAN_POINT('',(5.33088378005514,-15.0858104894482,-4.30350913383527));
#397=CARTESIAN_POINT('',(5.29074093694813,-15.0999957949944,-4.21915854322004));
#398=CARTESIAN_POINT('',(5.23418252138736,-15.119781857223,-4.14296598053896));
#399=CARTESIAN_POINT('',(5.17091173140115,-15.1413893637955,-4.07620060270335));
#400=CARTESIAN_POINT('',(5.06020595948087,-15.1791963153903,-3.9593803023333));
#401=CARTESIAN_POINT('',(4.92628383276863,-15.2234349964364,-3.86617783348768));
#402=CARTESIAN_POINT('',(4.78720263485793,-15.2670459137585,-3.78816101234018));
#403=CARTESIAN_POINT('',(4.44558483947574,-15.3741651049502,-3.59653241808369));
#404=CARTESIAN_POINT('',(4.06050788923381,-15.4812772391999,-3.48371679996909));
#405=CARTESIAN_POINT('',(3.67404242557649,-15.5724568471087,-3.39869044004595));
#406=CARTESIAN_POINT('',(5.39045045482675,-15.0646288999782,-4.51301716791262));
#407=CARTESIAN_POINT('',(0.,0.,-435.90754596082));
#408=CARTESIAN_POINT('',(8.3346375228795,-13.6577383692253,-44.801090747888));
#409=CARTESIAN_POINT('',(7.58734230610621,-14.0865977698652,-45.948127318712));
#410=CARTESIAN_POINT('',(7.75212490229818,-13.9978423454665,-45.8529487787419));
#411=CARTESIAN_POINT('',(7.90892912456778,-13.9093997531712,-45.735470777438));
#412=CARTESIAN_POINT('',(8.0387990614189,-13.8339332675176,-45.588745207464));
#413=CARTESIAN_POINT('',(8.11615313545507,-13.7889833717986,-45.5013514589341));
#414=CARTESIAN_POINT('',(8.18500244660926,-13.7480674272843,-45.4017367751422));
#415=CARTESIAN_POINT('',(8.23660581726443,-13.7170814902809,-45.2921065921528));
#416=CARTESIAN_POINT('',(8.27918407554366,-13.6915148032214,-45.2016500543867));
#417=CARTESIAN_POINT('',(8.31060765116349,-13.6723849630141,-45.1022192599686));
#418=CARTESIAN_POINT('',(8.32564564548339,-13.6632216034815,-45.0005391716581));
#419=CARTESIAN_POINT('',(8.33534740580155,-13.6573098631255,-44.9349402742964));
#420=CARTESIAN_POINT('',(8.33843868327076,-13.6554187103498,-44.8675170869769));
#421=CARTESIAN_POINT('',(8.3346375228795,-13.6577383692253,-44.801090747888));
#422=CARTESIAN_POINT('',(7.58734230610621,-14.0865977698652,-45.948127318712));
#423=CARTESIAN_POINT('',(0.,0.,-30.8421006396051));
#424=CARTESIAN_POINT('',(-7.58734230610621,-14.0865977698652,-45.948127318712));
#425=CARTESIAN_POINT('',(-8.3346375228795,-13.6577383692253,-44.801090747888));
#426=CARTESIAN_POINT('',(-8.34013347045375,-13.6543844661384,-44.8971339661699));
#427=CARTESIAN_POINT('',(-8.33091284684309,-13.6600355382101,-44.9955967931902));
#428=CARTESIAN_POINT('',(-8.30863146732457,-13.6735746291957,-45.088257394449));
#429=CARTESIAN_POINT('',(-8.28643022080475,-13.6870650280453,-45.1805847501008));
#430=CARTESIAN_POINT('',(-8.25106554703891,-13.708484370905,-45.269355685761));
#431=CARTESIAN_POINT('',(-8.20707264243254,-13.7347718816817,-45.3504286031335));
#432=CARTESIAN_POINT('',(-8.13838960695555,-13.77581272796,-45.4770020610567));
#433=CARTESIAN_POINT('',(-8.0473305996624,-13.8294554376399,-45.5884652713946));
#434=CARTESIAN_POINT('',(-7.94698241007606,-13.8868812400028,-45.6836233963548));
#435=CARTESIAN_POINT('',(-7.8377334507094,-13.9494006454331,-45.7872219382919));
#436=CARTESIAN_POINT('',(-7.7152782655766,-14.0176887306763,-45.8742314212479));
#437=CARTESIAN_POINT('',(-7.58734230610621,-14.0865977698652,-45.948127318712));
#438=CARTESIAN_POINT('',(-8.3346375228795,-13.6577383692253,-44.801090747888));
#439=CARTESIAN_POINT('',(0.,0.,-435.90754596082));
#440=CARTESIAN_POINT('',(0.,0.,20.9080749503476));
#441=CARTESIAN_POINT('',(-20.,-15.5724568471087,-3.39869044004595));
#442=CARTESIAN_POINT('',(-20.,-17.,-2.06748491386233));
#443=CARTESIAN_POINT('',(-20.,-13.6577383692253,-44.801090747888));
#444=CARTESIAN_POINT('',(-20.,-15.0646288999782,-4.51301716791262));
#445=CARTESIAN_POINT('',(-20.,-15.0877582517449,-3.8506791924525));
#446=CARTESIAN_POINT('',(-20.,-14.0865977698652,-45.948127318712));
#447=CARTESIAN_POINT('',(-20.,-13.6346090174586,-45.4634287233481));
#448=CARTESIAN_POINT('',(-20.,-16.6636542232087,-4.56885636263662));
#449=CARTESIAN_POINT('',(-20.,-15.2567636924559,-44.856929942612));
#450=CARTESIAN_POINT('',(0.,0.,-236.));
#451=CARTESIAN_POINT('',(0.,0.,-249.540446486009));
#452=CARTESIAN_POINT('',(15.,0.,-249.540446486009));
#453=CARTESIAN_POINT('',(0.,0.,-236.));
#454=CARTESIAN_POINT('',(14.9975627196325,0.,-236.));
#455=CARTESIAN_POINT('',(0.,0.,-259.540446486007));
#456=CARTESIAN_POINT('',(-14.9975627196325,0.,-236.));
#457=CARTESIAN_POINT('',(-3.09223316784707E-14,0.,-255.));
#458=CARTESIAN_POINT('',(0.,0.,-255.));
#459=MECHANICAL_DESIGN_GEOMETRIC_PRESENTATION_REPRESENTATION('',(#220,#221,
#222,#223,#224,#225,#226,#227,#228),#460);
#460=(
GEOMETRIC_REPRESENTATION_CONTEXT(3)
GLOBAL_UNCERTAINTY_ASSIGNED_CONTEXT((#461))
GLOBAL_UNIT_ASSIGNED_CONTEXT((#467,#463,#462))
REPRESENTATION_CONTEXT('h85530.0-r95030','TOP_LEVEL_ASSEMBLY_PART')
);
#461=UNCERTAINTY_MEASURE_WITH_UNIT(LENGTH_MEASURE(0.0508),#467,
'DISTANCE_ACCURACY_VALUE','Maximum Tolerance applied to model');
#462=(
NAMED_UNIT(*)
SI_UNIT($,.STERADIAN.)
SOLID_ANGLE_UNIT()
);
#463=(
CONVERSION_BASED_UNIT('DEGREE',#465)
NAMED_UNIT(#464)
PLANE_ANGLE_UNIT()
);
#464=DIMENSIONAL_EXPONENTS(0.,0.,0.,0.,0.,0.,0.);
#465=PLANE_ANGLE_MEASURE_WITH_UNIT(PLANE_ANGLE_MEASURE(0.0174532925),#466);
#466=(
NAMED_UNIT(*)
PLANE_ANGLE_UNIT()
SI_UNIT($,.RADIAN.)
);
#467=(
LENGTH_UNIT()
NAMED_UNIT(*)
SI_UNIT(.MILLI.,.METRE.)
);
ENDSEC;
END-ISO-10303-21;
