ISO-10303-21;
HEADER;
/* Generated by software containing ST-Developer
 * from STEP Tools, Inc. (www.steptools.com) 
 */
/* OPTION: using custom schema-name function */

FILE_DESCRIPTION(
/* description */ (''),
/* implementation_level */ '2;1');

FILE_NAME(
/* name */ 'H85342.5-R95042.0_3D_LIGHT.STP',
/* time_stamp */ '2022-09-02T21:55:43+02:00',
/* author */ (''),
/* organization */ ('SMS'),
/* preprocessor_version */ 'ST-DEVELOPER v16.7',
/* originating_system */ 'SIEMENS PLM Software NX 12.0',
/* authorisation */ '');

FILE_SCHEMA (('AUTOMOTIVE_DESIGN { 1 0 10303 214 3 1 1 1 }'));
ENDSEC;

DATA;
#10=CONSTRUCTIVE_GEOMETRY_REPRESENTATION_RELATIONSHIP(
'supplemental geometry','',#26,#11);
#11=CONSTRUCTIVE_GEOMETRY_REPRESENTATION('supplemental geometry',(#212,
#213,#214),#348);
#12=GEOMETRICALLY_BOUNDED_WIREFRAME_SHAPE_REPRESENTATION(
'H85342.5-R95042.0_3D_light-None',(#27),#348);
#13=SHAPE_REPRESENTATION_RELATIONSHIP('None',
'relationship between H85342.5-R95042.0_3D_light-None and H85342.5-R95
042.0_3D_light-None',#26,#15);
#14=SHAPE_REPRESENTATION_RELATIONSHIP('None',
'relationship between H85342.5-R95042.0_3D_light-None and H85342.5-R95
042.0_3D_light-None',#26,#12);
#15=ADVANCED_BREP_SHAPE_REPRESENTATION(
'H85342.5-R95042.0_3D_light-None',(#39,#40),#348);
#16=SHAPE_DEFINITION_REPRESENTATION(#17,#26);
#17=PRODUCT_DEFINITION_SHAPE('','',#18);
#18=PRODUCT_DEFINITION(' ','',#20,#19);
#19=PRODUCT_DEFINITION_CONTEXT('part definition',#25,'design');
#20=PRODUCT_DEFINITION_FORMATION_WITH_SPECIFIED_SOURCE(' ',' ',#22,
 .NOT_KNOWN.);
#21=PRODUCT_RELATED_PRODUCT_CATEGORY('part','',(#22));
#22=PRODUCT('H85342.5-R95042.0_3D_light','H85342.5-R95042.0_3D_light',
' ',(#23));
#23=PRODUCT_CONTEXT(' ',#25,'mechanical');
#24=APPLICATION_PROTOCOL_DEFINITION('international standard',
'automotive_design',2010,#25);
#25=APPLICATION_CONTEXT(
'core data for automotive mechanical design processes');
#26=SHAPE_REPRESENTATION('H85342.5-R95042.0_3D_light-None',(#211),#348);
#27=GEOMETRIC_CURVE_SET('None',(#291,#292,#293,#180));
#28=VERTEX_LOOP('',#151);
#29=SURFACE_STYLE_USAGE(.BOTH.,#31);
#30=SURFACE_STYLE_USAGE(.BOTH.,#32);
#31=SURFACE_SIDE_STYLE('',(#33));
#32=SURFACE_SIDE_STYLE('',(#34));
#33=SURFACE_STYLE_FILL_AREA(#35);
#34=SURFACE_STYLE_FILL_AREA(#36);
#35=FILL_AREA_STYLE('',(#37));
#36=FILL_AREA_STYLE('',(#38));
#37=FILL_AREA_STYLE_COLOUR('',#210);
#38=FILL_AREA_STYLE_COLOUR('',#210);
#39=MANIFOLD_SOLID_BREP('NOCUT',#41);
#40=MANIFOLD_SOLID_BREP('CUT',#42);
#41=CLOSED_SHELL('',(#59,#60,#61,#62,#63,#64,#65,#66,#67));
#42=CLOSED_SHELL('',(#68,#69,#70));
#43=PLANE('',#225);
#44=PLANE('',#227);
#45=PLANE('',#228);
#46=PLANE('',#229);
#47=PLANE('',#230);
#48=PLANE('',#234);
#49=FACE_OUTER_BOUND('',#103,.T.);
#50=FACE_OUTER_BOUND('',#106,.T.);
#51=FACE_OUTER_BOUND('',#107,.T.);
#52=FACE_OUTER_BOUND('',#108,.T.);
#53=FACE_OUTER_BOUND('',#109,.T.);
#54=FACE_OUTER_BOUND('',#112,.T.);
#55=CONICAL_SURFACE('',#223,19.65,2.00453403210589);
#56=CONICAL_SURFACE('',#226,20.,44.9999999999999);
#57=CONICAL_SURFACE('',#233,21.0018,0.0103132402009865);
#58=CONICAL_SURFACE('',#235,3.05059517667606E-14,69.9999999999999);
#59=ADVANCED_FACE('CYL_FACE',(#83,#84,#85),#71,.T.);
#60=ADVANCED_FACE('',(#86,#87),#72,.T.);
#61=ADVANCED_FACE('',(#88,#89),#55,.T.);
#62=ADVANCED_FACE('',(#49),#43,.T.);
#63=ADVANCED_FACE('',(#90,#91),#56,.T.);
#64=ADVANCED_FACE('',(#50),#44,.T.);
#65=ADVANCED_FACE('',(#51),#45,.T.);
#66=ADVANCED_FACE('',(#52),#46,.T.);
#67=ADVANCED_FACE('',(#53),#47,.T.);
#68=ADVANCED_FACE('',(#92,#93),#57,.T.);
#69=ADVANCED_FACE('',(#54),#48,.F.);
#70=ADVANCED_FACE('',(#94,#95),#58,.T.);
#71=CYLINDRICAL_SURFACE('',#219,20.);
#72=CYLINDRICAL_SURFACE('',#222,19.65);
#73=ELLIPSE('',#217,27.3465492219719,20.);
#74=ELLIPSE('',#218,29.3255837127926,20.);
#75=LINE('',#314,#79);
#76=LINE('',#319,#80);
#77=LINE('',#333,#81);
#78=LINE('',#335,#82);
#79=VECTOR('',#248,1.);
#80=VECTOR('',#251,1.);
#81=VECTOR('',#270,1.);
#82=VECTOR('',#273,1.);
#83=FACE_BOUND('',#96,.T.);
#84=FACE_BOUND('',#97,.T.);
#85=FACE_BOUND('',#98,.T.);
#86=FACE_BOUND('',#99,.T.);
#87=FACE_BOUND('',#100,.T.);
#88=FACE_BOUND('',#101,.T.);
#89=FACE_BOUND('',#102,.T.);
#90=FACE_BOUND('',#104,.T.);
#91=FACE_BOUND('',#105,.T.);
#92=FACE_BOUND('',#110,.T.);
#93=FACE_BOUND('',#111,.T.);
#94=FACE_BOUND('',#28,.T.);
#95=FACE_BOUND('',#113,.T.);
#96=EDGE_LOOP('',(#114));
#97=EDGE_LOOP('',(#115));
#98=EDGE_LOOP('',(#116,#117,#118,#119));
#99=EDGE_LOOP('',(#120));
#100=EDGE_LOOP('',(#121));
#101=EDGE_LOOP('',(#122));
#102=EDGE_LOOP('',(#123));
#103=EDGE_LOOP('',(#124));
#104=EDGE_LOOP('',(#125));
#105=EDGE_LOOP('',(#126));
#106=EDGE_LOOP('',(#127,#128));
#107=EDGE_LOOP('',(#129,#130,#131,#132));
#108=EDGE_LOOP('',(#133,#134));
#109=EDGE_LOOP('',(#135));
#110=EDGE_LOOP('',(#136));
#111=EDGE_LOOP('',(#137));
#112=EDGE_LOOP('',(#138));
#113=EDGE_LOOP('',(#139));
#114=ORIENTED_EDGE('',*,*,#152,.T.);
#115=ORIENTED_EDGE('',*,*,#153,.F.);
#116=ORIENTED_EDGE('',*,*,#154,.T.);
#117=ORIENTED_EDGE('',*,*,#155,.T.);
#118=ORIENTED_EDGE('',*,*,#156,.T.);
#119=ORIENTED_EDGE('',*,*,#157,.T.);
#120=ORIENTED_EDGE('',*,*,#158,.F.);
#121=ORIENTED_EDGE('',*,*,#159,.F.);
#122=ORIENTED_EDGE('',*,*,#153,.T.);
#123=ORIENTED_EDGE('',*,*,#159,.T.);
#124=ORIENTED_EDGE('',*,*,#160,.F.);
#125=ORIENTED_EDGE('',*,*,#160,.T.);
#126=ORIENTED_EDGE('',*,*,#152,.F.);
#127=ORIENTED_EDGE('',*,*,#161,.T.);
#128=ORIENTED_EDGE('',*,*,#155,.F.);
#129=ORIENTED_EDGE('',*,*,#162,.T.);
#130=ORIENTED_EDGE('',*,*,#156,.F.);
#131=ORIENTED_EDGE('',*,*,#161,.F.);
#132=ORIENTED_EDGE('',*,*,#154,.F.);
#133=ORIENTED_EDGE('',*,*,#162,.F.);
#134=ORIENTED_EDGE('',*,*,#157,.F.);
#135=ORIENTED_EDGE('',*,*,#158,.T.);
#136=ORIENTED_EDGE('',*,*,#163,.T.);
#137=ORIENTED_EDGE('',*,*,#164,.T.);
#138=ORIENTED_EDGE('',*,*,#164,.F.);
#139=ORIENTED_EDGE('',*,*,#163,.F.);
#140=VERTEX_POINT('',#311);
#141=VERTEX_POINT('',#313);
#142=VERTEX_POINT('',#315);
#143=VERTEX_POINT('',#316);
#144=VERTEX_POINT('',#318);
#145=VERTEX_POINT('',#320);
#146=VERTEX_POINT('',#324);
#147=VERTEX_POINT('',#326);
#148=VERTEX_POINT('',#330);
#149=VERTEX_POINT('',#340);
#150=VERTEX_POINT('',#342);
#151=VERTEX_POINT('',#345);
#152=EDGE_CURVE('',#140,#140,#165,.T.);
#153=EDGE_CURVE('',#141,#141,#166,.T.);
#154=EDGE_CURVE('',#142,#143,#75,.T.);
#155=EDGE_CURVE('',#143,#144,#73,.T.);
#156=EDGE_CURVE('',#144,#145,#76,.T.);
#157=EDGE_CURVE('',#145,#142,#74,.T.);
#158=EDGE_CURVE('',#146,#146,#167,.T.);
#159=EDGE_CURVE('',#147,#147,#168,.T.);
#160=EDGE_CURVE('',#148,#148,#169,.T.);
#161=EDGE_CURVE('',#143,#144,#77,.T.);
#162=EDGE_CURVE('',#142,#145,#78,.T.);
#163=EDGE_CURVE('',#149,#149,#170,.T.);
#164=EDGE_CURVE('',#150,#150,#171,.T.);
#165=CIRCLE('',#215,20.);
#166=CIRCLE('',#216,20.);
#167=CIRCLE('',#220,19.65);
#168=CIRCLE('',#221,19.65);
#169=CIRCLE('',#224,19.);
#170=CIRCLE('',#231,21.);
#171=CIRCLE('',#232,20.9965158074855);
#172=CURVE_STYLE('',#176,POSITIVE_LENGTH_MEASURE(0.18),#182);
#173=CURVE_STYLE('',#177,POSITIVE_LENGTH_MEASURE(0.13),#209);
#174=CURVE_STYLE('',#178,POSITIVE_LENGTH_MEASURE(0.18),#208);
#175=CURVE_STYLE('',#179,POSITIVE_LENGTH_MEASURE(0.18),#208);
#176=DRAUGHTING_PRE_DEFINED_CURVE_FONT('continuous');
#177=DRAUGHTING_PRE_DEFINED_CURVE_FONT('continuous');
#178=DRAUGHTING_PRE_DEFINED_CURVE_FONT('continuous');
#179=DRAUGHTING_PRE_DEFINED_CURVE_FONT('continuous');
#180=B_SPLINE_CURVE_WITH_KNOTS('CUTTING PART LINE',3,(#294,#295,#296,#297,
#298,#299,#300,#301,#302,#303,#304,#305,#306),.UNSPECIFIED.,.T.,.F.,(4,
3,3,3,4),(0.,0.301000410236212,0.535072998072579,0.750863819716066,1.),
 .UNSPECIFIED.);
#181=DRAUGHTING_PRE_DEFINED_COLOUR('white');
#182=DRAUGHTING_PRE_DEFINED_COLOUR('blue');
#183=PRESENTATION_LAYER_ASSIGNMENT('1','Layer 1',(#291,#292,#293,#180,#212,
#213,#214,#39,#40));
#184=STYLED_ITEM('',(#193),#291);
#185=STYLED_ITEM('',(#194),#292);
#186=STYLED_ITEM('',(#195),#293);
#187=STYLED_ITEM('',(#196),#180);
#188=STYLED_ITEM('',(#197),#212);
#189=STYLED_ITEM('',(#198),#213);
#190=STYLED_ITEM('',(#199),#214);
#191=STYLED_ITEM('',(#200),#39);
#192=STYLED_ITEM('',(#201),#40);
#193=PRESENTATION_STYLE_ASSIGNMENT((#202));
#194=PRESENTATION_STYLE_ASSIGNMENT((#203));
#195=PRESENTATION_STYLE_ASSIGNMENT((#204));
#196=PRESENTATION_STYLE_ASSIGNMENT((#172));
#197=PRESENTATION_STYLE_ASSIGNMENT((#173));
#198=PRESENTATION_STYLE_ASSIGNMENT((#174));
#199=PRESENTATION_STYLE_ASSIGNMENT((#175));
#200=PRESENTATION_STYLE_ASSIGNMENT((#29));
#201=PRESENTATION_STYLE_ASSIGNMENT((#30));
#202=POINT_STYLE('',#205,POSITIVE_LENGTH_MEASURE(3.),#208);
#203=POINT_STYLE('',#206,POSITIVE_LENGTH_MEASURE(3.),#181);
#204=POINT_STYLE('',#207,POSITIVE_LENGTH_MEASURE(3.),#208);
#205=PRE_DEFINED_POINT_MARKER_SYMBOL('plus');
#206=PRE_DEFINED_POINT_MARKER_SYMBOL('plus');
#207=PRE_DEFINED_POINT_MARKER_SYMBOL('plus');
#208=COLOUR_RGB('Medium Maroon',0.6,0.4,0.4);
#209=COLOUR_RGB('Silver Gray',0.6,0.6,0.6);
#210=COLOUR_RGB('Pale Sky',0.882337682154574,0.960769054703594,1.);
#211=AXIS2_PLACEMENT_3D('',#290,#236,#237);
#212=AXIS2_PLACEMENT_3D('PCS',#307,#238,#239);
#213=AXIS2_PLACEMENT_3D('MCS',#308,#240,#241);
#214=AXIS2_PLACEMENT_3D('CIP',#309,#242,#243);
#215=AXIS2_PLACEMENT_3D('',#310,#244,#245);
#216=AXIS2_PLACEMENT_3D('',#312,#246,#247);
#217=AXIS2_PLACEMENT_3D('',#317,#249,#250);
#218=AXIS2_PLACEMENT_3D('',#321,#252,#253);
#219=AXIS2_PLACEMENT_3D('',#322,#254,#255);
#220=AXIS2_PLACEMENT_3D('',#323,#256,#257);
#221=AXIS2_PLACEMENT_3D('',#325,#258,#259);
#222=AXIS2_PLACEMENT_3D('',#327,#260,#261);
#223=AXIS2_PLACEMENT_3D('',#328,#262,#263);
#224=AXIS2_PLACEMENT_3D('',#329,#264,#265);
#225=AXIS2_PLACEMENT_3D('',#331,#266,#267);
#226=AXIS2_PLACEMENT_3D('',#332,#268,#269);
#227=AXIS2_PLACEMENT_3D('',#334,#271,#272);
#228=AXIS2_PLACEMENT_3D('',#336,#274,#275);
#229=AXIS2_PLACEMENT_3D('',#337,#276,#277);
#230=AXIS2_PLACEMENT_3D('',#338,#278,#279);
#231=AXIS2_PLACEMENT_3D('',#339,#280,#281);
#232=AXIS2_PLACEMENT_3D('',#341,#282,#283);
#233=AXIS2_PLACEMENT_3D('',#343,#284,#285);
#234=AXIS2_PLACEMENT_3D('',#344,#286,#287);
#235=AXIS2_PLACEMENT_3D('',#346,#288,#289);
#236=DIRECTION('',(0.,0.,1.));
#237=DIRECTION('',(1.,0.,0.));
#238=DIRECTION('',(0.,0.,1.));
#239=DIRECTION('',(1.,0.,0.));
#240=DIRECTION('',(0.,0.,1.));
#241=DIRECTION('',(1.,0.,0.));
#242=DIRECTION('',(0.,0.,1.));
#243=DIRECTION('',(1.,0.,0.));
#244=DIRECTION('',(0.,0.,-1.));
#245=DIRECTION('',(-1.,0.,0.));
#246=DIRECTION('',(0.,0.,-1.));
#247=DIRECTION('',(-1.,0.,0.));
#248=DIRECTION('',(0.,0.,1.));
#249=DIRECTION('',(0.,0.681998360062499,0.73135370161917));
#250=DIRECTION('',(0.,0.73135370161917,-0.681998360062499));
#251=DIRECTION('',(0.,0.,-1.));
#252=DIRECTION('',(0.,0.731353701619172,-0.681998360062497));
#253=DIRECTION('',(0.,-0.681998360062497,-0.731353701619172));
#254=DIRECTION('',(0.,0.,-1.));
#255=DIRECTION('',(-1.,0.,0.));
#256=DIRECTION('',(0.,0.,-1.));
#257=DIRECTION('',(1.,0.,0.));
#258=DIRECTION('',(0.,0.,1.));
#259=DIRECTION('',(-1.,0.,0.));
#260=DIRECTION('',(0.,0.,1.));
#261=DIRECTION('',(1.,0.,0.));
#262=DIRECTION('',(0.,0.,1.));
#263=DIRECTION('',(1.,0.,5.0787878528141E-16));
#264=DIRECTION('',(0.,0.,-1.));
#265=DIRECTION('',(-1.,0.,0.));
#266=DIRECTION('',(0.,0.,1.));
#267=DIRECTION('',(1.,0.,0.));
#268=DIRECTION('',(0.,0.,-1.));
#269=DIRECTION('',(-1.,0.,1.08845394571094E-16));
#270=DIRECTION('',(1.,0.,0.));
#271=DIRECTION('',(0.,-0.681998360062499,-0.73135370161917));
#272=DIRECTION('',(0.,-0.73135370161917,0.681998360062499));
#273=DIRECTION('',(1.,0.,0.));
#274=DIRECTION('',(0.,-1.,1.33465337286756E-16));
#275=DIRECTION('',(0.,1.31838984174237E-16,1.));
#276=DIRECTION('',(0.,-0.731353701619172,0.681998360062497));
#277=DIRECTION('',(0.,0.681998360062497,0.731353701619172));
#278=DIRECTION('',(0.,0.,-1.));
#279=DIRECTION('',(-1.,0.,0.));
#280=DIRECTION('',(0.,0.,1.));
#281=DIRECTION('',(1.,0.,0.));
#282=DIRECTION('',(0.,0.,-1.));
#283=DIRECTION('',(1.,0.,0.));
#284=DIRECTION('',(0.,0.,-1.));
#285=DIRECTION('',(-1.,0.,0.));
#286=DIRECTION('',(0.,0.,-1.));
#287=DIRECTION('',(-1.,0.,0.));
#288=DIRECTION('',(0.,0.,1.));
#289=DIRECTION('',(1.,0.,-2.02044067180276E-17));
#290=CARTESIAN_POINT('',(0.,0.,0.));
#291=CARTESIAN_POINT('',(0.,0.,-70.));
#292=CARTESIAN_POINT('CRP',(-21.,0.,-243.95662508041));
#293=CARTESIAN_POINT('CIP_DCSYS',(0.,0.,-251.6));
#294=CARTESIAN_POINT('',(0.,0.,-251.6));
#295=CARTESIAN_POINT('',(0.,0.,-242.6));
#296=CARTESIAN_POINT('',(0.,0.,-233.6));
#297=CARTESIAN_POINT('',(0.,0.,-224.6));
#298=CARTESIAN_POINT('',(-6.99883860249518,0.,-224.6));
#299=CARTESIAN_POINT('',(-13.9976772049904,0.,-224.6));
#300=CARTESIAN_POINT('',(-20.9965158074855,0.,-224.600000000001));
#301=CARTESIAN_POINT('',(-20.9976772049904,0.,-231.052208360137));
#302=CARTESIAN_POINT('',(-20.9988386024952,0.,-237.504416720273));
#303=CARTESIAN_POINT('',(-21.,0.,-243.95662508041));
#304=CARTESIAN_POINT('',(-14.,0.,-246.504416720273));
#305=CARTESIAN_POINT('',(-7.,0.,-249.052208360137));
#306=CARTESIAN_POINT('',(0.,0.,-251.6));
#307=CARTESIAN_POINT('',(0.,0.,0.));
#308=CARTESIAN_POINT('',(0.,0.,-70.));
#309=CARTESIAN_POINT('',(0.,0.,-251.6));
#310=CARTESIAN_POINT('',(0.,0.,-1.));
#311=CARTESIAN_POINT('',(-20.,0.,-1.));
#312=CARTESIAN_POINT('',(0.,0.,-70.));
#313=CARTESIAN_POINT('',(-20.,0.,-70.));
#314=CARTESIAN_POINT('',(-8.71779788708135,-18.,20.9080749503476));
#315=CARTESIAN_POINT('',(-8.71779788708134,-18.,-60.8552625799506));
#316=CARTESIAN_POINT('',(-8.71779788708135,-18.,-8.86503017227533));
#317=CARTESIAN_POINT('',(0.,0.,-25.6503017227533));
#318=CARTESIAN_POINT('',(8.71779788708135,-18.,-8.86503017227533));
#319=CARTESIAN_POINT('',(8.71779788708135,-18.,20.9080749503476));
#320=CARTESIAN_POINT('',(8.71779788708134,-18.,-60.8552625799506));
#321=CARTESIAN_POINT('',(0.,0.,-41.5526257995063));
#322=CARTESIAN_POINT('',(0.,0.,20.9080749503476));
#323=CARTESIAN_POINT('',(0.,0.,-224.6));
#324=CARTESIAN_POINT('',(19.65,0.,-224.6));
#325=CARTESIAN_POINT('',(0.,0.,-80.));
#326=CARTESIAN_POINT('',(-19.65,0.,-80.));
#327=CARTESIAN_POINT('',(0.,0.,20.9080749503476));
#328=CARTESIAN_POINT('',(0.,0.,-80.));
#329=CARTESIAN_POINT('',(0.,0.,3.46944695195361E-15));
#330=CARTESIAN_POINT('',(-19.,0.,3.46944695195361E-15));
#331=CARTESIAN_POINT('',(-19.,0.,1.0547118733939E-15));
#332=CARTESIAN_POINT('',(0.,0.,-1.));
#333=CARTESIAN_POINT('',(-20.,-18.,-8.86503017227533));
#334=CARTESIAN_POINT('',(-20.,-20.2,-6.81349698277247));
#335=CARTESIAN_POINT('',(-20.,-18.,-60.8552625799506));
#336=CARTESIAN_POINT('',(-20.,-18.,-8.86503017227533));
#337=CARTESIAN_POINT('',(-20.,-18.,-60.8552625799506));
#338=CARTESIAN_POINT('',(0.,0.,-224.6));
#339=CARTESIAN_POINT('',(0.,0.,-243.956625080401));
#340=CARTESIAN_POINT('',(21.,0.,-243.956625080401));
#341=CARTESIAN_POINT('',(0.,0.,-224.6));
#342=CARTESIAN_POINT('',(20.9965158074855,0.,-224.6));
#343=CARTESIAN_POINT('',(0.,0.,-253.95662508041));
#344=CARTESIAN_POINT('',(-20.9965158074855,0.,-224.6));
#345=CARTESIAN_POINT('',(-3.05059517667606E-14,0.,-251.6));
#346=CARTESIAN_POINT('',(0.,0.,-251.6));
#347=MECHANICAL_DESIGN_GEOMETRIC_PRESENTATION_REPRESENTATION('',(#184,#185,
#186,#187,#188,#189,#190,#191,#192),#348);
#348=(
GEOMETRIC_REPRESENTATION_CONTEXT(3)
GLOBAL_UNCERTAINTY_ASSIGNED_CONTEXT((#349))
GLOBAL_UNIT_ASSIGNED_CONTEXT((#355,#351,#350))
REPRESENTATION_CONTEXT('H85342.5-R95042','TOP_LEVEL_ASSEMBLY_PART')
);
#349=UNCERTAINTY_MEASURE_WITH_UNIT(LENGTH_MEASURE(2.E-5),#355,
'DISTANCE_ACCURACY_VALUE','Maximum Tolerance applied to model');
#350=(
NAMED_UNIT(*)
SI_UNIT($,.STERADIAN.)
SOLID_ANGLE_UNIT()
);
#351=(
CONVERSION_BASED_UNIT('DEGREE',#353)
NAMED_UNIT(#352)
PLANE_ANGLE_UNIT()
);
#352=DIMENSIONAL_EXPONENTS(0.,0.,0.,0.,0.,0.,0.);
#353=PLANE_ANGLE_MEASURE_WITH_UNIT(PLANE_ANGLE_MEASURE(0.0174532925),#354);
#354=(
NAMED_UNIT(*)
PLANE_ANGLE_UNIT()
SI_UNIT($,.RADIAN.)
);
#355=(
LENGTH_UNIT()
NAMED_UNIT(*)
SI_UNIT(.MILLI.,.METRE.)
);
ENDSEC;
END-ISO-10303-21;
