ISO-10303-21;
HEADER;
/* Generated by software containing ST-Developer
 * from STEP Tools, Inc. (www.steptools.com) 
 */
/* OPTION: using custom schema-name function */

FILE_DESCRIPTION(
/* description */ (''),
/* implementation_level */ '2;1');

FILE_NAME(
/* name */ 'h85323.0-r95023.0_3d_light.stp',
/* time_stamp */ '2021-09-03T04:48:31+02:00',
/* author */ (''),
/* organization */ ('SMS'),
/* preprocessor_version */ 'ST-DEVELOPER v16.7',
/* originating_system */ 'SIEMENS PLM Software NX 12.0',
/* authorisation */ '');

FILE_SCHEMA (('AUTOMOTIVE_DESIGN { 1 0 10303 214 3 1 1 1 }'));
ENDSEC;

DATA;
#10=CONSTRUCTIVE_GEOMETRY_REPRESENTATION_RELATIONSHIP(
'supplemental geometry','',#26,#11);
#11=CONSTRUCTIVE_GEOMETRY_REPRESENTATION('supplemental geometry',(#249,
#250,#251),#457);
#12=GEOMETRICALLY_BOUNDED_WIREFRAME_SHAPE_REPRESENTATION(
'H85323.0-R95023.0_3D_light-None',(#27),#457);
#13=SHAPE_REPRESENTATION_RELATIONSHIP('None',
'relationship between H85323.0-R95023.0_3D_light-None and H85323.0-R95
023.0_3D_light-None',#26,#15);
#14=SHAPE_REPRESENTATION_RELATIONSHIP('None',
'relationship between H85323.0-R95023.0_3D_light-None and H85323.0-R95
023.0_3D_light-None',#26,#12);
#15=ADVANCED_BREP_SHAPE_REPRESENTATION(
'H85323.0-R95023.0_3D_light-None',(#39,#40),#457);
#16=SHAPE_DEFINITION_REPRESENTATION(#17,#26);
#17=PRODUCT_DEFINITION_SHAPE('','',#18);
#18=PRODUCT_DEFINITION(' ','',#20,#19);
#19=PRODUCT_DEFINITION_CONTEXT('part definition',#25,'design');
#20=PRODUCT_DEFINITION_FORMATION_WITH_SPECIFIED_SOURCE(' ',' ',#22,
 .NOT_KNOWN.);
#21=PRODUCT_RELATED_PRODUCT_CATEGORY('part','',(#22));
#22=PRODUCT('H85323.0-R95023.0_3D_light','H85323.0-R95023.0_3D_light',
' ',(#23));
#23=PRODUCT_CONTEXT(' ',#25,'mechanical');
#24=APPLICATION_PROTOCOL_DEFINITION('international standard',
'automotive_design',2010,#25);
#25=APPLICATION_CONTEXT(
'core data for automotive mechanical design processes');
#26=SHAPE_REPRESENTATION('H85323.0-R95023.0_3D_light-None',(#248),#457);
#27=GEOMETRIC_CURVE_SET('None',(#340,#341,#342,#212));
#28=VERTEX_LOOP('',#177);
#29=SURFACE_STYLE_USAGE(.BOTH.,#31);
#30=SURFACE_STYLE_USAGE(.BOTH.,#32);
#31=SURFACE_SIDE_STYLE('',(#33));
#32=SURFACE_SIDE_STYLE('',(#34));
#33=SURFACE_STYLE_FILL_AREA(#35);
#34=SURFACE_STYLE_FILL_AREA(#36);
#35=FILL_AREA_STYLE('',(#37));
#36=FILL_AREA_STYLE('',(#38));
#37=FILL_AREA_STYLE_COLOUR('',#246);
#38=FILL_AREA_STYLE_COLOUR('',#247);
#39=MANIFOLD_SOLID_BREP('NOCUT',#41);
#40=MANIFOLD_SOLID_BREP('CUT',#42);
#41=CLOSED_SHELL('',(#73,#74,#75,#76,#77,#78,#79,#80,#81,#82,#83));
#42=CLOSED_SHELL('',(#84,#85,#86));
#43=LINE('',#438,#47);
#44=LINE('',#440,#48);
#45=LINE('',#441,#49);
#46=LINE('',#443,#50);
#47=VECTOR('',#313,1.);
#48=VECTOR('',#316,1.);
#49=VECTOR('',#317,1.);
#50=VECTOR('',#320,1.);
#51=ELLIPSE('',#261,17.0915932637324,12.5);
#52=ELLIPSE('',#262,358.171354348049,12.5);
#53=ELLIPSE('',#263,18.3284898204953,12.5);
#54=ELLIPSE('',#264,358.171354348049,12.5);
#55=PLANE('',#258);
#56=PLANE('',#266);
#57=PLANE('',#267);
#58=PLANE('',#268);
#59=PLANE('',#271);
#60=PLANE('',#275);
#61=FACE_OUTER_BOUND('',#108,.T.);
#62=FACE_OUTER_BOUND('',#114,.T.);
#63=FACE_OUTER_BOUND('',#115,.T.);
#64=FACE_OUTER_BOUND('',#116,.T.);
#65=FACE_OUTER_BOUND('',#117,.T.);
#66=FACE_OUTER_BOUND('',#118,.T.);
#67=FACE_OUTER_BOUND('',#119,.T.);
#68=FACE_OUTER_BOUND('',#122,.T.);
#69=CONICAL_SURFACE('',#256,11.3,6.84277341263095);
#70=CONICAL_SURFACE('',#260,12.5,45.);
#71=CONICAL_SURFACE('',#274,11.5018,0.0103132402009799);
#72=CONICAL_SURFACE('',#276,1.93494194265282E-14,70.0000000000002);
#73=ADVANCED_FACE('',(#91,#92),#87,.T.);
#74=ADVANCED_FACE('',(#93,#94),#69,.T.);
#75=ADVANCED_FACE('',(#61),#55,.T.);
#76=ADVANCED_FACE('',(#95,#96),#70,.T.);
#77=ADVANCED_FACE('CYL_FACE',(#97,#98,#99),#88,.T.);
#78=ADVANCED_FACE('',(#62),#56,.T.);
#79=ADVANCED_FACE('',(#63),#57,.T.);
#80=ADVANCED_FACE('',(#64),#58,.T.);
#81=ADVANCED_FACE('',(#65),#89,.F.);
#82=ADVANCED_FACE('',(#66),#90,.F.);
#83=ADVANCED_FACE('',(#67),#59,.T.);
#84=ADVANCED_FACE('',(#100,#101),#71,.T.);
#85=ADVANCED_FACE('',(#68),#60,.F.);
#86=ADVANCED_FACE('',(#102,#103),#72,.T.);
#87=CYLINDRICAL_SURFACE('',#254,11.3);
#88=CYLINDRICAL_SURFACE('',#265,12.5);
#89=CYLINDRICAL_SURFACE('',#269,1.6);
#90=CYLINDRICAL_SURFACE('',#270,1.6);
#91=FACE_BOUND('',#104,.T.);
#92=FACE_BOUND('',#105,.T.);
#93=FACE_BOUND('',#106,.T.);
#94=FACE_BOUND('',#107,.T.);
#95=FACE_BOUND('',#109,.T.);
#96=FACE_BOUND('',#110,.T.);
#97=FACE_BOUND('',#111,.T.);
#98=FACE_BOUND('',#112,.T.);
#99=FACE_BOUND('',#113,.T.);
#100=FACE_BOUND('',#120,.T.);
#101=FACE_BOUND('',#121,.T.);
#102=FACE_BOUND('',#28,.T.);
#103=FACE_BOUND('',#123,.T.);
#104=EDGE_LOOP('',(#124));
#105=EDGE_LOOP('',(#125));
#106=EDGE_LOOP('',(#126));
#107=EDGE_LOOP('',(#127));
#108=EDGE_LOOP('',(#128));
#109=EDGE_LOOP('',(#129));
#110=EDGE_LOOP('',(#130));
#111=EDGE_LOOP('',(#131,#132,#133,#134,#135,#136,#137,#138));
#112=EDGE_LOOP('',(#139));
#113=EDGE_LOOP('',(#140));
#114=EDGE_LOOP('',(#141,#142));
#115=EDGE_LOOP('',(#143,#144,#145,#146));
#116=EDGE_LOOP('',(#147,#148));
#117=EDGE_LOOP('',(#149,#150,#151,#152));
#118=EDGE_LOOP('',(#153,#154,#155,#156));
#119=EDGE_LOOP('',(#157));
#120=EDGE_LOOP('',(#158));
#121=EDGE_LOOP('',(#159));
#122=EDGE_LOOP('',(#160));
#123=EDGE_LOOP('',(#161));
#124=ORIENTED_EDGE('',*,*,#178,.F.);
#125=ORIENTED_EDGE('',*,*,#179,.F.);
#126=ORIENTED_EDGE('',*,*,#180,.T.);
#127=ORIENTED_EDGE('',*,*,#179,.T.);
#128=ORIENTED_EDGE('',*,*,#181,.F.);
#129=ORIENTED_EDGE('',*,*,#181,.T.);
#130=ORIENTED_EDGE('',*,*,#182,.F.);
#131=ORIENTED_EDGE('',*,*,#183,.F.);
#132=ORIENTED_EDGE('',*,*,#184,.T.);
#133=ORIENTED_EDGE('',*,*,#185,.F.);
#134=ORIENTED_EDGE('',*,*,#186,.T.);
#135=ORIENTED_EDGE('',*,*,#187,.F.);
#136=ORIENTED_EDGE('',*,*,#188,.T.);
#137=ORIENTED_EDGE('',*,*,#189,.F.);
#138=ORIENTED_EDGE('',*,*,#190,.T.);
#139=ORIENTED_EDGE('',*,*,#182,.T.);
#140=ORIENTED_EDGE('',*,*,#180,.F.);
#141=ORIENTED_EDGE('',*,*,#191,.T.);
#142=ORIENTED_EDGE('',*,*,#184,.F.);
#143=ORIENTED_EDGE('',*,*,#192,.T.);
#144=ORIENTED_EDGE('',*,*,#186,.F.);
#145=ORIENTED_EDGE('',*,*,#193,.T.);
#146=ORIENTED_EDGE('',*,*,#190,.F.);
#147=ORIENTED_EDGE('',*,*,#194,.T.);
#148=ORIENTED_EDGE('',*,*,#188,.F.);
#149=ORIENTED_EDGE('',*,*,#183,.T.);
#150=ORIENTED_EDGE('',*,*,#193,.F.);
#151=ORIENTED_EDGE('',*,*,#185,.T.);
#152=ORIENTED_EDGE('',*,*,#191,.F.);
#153=ORIENTED_EDGE('',*,*,#189,.T.);
#154=ORIENTED_EDGE('',*,*,#194,.F.);
#155=ORIENTED_EDGE('',*,*,#187,.T.);
#156=ORIENTED_EDGE('',*,*,#192,.F.);
#157=ORIENTED_EDGE('',*,*,#178,.T.);
#158=ORIENTED_EDGE('',*,*,#195,.T.);
#159=ORIENTED_EDGE('',*,*,#196,.T.);
#160=ORIENTED_EDGE('',*,*,#196,.F.);
#161=ORIENTED_EDGE('',*,*,#195,.F.);
#162=VERTEX_POINT('',#360);
#163=VERTEX_POINT('',#362);
#164=VERTEX_POINT('',#365);
#165=VERTEX_POINT('',#368);
#166=VERTEX_POINT('',#371);
#167=VERTEX_POINT('',#386);
#168=VERTEX_POINT('',#387);
#169=VERTEX_POINT('',#389);
#170=VERTEX_POINT('',#403);
#171=VERTEX_POINT('',#405);
#172=VERTEX_POINT('',#419);
#173=VERTEX_POINT('',#421);
#174=VERTEX_POINT('',#435);
#175=VERTEX_POINT('',#449);
#176=VERTEX_POINT('',#451);
#177=VERTEX_POINT('',#454);
#178=EDGE_CURVE('',#162,#162,#197,.T.);
#179=EDGE_CURVE('',#163,#163,#198,.T.);
#180=EDGE_CURVE('',#164,#164,#199,.T.);
#181=EDGE_CURVE('',#165,#165,#200,.T.);
#182=EDGE_CURVE('',#166,#166,#201,.T.);
#183=EDGE_CURVE('',#167,#168,#213,.T.);
#184=EDGE_CURVE('',#167,#169,#51,.T.);
#185=EDGE_CURVE('',#170,#169,#214,.T.);
#186=EDGE_CURVE('',#170,#171,#52,.T.);
#187=EDGE_CURVE('',#172,#171,#215,.T.);
#188=EDGE_CURVE('',#172,#173,#53,.T.);
#189=EDGE_CURVE('',#174,#173,#216,.T.);
#190=EDGE_CURVE('',#174,#168,#54,.T.);
#191=EDGE_CURVE('',#167,#169,#43,.T.);
#192=EDGE_CURVE('',#174,#171,#44,.T.);
#193=EDGE_CURVE('',#170,#168,#45,.T.);
#194=EDGE_CURVE('',#172,#173,#46,.T.);
#195=EDGE_CURVE('',#175,#175,#202,.T.);
#196=EDGE_CURVE('',#176,#176,#203,.T.);
#197=CIRCLE('',#252,11.3);
#198=CIRCLE('',#253,11.3);
#199=CIRCLE('',#255,12.5);
#200=CIRCLE('',#257,11.5);
#201=CIRCLE('',#259,12.5);
#202=CIRCLE('',#272,11.5);
#203=CIRCLE('',#273,11.4980354183849);
#204=CURVE_STYLE('',#208,POSITIVE_LENGTH_MEASURE(0.18),#218);
#205=CURVE_STYLE('',#209,POSITIVE_LENGTH_MEASURE(0.13),#245);
#206=CURVE_STYLE('',#210,POSITIVE_LENGTH_MEASURE(0.18),#244);
#207=CURVE_STYLE('',#211,POSITIVE_LENGTH_MEASURE(0.18),#244);
#208=DRAUGHTING_PRE_DEFINED_CURVE_FONT('continuous');
#209=DRAUGHTING_PRE_DEFINED_CURVE_FONT('continuous');
#210=DRAUGHTING_PRE_DEFINED_CURVE_FONT('continuous');
#211=DRAUGHTING_PRE_DEFINED_CURVE_FONT('continuous');
#212=B_SPLINE_CURVE_WITH_KNOTS('CUTTING PART LINE',3,(#343,#344,#345,#346,
#347,#348,#349,#350,#351,#352,#353,#354,#355),.UNSPECIFIED.,.T.,.F.,(4,
3,3,3,4),(0.,0.303515011663834,0.534629339751226,0.754011246106306,1.),
 .UNSPECIFIED.);
#213=B_SPLINE_CURVE_WITH_KNOTS('',3,(#373,#374,#375,#376,#377,#378,#379,
#380,#381,#382,#383,#384,#385),.UNSPECIFIED.,.F.,.F.,(4,3,3,3,4),(0.,0.491131336875004,
0.679303273544973,0.870537414434154,1.),.UNSPECIFIED.);
#214=B_SPLINE_CURVE_WITH_KNOTS('',3,(#390,#391,#392,#393,#394,#395,#396,
#397,#398,#399,#400,#401,#402),.UNSPECIFIED.,.F.,.F.,(4,3,3,3,4),(0.,0.126327675418301,
0.28660051644285,0.549902758506162,1.),.UNSPECIFIED.);
#215=B_SPLINE_CURVE_WITH_KNOTS('',3,(#406,#407,#408,#409,#410,#411,#412,
#413,#414,#415,#416,#417,#418),.UNSPECIFIED.,.F.,.F.,(4,3,3,3,4),(0.,0.391270122577184,
0.665384352989221,0.892583682270062,1.),.UNSPECIFIED.);
#216=B_SPLINE_CURVE_WITH_KNOTS('',3,(#422,#423,#424,#425,#426,#427,#428,
#429,#430,#431,#432,#433,#434),.UNSPECIFIED.,.F.,.F.,(4,3,3,3,4),(0.,0.250959729373697,
0.499531735075398,0.85589714423705,1.),.UNSPECIFIED.);
#217=DRAUGHTING_PRE_DEFINED_COLOUR('white');
#218=DRAUGHTING_PRE_DEFINED_COLOUR('blue');
#219=PRESENTATION_LAYER_ASSIGNMENT('1','Layer 1',(#340,#341,#342,#212,#249,
#250,#251,#39,#40));
#220=STYLED_ITEM('',(#229),#340);
#221=STYLED_ITEM('',(#230),#341);
#222=STYLED_ITEM('',(#231),#342);
#223=STYLED_ITEM('',(#232),#212);
#224=STYLED_ITEM('',(#233),#249);
#225=STYLED_ITEM('',(#234),#250);
#226=STYLED_ITEM('',(#235),#251);
#227=STYLED_ITEM('',(#236),#39);
#228=STYLED_ITEM('',(#237),#40);
#229=PRESENTATION_STYLE_ASSIGNMENT((#238));
#230=PRESENTATION_STYLE_ASSIGNMENT((#239));
#231=PRESENTATION_STYLE_ASSIGNMENT((#240));
#232=PRESENTATION_STYLE_ASSIGNMENT((#204));
#233=PRESENTATION_STYLE_ASSIGNMENT((#205));
#234=PRESENTATION_STYLE_ASSIGNMENT((#206));
#235=PRESENTATION_STYLE_ASSIGNMENT((#207));
#236=PRESENTATION_STYLE_ASSIGNMENT((#29));
#237=PRESENTATION_STYLE_ASSIGNMENT((#30));
#238=POINT_STYLE('',#241,POSITIVE_LENGTH_MEASURE(3.),#244);
#239=POINT_STYLE('',#242,POSITIVE_LENGTH_MEASURE(3.),#217);
#240=POINT_STYLE('',#243,POSITIVE_LENGTH_MEASURE(3.),#244);
#241=PRE_DEFINED_POINT_MARKER_SYMBOL('plus');
#242=PRE_DEFINED_POINT_MARKER_SYMBOL('plus');
#243=PRE_DEFINED_POINT_MARKER_SYMBOL('plus');
#244=COLOUR_RGB('Medium Maroon',0.6,0.4,0.4);
#245=COLOUR_RGB('Silver Gray',0.6,0.6,0.6);
#246=COLOUR_RGB('TLS_NOCUT',0.498023956664378,0.498023956664378,0.498023956664378);
#247=COLOUR_RGB('TLS_CUT',0.8,0.8,0.8);
#248=AXIS2_PLACEMENT_3D('',#339,#277,#278);
#249=AXIS2_PLACEMENT_3D('PCS',#356,#279,#280);
#250=AXIS2_PLACEMENT_3D('MCS',#357,#281,#282);
#251=AXIS2_PLACEMENT_3D('CIP',#358,#283,#284);
#252=AXIS2_PLACEMENT_3D('',#359,#285,#286);
#253=AXIS2_PLACEMENT_3D('',#361,#287,#288);
#254=AXIS2_PLACEMENT_3D('',#363,#289,#290);
#255=AXIS2_PLACEMENT_3D('',#364,#291,#292);
#256=AXIS2_PLACEMENT_3D('',#366,#293,#294);
#257=AXIS2_PLACEMENT_3D('',#367,#295,#296);
#258=AXIS2_PLACEMENT_3D('',#369,#297,#298);
#259=AXIS2_PLACEMENT_3D('',#370,#299,#300);
#260=AXIS2_PLACEMENT_3D('',#372,#301,#302);
#261=AXIS2_PLACEMENT_3D('',#388,#303,#304);
#262=AXIS2_PLACEMENT_3D('',#404,#305,#306);
#263=AXIS2_PLACEMENT_3D('',#420,#307,#308);
#264=AXIS2_PLACEMENT_3D('',#436,#309,#310);
#265=AXIS2_PLACEMENT_3D('',#437,#311,#312);
#266=AXIS2_PLACEMENT_3D('',#439,#314,#315);
#267=AXIS2_PLACEMENT_3D('',#442,#318,#319);
#268=AXIS2_PLACEMENT_3D('',#444,#321,#322);
#269=AXIS2_PLACEMENT_3D('',#445,#323,#324);
#270=AXIS2_PLACEMENT_3D('',#446,#325,#326);
#271=AXIS2_PLACEMENT_3D('',#447,#327,#328);
#272=AXIS2_PLACEMENT_3D('',#448,#329,#330);
#273=AXIS2_PLACEMENT_3D('',#450,#331,#332);
#274=AXIS2_PLACEMENT_3D('',#452,#333,#334);
#275=AXIS2_PLACEMENT_3D('',#453,#335,#336);
#276=AXIS2_PLACEMENT_3D('',#455,#337,#338);
#277=DIRECTION('',(0.,0.,1.));
#278=DIRECTION('',(1.,0.,0.));
#279=DIRECTION('',(0.,0.,1.));
#280=DIRECTION('',(1.,0.,0.));
#281=DIRECTION('',(0.,0.,1.));
#282=DIRECTION('',(1.,0.,0.));
#283=DIRECTION('',(0.,0.,1.));
#284=DIRECTION('',(1.,0.,0.));
#285=DIRECTION('',(0.,0.,-1.));
#286=DIRECTION('',(1.,0.,0.));
#287=DIRECTION('',(0.,0.,1.));
#288=DIRECTION('',(-1.,0.,0.));
#289=DIRECTION('',(0.,0.,1.));
#290=DIRECTION('',(1.,0.,0.));
#291=DIRECTION('',(0.,0.,-1.));
#292=DIRECTION('',(-1.,0.,0.));
#293=DIRECTION('',(0.,0.,1.));
#294=DIRECTION('',(1.,0.,-4.22781045173326E-16));
#295=DIRECTION('',(0.,0.,-1.));
#296=DIRECTION('',(-1.,0.,0.));
#297=DIRECTION('',(0.,0.,1.));
#298=DIRECTION('',(1.,0.,0.));
#299=DIRECTION('',(0.,0.,-1.));
#300=DIRECTION('',(-1.,0.,0.));
#301=DIRECTION('',(0.,0.,-1.));
#302=DIRECTION('',(-1.,0.,1.09651656753102E-16));
#303=DIRECTION('',(0.,0.681998360062498,0.731353701619171));
#304=DIRECTION('',(0.,0.731353701619171,-0.681998360062498));
#305=DIRECTION('',(0.,0.999390827019096,0.0348994967025009));
#306=DIRECTION('',(0.,0.0348994967025008,-0.999390827019096));
#307=DIRECTION('',(0.,0.731353701619171,-0.681998360062499));
#308=DIRECTION('',(0.,-0.681998360062499,-0.731353701619171));
#309=DIRECTION('',(0.,0.999390827019096,0.0348994967025009));
#310=DIRECTION('',(0.,0.0348994967025008,-0.999390827019096));
#311=DIRECTION('',(0.,0.,-1.));
#312=DIRECTION('',(-1.,0.,0.));
#313=DIRECTION('',(1.,0.,0.));
#314=DIRECTION('',(0.,-0.681998360062498,-0.731353701619171));
#315=DIRECTION('',(0.,-0.731353701619171,0.681998360062498));
#316=DIRECTION('',(1.,0.,0.));
#317=DIRECTION('',(-1.,0.,0.));
#318=DIRECTION('',(0.,-0.999390827019096,-0.0348994967025008));
#319=DIRECTION('',(0.,-0.0348994967025008,0.999390827019096));
#320=DIRECTION('',(-1.,0.,0.));
#321=DIRECTION('',(0.,-0.73135370161917,0.681998360062498));
#322=DIRECTION('',(0.,0.681998360062499,0.731353701619171));
#323=DIRECTION('',(1.,0.,0.));
#324=DIRECTION('',(0.,0.,-1.));
#325=DIRECTION('',(1.,0.,0.));
#326=DIRECTION('',(0.,0.,-0.999999999999998));
#327=DIRECTION('',(0.,0.,-1.));
#328=DIRECTION('',(-1.,0.,0.));
#329=DIRECTION('',(0.,0.,1.));
#330=DIRECTION('',(1.,0.,0.));
#331=DIRECTION('',(0.,0.,-1.));
#332=DIRECTION('',(1.,0.,0.));
#333=DIRECTION('',(0.,0.,-1.));
#334=DIRECTION('',(-1.,0.,-7.12790210814136E-15));
#335=DIRECTION('',(0.,0.,-1.));
#336=DIRECTION('',(-1.,0.,0.));
#337=DIRECTION('',(0.,0.,1.));
#338=DIRECTION('',(1.,0.,1.01022033590136E-17));
#339=CARTESIAN_POINT('',(0.,0.,0.));
#340=CARTESIAN_POINT('',(0.,0.,-56.));
#341=CARTESIAN_POINT('CRP',(-11.5,0.,-156.314342305939));
#342=CARTESIAN_POINT('CIP_DCSYS',(0.,0.,-160.5));
#343=CARTESIAN_POINT('',(0.,0.,-160.5));
#344=CARTESIAN_POINT('',(0.,0.,-155.466666666667));
#345=CARTESIAN_POINT('',(0.,0.,-150.433333333333));
#346=CARTESIAN_POINT('',(0.,0.,-145.4));
#347=CARTESIAN_POINT('',(-3.83267847279498,0.,-145.4));
#348=CARTESIAN_POINT('',(-7.66535694558996,0.,-145.4));
#349=CARTESIAN_POINT('',(-11.4980354183849,0.,-145.400000000004));
#350=CARTESIAN_POINT('',(-11.4986902789233,0.,-149.038114101985));
#351=CARTESIAN_POINT('',(-11.4993451394616,0.,-152.676228203962));
#352=CARTESIAN_POINT('',(-11.5,0.,-156.314342305939));
#353=CARTESIAN_POINT('',(-7.66666666666667,0.,-157.709561537292));
#354=CARTESIAN_POINT('',(-3.83333333333334,0.,-159.104780768646));
#355=CARTESIAN_POINT('',(0.,0.,-160.5));
#356=CARTESIAN_POINT('',(0.,0.,0.));
#357=CARTESIAN_POINT('',(0.,0.,-56.));
#358=CARTESIAN_POINT('',(0.,0.,-160.5));
#359=CARTESIAN_POINT('',(0.,0.,-145.4));
#360=CARTESIAN_POINT('',(11.3,0.,-145.4));
#361=CARTESIAN_POINT('',(0.,0.,-66.));
#362=CARTESIAN_POINT('',(-11.3,0.,-66.));
#363=CARTESIAN_POINT('',(0.,0.,20.9080749503476));
#364=CARTESIAN_POINT('',(0.,0.,-56.));
#365=CARTESIAN_POINT('',(-12.5,0.,-56.));
#366=CARTESIAN_POINT('',(0.,0.,-66.));
#367=CARTESIAN_POINT('',(0.,0.,0.));
#368=CARTESIAN_POINT('',(-11.5,0.,0.));
#369=CARTESIAN_POINT('',(-11.5,0.,6.10622663543836E-16));
#370=CARTESIAN_POINT('',(0.,0.,-1.));
#371=CARTESIAN_POINT('',(-12.5,0.,-1.));
#372=CARTESIAN_POINT('',(0.,0.,-1.));
#373=CARTESIAN_POINT('',(-3.6205909735546,-11.9641682118823,-3.49967122605187));
#374=CARTESIAN_POINT('',(-3.91389528705163,-11.87540859808,-3.58244090496223));
#375=CARTESIAN_POINT('',(-4.20266908820143,-11.7754621060775,-3.69102825523264));
#376=CARTESIAN_POINT('',(-4.45670990440016,-11.6785160370666,-3.85480014694065));
#377=CARTESIAN_POINT('',(-4.55486503692705,-11.6410584568473,-3.91807758391048));
#378=CARTESIAN_POINT('',(-4.64845978346348,-11.6038687407932,-3.99058104128525));
#379=CARTESIAN_POINT('',(-4.73097994830078,-11.570126564942,-4.07480349880564));
#380=CARTESIAN_POINT('',(-4.81424578280569,-11.5360794876511,-4.15978700827048));
#381=CARTESIAN_POINT('',(-4.88814521209517,-11.5047345841312,-4.25943954030359));
#382=CARTESIAN_POINT('',(-4.93745943432953,-11.4835314400384,-4.37094350307984));
#383=CARTESIAN_POINT('',(-4.9709987156163,-11.4691108899076,-4.44677888286886));
#384=CARTESIAN_POINT('',(-4.99351826281422,-11.4592682548284,-4.53015128847377));
#385=CARTESIAN_POINT('',(-5.00022676868039,-11.4563402647517,-4.61399795391855));
#386=CARTESIAN_POINT('',(-3.6205909735546,-11.9641682118823,-3.49967122605187));
#387=CARTESIAN_POINT('',(-5.00022676868039,-11.4563402647517,-4.61399795391855));
#388=CARTESIAN_POINT('',(0.,0.,-14.6564385767208));
#389=CARTESIAN_POINT('',(3.6205909735546,-11.9641682118823,-3.49967122605187));
#390=CARTESIAN_POINT('',(5.00022676868039,-11.4563402647517,-4.61399795391855));
#391=CARTESIAN_POINT('',(4.9936819197522,-11.4591968252284,-4.53219676459035));
#392=CARTESIAN_POINT('',(4.97211339633092,-11.4686230997891,-4.45085090877786));
#393=CARTESIAN_POINT('',(4.93993059854638,-11.4824686231466,-4.37658787241066));
#394=CARTESIAN_POINT('',(4.89911515923276,-11.5000280386499,-4.28240468565412));
#395=CARTESIAN_POINT('',(4.84065564430139,-11.5248961055671,-4.19646014715334));
#396=CARTESIAN_POINT('',(4.7741568948132,-11.5523775017832,-4.12117804433124));
#397=CARTESIAN_POINT('',(4.66522715742576,-11.5973940065432,-3.99786054206989));
#398=CARTESIAN_POINT('',(4.5321546540578,-11.6503991463946,-3.89802938942383));
#399=CARTESIAN_POINT('',(4.39257865119767,-11.7027882486629,-3.81512401480192));
#400=CARTESIAN_POINT('',(4.15421720081085,-11.7922559375581,-3.67354204558946));
#401=CARTESIAN_POINT('',(3.88977483724848,-11.8827079172879,-3.57563417968235));
#402=CARTESIAN_POINT('',(3.6205909735546,-11.9641682118823,-3.49967122605187));
#403=CARTESIAN_POINT('',(5.00022676868039,-11.4563402647517,-4.61399795391855));
#404=CARTESIAN_POINT('',(0.,0.,-332.680659470615));
#405=CARTESIAN_POINT('',(7.23777548279986,-10.1913986312273,-40.8371869596301));
#406=CARTESIAN_POINT('',(6.59242894057729,-10.6202580318672,-41.9842235304541));
#407=CARTESIAN_POINT('',(6.73239958328264,-10.5333725237154,-41.8910502301575));
#408=CARTESIAN_POINT('',(6.86357167447969,-10.4478851193573,-41.7771952215982));
#409=CARTESIAN_POINT('',(6.97153774790053,-10.3753390994993,-41.6397087196166));
#410=CARTESIAN_POINT('',(7.04732786801475,-10.3244131800448,-41.5431958228415));
#411=CARTESIAN_POINT('',(7.11291009075693,-10.2790931336992,-41.4327952149128));
#412=CARTESIAN_POINT('',(7.159609580173,-10.246462348513,-41.3127672166393));
#413=CARTESIAN_POINT('',(7.19833981088863,-10.2194000004125,-41.2132219727064));
#414=CARTESIAN_POINT('',(7.2246808479356,-10.2006927785596,-41.1046839131647));
#415=CARTESIAN_POINT('',(7.23455194504945,-10.1936871716951,-40.9951615868568));
#416=CARTESIAN_POINT('',(7.23927071139773,-10.1903382205562,-40.9428056772951));
#417=CARTESIAN_POINT('',(7.24036087314814,-10.1895625265322,-40.8897661187324));
#418=CARTESIAN_POINT('',(7.23777548279986,-10.1913986312273,-40.8371869596301));
#419=CARTESIAN_POINT('',(6.59242894057729,-10.6202580318672,-41.9842235304541));
#420=CARTESIAN_POINT('',(0.,0.,-30.5953911246915));
#421=CARTESIAN_POINT('',(-6.59242894057729,-10.6202580318672,-41.9842235304541));
#422=CARTESIAN_POINT('',(-7.23777548279986,-10.1913986312273,-40.8371869596301));
#423=CARTESIAN_POINT('',(-7.24372894819923,-10.1871705711283,-40.9582627595194));
#424=CARTESIAN_POINT('',(-7.22940687099564,-10.1974102681277,-41.0828089119964));
#425=CARTESIAN_POINT('',(-7.19774349107635,-10.2197107902655,-41.1977557981907));
#426=CARTESIAN_POINT('',(-7.16624821213432,-10.2418929188655,-41.3120924310275));
#427=CARTESIAN_POINT('',(-7.11723036321942,-10.2761993151657,-41.4203881660696));
#428=CARTESIAN_POINT('',(-7.05748159425157,-10.3170709771136,-41.5169099609647));
#429=CARTESIAN_POINT('',(-6.97208733123169,-10.3754856609764,-41.654861046532));
#430=CARTESIAN_POINT('',(-6.86283987359602,-10.4485133775156,-41.773270495072));
#431=CARTESIAN_POINT('',(-6.74375645081394,-10.5248158621472,-41.8719215301108));
#432=CARTESIAN_POINT('',(-6.69513075152201,-10.5559726897412,-41.9122040098428));
#433=CARTESIAN_POINT('',(-6.64450156039526,-10.5879344249577,-41.9495607058092));
#434=CARTESIAN_POINT('',(-6.59242894057729,-10.6202580318672,-41.9842235304541));
#435=CARTESIAN_POINT('',(-7.23777548279986,-10.1913986312273,-40.8371869596301));
#436=CARTESIAN_POINT('',(0.,0.,-332.680659470615));
#437=CARTESIAN_POINT('',(0.,0.,20.9080749503476));
#438=CARTESIAN_POINT('',(-20.,-11.9641682118823,-3.49967122605187));
#439=CARTESIAN_POINT('',(-20.,-13.5,-2.06748491386234));
#440=CARTESIAN_POINT('',(-20.,-10.1913986312273,-40.8371869596301));
#441=CARTESIAN_POINT('',(-20.,-11.4563402647517,-4.61399795391855));
#442=CARTESIAN_POINT('',(-20.,-11.4794696165184,-3.95165997845843));
#443=CARTESIAN_POINT('',(-20.,-10.6202580318672,-41.9842235304541));
#444=CARTESIAN_POINT('',(-20.,-10.1682692794606,-41.4995249350902));
#445=CARTESIAN_POINT('',(-20.,-13.0553655879823,-4.66983714864255));
#446=CARTESIAN_POINT('',(-20.,-11.7904239544578,-40.8930261543541));
#447=CARTESIAN_POINT('',(0.,0.,-145.4));
#448=CARTESIAN_POINT('',(0.,0.,-156.314342305933));
#449=CARTESIAN_POINT('',(11.5,0.,-156.314342305933));
#450=CARTESIAN_POINT('',(0.,0.,-145.4));
#451=CARTESIAN_POINT('',(11.4980354183849,0.,-145.4));
#452=CARTESIAN_POINT('',(0.,0.,-166.314342305939));
#453=CARTESIAN_POINT('',(-11.4980354183849,0.,-145.4));
#454=CARTESIAN_POINT('',(-1.93494194265282E-14,0.,-160.5));
#455=CARTESIAN_POINT('',(0.,0.,-160.5));
#456=MECHANICAL_DESIGN_GEOMETRIC_PRESENTATION_REPRESENTATION('',(#220,#221,
#222,#223,#224,#225,#226,#227,#228),#457);
#457=(
GEOMETRIC_REPRESENTATION_CONTEXT(3)
GLOBAL_UNCERTAINTY_ASSIGNED_CONTEXT((#458))
GLOBAL_UNIT_ASSIGNED_CONTEXT((#464,#460,#459))
REPRESENTATION_CONTEXT('h85323.0-r95023','TOP_LEVEL_ASSEMBLY_PART')
);
#458=UNCERTAINTY_MEASURE_WITH_UNIT(LENGTH_MEASURE(0.0508),#464,
'DISTANCE_ACCURACY_VALUE','Maximum Tolerance applied to model');
#459=(
NAMED_UNIT(*)
SI_UNIT($,.STERADIAN.)
SOLID_ANGLE_UNIT()
);
#460=(
CONVERSION_BASED_UNIT('DEGREE',#462)
NAMED_UNIT(#461)
PLANE_ANGLE_UNIT()
);
#461=DIMENSIONAL_EXPONENTS(0.,0.,0.,0.,0.,0.,0.);
#462=PLANE_ANGLE_MEASURE_WITH_UNIT(PLANE_ANGLE_MEASURE(0.0174532925),#463);
#463=(
NAMED_UNIT(*)
PLANE_ANGLE_UNIT()
SI_UNIT($,.RADIAN.)
);
#464=(
LENGTH_UNIT()
NAMED_UNIT(*)
SI_UNIT(.MILLI.,.METRE.)
);
ENDSEC;
END-ISO-10303-21;
