ISO-10303-21;
HEADER;
/* Generated by software containing ST-Developer
 * from STEP Tools, Inc. (www.steptools.com) 
 */
/* OPTION: using custom schema-name function */

FILE_DESCRIPTION(
/* description */ (''),
/* implementation_level */ '2;1');

FILE_NAME(
/* name */ 'h85139_64-r95039_64_3d_light.stp',
/* time_stamp */ '2021-09-02T20:29:43+02:00',
/* author */ (''),
/* organization */ ('SMS'),
/* preprocessor_version */ 'ST-DEVELOPER v16.7',
/* originating_system */ 'SIEMENS PLM Software NX 12.0',
/* authorisation */ '');

FILE_SCHEMA (('AUTOMOTIVE_DESIGN { 1 0 10303 214 3 1 1 1 }'));
ENDSEC;

DATA;
#10=CONSTRUCTIVE_GEOMETRY_REPRESENTATION_RELATIONSHIP(
'supplemental geometry','',#26,#11);
#11=CONSTRUCTIVE_GEOMETRY_REPRESENTATION('supplemental geometry',(#189,
#190,#191),#311);
#12=GEOMETRICALLY_BOUNDED_WIREFRAME_SHAPE_REPRESENTATION(
'H85139_64-R95039_64_3D_light-None',(#27),#311);
#13=SHAPE_REPRESENTATION_RELATIONSHIP('None',
'relationship between H85139_64-R95039_64_3D_light-None and H85139_64-
R95039_64_3D_light-None',#26,#15);
#14=SHAPE_REPRESENTATION_RELATIONSHIP('None',
'relationship between H85139_64-R95039_64_3D_light-None and H85139_64-
R95039_64_3D_light-None',#26,#12);
#15=ADVANCED_BREP_SHAPE_REPRESENTATION(
'H85139_64-R95039_64_3D_light-None',(#39,#40),#311);
#16=SHAPE_DEFINITION_REPRESENTATION(#17,#26);
#17=PRODUCT_DEFINITION_SHAPE('','',#18);
#18=PRODUCT_DEFINITION(' ','',#20,#19);
#19=PRODUCT_DEFINITION_CONTEXT('part definition',#25,'design');
#20=PRODUCT_DEFINITION_FORMATION_WITH_SPECIFIED_SOURCE(' ',' ',#22,
 .NOT_KNOWN.);
#21=PRODUCT_RELATED_PRODUCT_CATEGORY('part','',(#22));
#22=PRODUCT('H85139_64-R95039_64_3D_light',
'H85139_64-R95039_64_3D_light',' ',(#23));
#23=PRODUCT_CONTEXT(' ',#25,'mechanical');
#24=APPLICATION_PROTOCOL_DEFINITION('international standard',
'automotive_design',2010,#25);
#25=APPLICATION_CONTEXT(
'core data for automotive mechanical design processes');
#26=SHAPE_REPRESENTATION('H85139_64-R95039_64_3D_light-None',(#188),#311);
#27=GEOMETRIC_CURVE_SET('None',(#261,#262,#263,#156));
#28=VERTEX_LOOP('',#129);
#29=SURFACE_STYLE_USAGE(.BOTH.,#31);
#30=SURFACE_STYLE_USAGE(.BOTH.,#32);
#31=SURFACE_SIDE_STYLE('',(#33));
#32=SURFACE_SIDE_STYLE('',(#34));
#33=SURFACE_STYLE_FILL_AREA(#35);
#34=SURFACE_STYLE_FILL_AREA(#36);
#35=FILL_AREA_STYLE('',(#37));
#36=FILL_AREA_STYLE('',(#38));
#37=FILL_AREA_STYLE_COLOUR('',#186);
#38=FILL_AREA_STYLE_COLOUR('',#187);
#39=MANIFOLD_SOLID_BREP('NOCUT',#41);
#40=MANIFOLD_SOLID_BREP('CUT',#42);
#41=CLOSED_SHELL('',(#54,#55,#56,#57,#58,#59,#60,#61));
#42=CLOSED_SHELL('',(#62,#63,#64));
#43=FACE_OUTER_BOUND('',#92,.T.);
#44=FACE_OUTER_BOUND('',#97,.T.);
#45=FACE_OUTER_BOUND('',#100,.T.);
#46=CONICAL_SURFACE('',#200,7.20000000000001,23.8294494779648);
#47=CONICAL_SURFACE('',#204,9.525,45.);
#48=CONICAL_SURFACE('',#209,7.7408,0.0103132402009792);
#49=CONICAL_SURFACE('',#211,1.16096516559169E-14,70.);
#50=PLANE('',#197);
#51=PLANE('',#202);
#52=PLANE('',#206);
#53=PLANE('',#210);
#54=ADVANCED_FACE('',(#68,#69),#65,.T.);
#55=ADVANCED_FACE('',(#70,#71),#50,.T.);
#56=ADVANCED_FACE('',(#72,#73),#66,.T.);
#57=ADVANCED_FACE('',(#74,#75),#46,.T.);
#58=ADVANCED_FACE('',(#43),#51,.T.);
#59=ADVANCED_FACE('',(#76,#77),#47,.T.);
#60=ADVANCED_FACE('CYL_FACE',(#78,#79),#67,.T.);
#61=ADVANCED_FACE('',(#44),#52,.T.);
#62=ADVANCED_FACE('',(#80,#81),#48,.T.);
#63=ADVANCED_FACE('',(#45),#53,.F.);
#64=ADVANCED_FACE('',(#82,#83),#49,.T.);
#65=CYLINDRICAL_SURFACE('',#194,7.20000000000001);
#66=CYLINDRICAL_SURFACE('',#199,12.5);
#67=CYLINDRICAL_SURFACE('',#205,9.525);
#68=FACE_BOUND('',#84,.T.);
#69=FACE_BOUND('',#85,.T.);
#70=FACE_BOUND('',#86,.T.);
#71=FACE_BOUND('',#87,.T.);
#72=FACE_BOUND('',#88,.T.);
#73=FACE_BOUND('',#89,.T.);
#74=FACE_BOUND('',#90,.T.);
#75=FACE_BOUND('',#91,.T.);
#76=FACE_BOUND('',#93,.T.);
#77=FACE_BOUND('',#94,.T.);
#78=FACE_BOUND('',#95,.T.);
#79=FACE_BOUND('',#96,.T.);
#80=FACE_BOUND('',#98,.T.);
#81=FACE_BOUND('',#99,.T.);
#82=FACE_BOUND('',#28,.T.);
#83=FACE_BOUND('',#101,.T.);
#84=EDGE_LOOP('',(#102));
#85=EDGE_LOOP('',(#103));
#86=EDGE_LOOP('',(#104));
#87=EDGE_LOOP('',(#105));
#88=EDGE_LOOP('',(#106));
#89=EDGE_LOOP('',(#107));
#90=EDGE_LOOP('',(#108));
#91=EDGE_LOOP('',(#109));
#92=EDGE_LOOP('',(#110));
#93=EDGE_LOOP('',(#111));
#94=EDGE_LOOP('',(#112));
#95=EDGE_LOOP('',(#113));
#96=EDGE_LOOP('',(#114));
#97=EDGE_LOOP('',(#115));
#98=EDGE_LOOP('',(#116));
#99=EDGE_LOOP('',(#117));
#100=EDGE_LOOP('',(#118));
#101=EDGE_LOOP('',(#119));
#102=ORIENTED_EDGE('',*,*,#130,.F.);
#103=ORIENTED_EDGE('',*,*,#131,.F.);
#104=ORIENTED_EDGE('',*,*,#132,.T.);
#105=ORIENTED_EDGE('',*,*,#133,.F.);
#106=ORIENTED_EDGE('',*,*,#133,.T.);
#107=ORIENTED_EDGE('',*,*,#134,.F.);
#108=ORIENTED_EDGE('',*,*,#134,.T.);
#109=ORIENTED_EDGE('',*,*,#131,.T.);
#110=ORIENTED_EDGE('',*,*,#135,.F.);
#111=ORIENTED_EDGE('',*,*,#135,.T.);
#112=ORIENTED_EDGE('',*,*,#136,.F.);
#113=ORIENTED_EDGE('',*,*,#136,.T.);
#114=ORIENTED_EDGE('',*,*,#132,.F.);
#115=ORIENTED_EDGE('',*,*,#130,.T.);
#116=ORIENTED_EDGE('',*,*,#137,.T.);
#117=ORIENTED_EDGE('',*,*,#138,.T.);
#118=ORIENTED_EDGE('',*,*,#138,.F.);
#119=ORIENTED_EDGE('',*,*,#137,.F.);
#120=VERTEX_POINT('',#281);
#121=VERTEX_POINT('',#283);
#122=VERTEX_POINT('',#286);
#123=VERTEX_POINT('',#288);
#124=VERTEX_POINT('',#291);
#125=VERTEX_POINT('',#295);
#126=VERTEX_POINT('',#298);
#127=VERTEX_POINT('',#303);
#128=VERTEX_POINT('',#305);
#129=VERTEX_POINT('',#308);
#130=EDGE_CURVE('',#120,#120,#139,.T.);
#131=EDGE_CURVE('',#121,#121,#140,.T.);
#132=EDGE_CURVE('',#122,#122,#141,.T.);
#133=EDGE_CURVE('',#123,#123,#142,.T.);
#134=EDGE_CURVE('',#124,#124,#143,.T.);
#135=EDGE_CURVE('',#125,#125,#144,.T.);
#136=EDGE_CURVE('',#126,#126,#145,.T.);
#137=EDGE_CURVE('',#127,#127,#146,.T.);
#138=EDGE_CURVE('',#128,#128,#147,.T.);
#139=CIRCLE('',#192,7.20000000000001);
#140=CIRCLE('',#193,7.20000000000001);
#141=CIRCLE('',#195,9.525);
#142=CIRCLE('',#196,12.5);
#143=CIRCLE('',#198,12.5);
#144=CIRCLE('',#201,8.525);
#145=CIRCLE('',#203,9.525);
#146=CIRCLE('',#207,7.739);
#147=CIRCLE('',#208,7.73752701781574);
#148=CURVE_STYLE('',#152,POSITIVE_LENGTH_MEASURE(0.18),#158);
#149=CURVE_STYLE('',#153,POSITIVE_LENGTH_MEASURE(0.13),#185);
#150=CURVE_STYLE('',#154,POSITIVE_LENGTH_MEASURE(0.18),#184);
#151=CURVE_STYLE('',#155,POSITIVE_LENGTH_MEASURE(0.18),#184);
#152=DRAUGHTING_PRE_DEFINED_CURVE_FONT('continuous');
#153=DRAUGHTING_PRE_DEFINED_CURVE_FONT('continuous');
#154=DRAUGHTING_PRE_DEFINED_CURVE_FONT('continuous');
#155=DRAUGHTING_PRE_DEFINED_CURVE_FONT('continuous');
#156=B_SPLINE_CURVE_WITH_KNOTS('CUTTING PART LINE',3,(#264,#265,#266,#267,
#268,#269,#270,#271,#272,#273,#274,#275,#276),.UNSPECIFIED.,.T.,.F.,(4,
3,3,3,4),(0.,0.312887257639685,0.532975767595358,0.765742112871917,1.),
 .UNSPECIFIED.);
#157=DRAUGHTING_PRE_DEFINED_COLOUR('white');
#158=DRAUGHTING_PRE_DEFINED_COLOUR('blue');
#159=PRESENTATION_LAYER_ASSIGNMENT('1','Layer 1',(#261,#262,#263,#156,#189,
#190,#191,#39,#40));
#160=STYLED_ITEM('',(#169),#261);
#161=STYLED_ITEM('',(#170),#262);
#162=STYLED_ITEM('',(#171),#263);
#163=STYLED_ITEM('',(#172),#156);
#164=STYLED_ITEM('',(#173),#189);
#165=STYLED_ITEM('',(#174),#190);
#166=STYLED_ITEM('',(#175),#191);
#167=STYLED_ITEM('',(#176),#39);
#168=STYLED_ITEM('',(#177),#40);
#169=PRESENTATION_STYLE_ASSIGNMENT((#178));
#170=PRESENTATION_STYLE_ASSIGNMENT((#179));
#171=PRESENTATION_STYLE_ASSIGNMENT((#180));
#172=PRESENTATION_STYLE_ASSIGNMENT((#148));
#173=PRESENTATION_STYLE_ASSIGNMENT((#149));
#174=PRESENTATION_STYLE_ASSIGNMENT((#150));
#175=PRESENTATION_STYLE_ASSIGNMENT((#151));
#176=PRESENTATION_STYLE_ASSIGNMENT((#29));
#177=PRESENTATION_STYLE_ASSIGNMENT((#30));
#178=POINT_STYLE('',#181,POSITIVE_LENGTH_MEASURE(3.),#184);
#179=POINT_STYLE('',#182,POSITIVE_LENGTH_MEASURE(3.),#157);
#180=POINT_STYLE('',#183,POSITIVE_LENGTH_MEASURE(3.),#184);
#181=PRE_DEFINED_POINT_MARKER_SYMBOL('plus');
#182=PRE_DEFINED_POINT_MARKER_SYMBOL('plus');
#183=PRE_DEFINED_POINT_MARKER_SYMBOL('plus');
#184=COLOUR_RGB('Medium Maroon',0.6,0.4,0.4);
#185=COLOUR_RGB('Silver Gray',0.6,0.6,0.6);
#186=COLOUR_RGB('TLS_NOCUT',0.498023956664378,0.498023956664378,0.498023956664378);
#187=COLOUR_RGB('TLS_CUT',0.8,0.8,0.8);
#188=AXIS2_PLACEMENT_3D('',#260,#212,#213);
#189=AXIS2_PLACEMENT_3D('PCS',#277,#214,#215);
#190=AXIS2_PLACEMENT_3D('MCS',#278,#216,#217);
#191=AXIS2_PLACEMENT_3D('CIP',#279,#218,#219);
#192=AXIS2_PLACEMENT_3D('',#280,#220,#221);
#193=AXIS2_PLACEMENT_3D('',#282,#222,#223);
#194=AXIS2_PLACEMENT_3D('',#284,#224,#225);
#195=AXIS2_PLACEMENT_3D('',#285,#226,#227);
#196=AXIS2_PLACEMENT_3D('',#287,#228,#229);
#197=AXIS2_PLACEMENT_3D('',#289,#230,#231);
#198=AXIS2_PLACEMENT_3D('',#290,#232,#233);
#199=AXIS2_PLACEMENT_3D('',#292,#234,#235);
#200=AXIS2_PLACEMENT_3D('',#293,#236,#237);
#201=AXIS2_PLACEMENT_3D('',#294,#238,#239);
#202=AXIS2_PLACEMENT_3D('',#296,#240,#241);
#203=AXIS2_PLACEMENT_3D('',#297,#242,#243);
#204=AXIS2_PLACEMENT_3D('',#299,#244,#245);
#205=AXIS2_PLACEMENT_3D('',#300,#246,#247);
#206=AXIS2_PLACEMENT_3D('',#301,#248,#249);
#207=AXIS2_PLACEMENT_3D('',#302,#250,#251);
#208=AXIS2_PLACEMENT_3D('',#304,#252,#253);
#209=AXIS2_PLACEMENT_3D('',#306,#254,#255);
#210=AXIS2_PLACEMENT_3D('',#307,#256,#257);
#211=AXIS2_PLACEMENT_3D('',#309,#258,#259);
#212=DIRECTION('',(0.,0.,1.));
#213=DIRECTION('',(1.,0.,0.));
#214=DIRECTION('',(0.,0.,1.));
#215=DIRECTION('',(1.,0.,0.));
#216=DIRECTION('',(0.,0.,1.));
#217=DIRECTION('',(1.,0.,0.));
#218=DIRECTION('',(0.,0.,1.));
#219=DIRECTION('',(1.,0.,0.));
#220=DIRECTION('',(0.,0.,-1.));
#221=DIRECTION('',(1.,0.,0.));
#222=DIRECTION('',(0.,0.,1.));
#223=DIRECTION('',(-1.,0.,0.));
#224=DIRECTION('',(0.,0.,1.));
#225=DIRECTION('',(1.,0.,0.));
#226=DIRECTION('',(0.,0.,-1.));
#227=DIRECTION('',(-1.,0.,0.));
#228=DIRECTION('',(0.,0.,-1.));
#229=DIRECTION('',(-1.,0.,0.));
#230=DIRECTION('',(0.,0.,1.));
#231=DIRECTION('',(1.,0.,0.));
#232=DIRECTION('',(0.,0.,-1.));
#233=DIRECTION('',(-1.,0.,0.));
#234=DIRECTION('',(0.,0.,-1.));
#235=DIRECTION('',(-1.,0.,0.));
#236=DIRECTION('',(0.,0.,1.));
#237=DIRECTION('',(1.,0.,6.18347889847666E-17));
#238=DIRECTION('',(0.,0.,-1.));
#239=DIRECTION('',(-1.,0.,0.));
#240=DIRECTION('',(0.,0.,1.));
#241=DIRECTION('',(1.,0.,0.));
#242=DIRECTION('',(0.,0.,-1.));
#243=DIRECTION('',(-1.,0.,0.));
#244=DIRECTION('',(0.,0.,-1.));
#245=DIRECTION('',(-1.,0.,1.0997479256335E-16));
#246=DIRECTION('',(0.,0.,-1.));
#247=DIRECTION('',(-1.,0.,0.));
#248=DIRECTION('',(0.,0.,-1.));
#249=DIRECTION('',(-1.,0.,0.));
#250=DIRECTION('',(0.,0.,1.));
#251=DIRECTION('',(1.,0.,0.));
#252=DIRECTION('',(0.,0.,-1.));
#253=DIRECTION('',(1.,0.,0.));
#254=DIRECTION('',(0.,0.,-1.));
#255=DIRECTION('',(-1.,0.,-7.00827583467035E-15));
#256=DIRECTION('',(0.,0.,-1.));
#257=DIRECTION('',(-1.,0.,0.));
#258=DIRECTION('',(0.,0.,1.));
#259=DIRECTION('',(1.,0.,2.02044067180275E-17));
#260=CARTESIAN_POINT('',(0.,0.,0.));
#261=CARTESIAN_POINT('',(0.,0.,-50.8));
#262=CARTESIAN_POINT('CRP',(-7.739,0.,-94.4832343570139));
#263=CARTESIAN_POINT('CIP_DCSYS',(0.,0.,-97.3));
#264=CARTESIAN_POINT('',(0.,0.,-97.3));
#265=CARTESIAN_POINT('',(0.,0.,-93.6333333333333));
#266=CARTESIAN_POINT('',(0.,0.,-89.9666666666667));
#267=CARTESIAN_POINT('',(0.,0.,-86.3));
#268=CARTESIAN_POINT('',(-2.57917567260525,0.,-86.3));
#269=CARTESIAN_POINT('',(-5.15835134521049,0.,-86.3));
#270=CARTESIAN_POINT('',(-7.73752701781574,0.,-86.300000000003));
#271=CARTESIAN_POINT('',(-7.73801801187716,0.,-89.0277447856752));
#272=CARTESIAN_POINT('',(-7.73850900593858,0.,-91.7554895713445));
#273=CARTESIAN_POINT('',(-7.739,0.,-94.4832343570138));
#274=CARTESIAN_POINT('',(-5.15933333333334,0.,-95.4221562380092));
#275=CARTESIAN_POINT('',(-2.57966666666667,0.,-96.3610781190046));
#276=CARTESIAN_POINT('',(0.,0.,-97.3));
#277=CARTESIAN_POINT('',(0.,0.,0.));
#278=CARTESIAN_POINT('',(0.,0.,-50.8));
#279=CARTESIAN_POINT('',(0.,0.,-97.3));
#280=CARTESIAN_POINT('',(0.,0.,-86.3));
#281=CARTESIAN_POINT('',(7.20000000000001,0.,-86.3));
#282=CARTESIAN_POINT('',(0.,0.,-65.8));
#283=CARTESIAN_POINT('',(-7.20000000000001,0.,-65.8));
#284=CARTESIAN_POINT('',(0.,0.,20.9080749503476));
#285=CARTESIAN_POINT('',(0.,0.,-50.8));
#286=CARTESIAN_POINT('',(-9.525,0.,-50.8));
#287=CARTESIAN_POINT('',(0.,0.,-50.8));
#288=CARTESIAN_POINT('',(-12.5,0.,-50.8));
#289=CARTESIAN_POINT('',(-12.5,0.,-50.8));
#290=CARTESIAN_POINT('',(0.,0.,-53.8));
#291=CARTESIAN_POINT('',(-12.5,0.,-53.8));
#292=CARTESIAN_POINT('',(0.,0.,20.9080749503476));
#293=CARTESIAN_POINT('',(0.,0.,-65.8));
#294=CARTESIAN_POINT('',(0.,0.,0.));
#295=CARTESIAN_POINT('',(-8.525,0.,0.));
#296=CARTESIAN_POINT('',(-8.525,0.,3.88578058618805E-16));
#297=CARTESIAN_POINT('',(0.,0.,-1.));
#298=CARTESIAN_POINT('',(-9.525,0.,-1.));
#299=CARTESIAN_POINT('',(0.,0.,-1.));
#300=CARTESIAN_POINT('',(0.,0.,20.9080749503476));
#301=CARTESIAN_POINT('',(0.,0.,-86.3));
#302=CARTESIAN_POINT('',(0.,0.,-94.4832343570141));
#303=CARTESIAN_POINT('',(7.739,0.,-94.4832343570141));
#304=CARTESIAN_POINT('',(0.,0.,-86.3));
#305=CARTESIAN_POINT('',(7.73752701781574,0.,-86.3));
#306=CARTESIAN_POINT('',(0.,0.,-104.483234357014));
#307=CARTESIAN_POINT('',(-7.73752701781574,0.,-86.3));
#308=CARTESIAN_POINT('',(-1.16096516559169E-14,0.,-97.3));
#309=CARTESIAN_POINT('',(0.,0.,-97.3));
#310=MECHANICAL_DESIGN_GEOMETRIC_PRESENTATION_REPRESENTATION('',(#160,#161,
#162,#163,#164,#165,#166,#167,#168),#311);
#311=(
GEOMETRIC_REPRESENTATION_CONTEXT(3)
GLOBAL_UNCERTAINTY_ASSIGNED_CONTEXT((#312))
GLOBAL_UNIT_ASSIGNED_CONTEXT((#318,#314,#313))
REPRESENTATION_CONTEXT('h85139_64-r95039_64_3d_light',
'TOP_LEVEL_ASSEMBLY_PART')
);
#312=UNCERTAINTY_MEASURE_WITH_UNIT(LENGTH_MEASURE(2.E-5),#318,
'DISTANCE_ACCURACY_VALUE','Maximum Tolerance applied to model');
#313=(
NAMED_UNIT(*)
SI_UNIT($,.STERADIAN.)
SOLID_ANGLE_UNIT()
);
#314=(
CONVERSION_BASED_UNIT('DEGREE',#316)
NAMED_UNIT(#315)
PLANE_ANGLE_UNIT()
);
#315=DIMENSIONAL_EXPONENTS(0.,0.,0.,0.,0.,0.,0.);
#316=PLANE_ANGLE_MEASURE_WITH_UNIT(PLANE_ANGLE_MEASURE(0.0174532925),#317);
#317=(
NAMED_UNIT(*)
PLANE_ANGLE_UNIT()
SI_UNIT($,.RADIAN.)
);
#318=(
LENGTH_UNIT()
NAMED_UNIT(*)
SI_UNIT(.MILLI.,.METRE.)
);
ENDSEC;
END-ISO-10303-21;
